  0
SECTION
  2
HEADER
  9
$ACADVER
  1
AC1009
  9
$INSBASE
 10
0
 20
0
 30
0
  9
$EXTMIN
 10
0
 20
0
  9
$EXTMAX
 10
2100
 20
1485
  9
$LIMMIN
 10
0
 20
0
  9
$LIMMAX
 10
2100
 20
1485
  9
$LTSCALE
 40
5
  0
ENDSEC
  0
SECTION
  2
TABLES
  0
TABLE
  2
LTYPE
 70
     9
  0
LTYPE
  2
CONTINUOUS
 70
    64
  3
実線
 72
    65
 73
     0
 40
0.0
  0
LTYPE
  2
DASHED1
 70
    64
  3
--  --  --  --  --  --  --  --  
 72
    65
 73
     2
 40
2.5
 49
1.25
 49
-1.25
  0
LTYPE
  2
DASHED2
 70
    64
  3
----    ----    ----    ----    
 72
    65
 73
     2
 40
5.0
 49
2.5
 49
-2.5
  0
LTYPE
  2
DASHED3
 70
    64
  3
------  ------  ------  ------  
 72
    65
 73
     2
 40
5.0
 49
3.75
 49
-1.25
  0
LTYPE
  2
CENTER1
 70
    64
  3
----- - ----- - ----- - ----- - 
 72
    65
 73
     4
 40
10.0
 49
6.25
 49
-1.25
 49
1.25
 49
-1.25
  0
LTYPE
  2
CENTER2
 70
    64
  3
----------  --  ----------  --  
 72
    65
 73
     4
 40
20.0
 49
12.5
 49
-2.5
 49
2.5
 49
-2.5
  0
LTYPE
  2
PHANTOM1
 70
    64
  3
--- - - --- - - --- - - --- - - 
 72
    65
 73
     6
 40
10.0
 49
3.25
 49
-1.25
 49
1.25
 49
-1.25
 49
1.25
 49
-1.25
  0
LTYPE
  2
PHANTOM2
 70
    64
  3
--------  -  -  --------  -  -  
 72
    65
 73
     6
 40
20.0
 49
10.0
 49
-2.5
 49
1.25
 49
-2.5
 49
1.25
 49
-2.5
  0
LTYPE
  2
DOT
 70
    64
  3
-   -   -   -   -   -   -   -   
 72
    65
 73
     2
 40
2.5
 49
0.625
 49
-1.875
  0
LTYPE
  2
DUMMY
 70
    64
  3
ダミー
 72
    65
 73
     0
 40
0.0
  0
LTYPE
  2
RAND1
 70
    64
  3
ランダム線1
 72
    65
 73
     4
 40
10.0
 49
1.0
 49
-2.0
 49
3.0
 49
-4.0
  0
LTYPE
  2
RAND2
 70
    64
  3
ランダム線2
 72
    65
 73
     4
 40
14.0
 49
2.0
 49
-3.0
 49
4.0
 49
-5.0
  0
LTYPE
  2
RAND3
 70
    64
  3
ランダム線3
 72
    65
 73
     4
 40
18.0
 49
3.0
 49
-4.0
 49
5.0
 49
-6.0
  0
LTYPE
  2
RAND4
 70
    64
  3
ランダム線4
 72
    65
 73
     4
 40
22.0
 49
4.0
 49
-5.0
 49
6.0
 49
-7.0
  0
LTYPE
  2
RAND5
 70
    64
  3
ランダム線5
 72
    65
 73
     4
 40
26.0
 49
5.0
 49
-6.0
 49
7.0
 49
-8.0
  0
LTYPE
  2
LONG1
 70
    64
  3
----------  --  ----------  --  
 72
    65
 73
     4
 40
40.0
 49
32.5
 49
-2.5
 49
2.5
 49
-2.5
  0
LTYPE
  2
LONG2
 70
    64
  3
--------  -  -  --------  -  -  
 72
    65
 73
     6
 40
40.0
 49
30.0
 49
-2.5
 49
1.25
 49
-2.5
 49
1.25
 49
-2.5
  0
LTYPE
  2
LONG3
 70
    64
  3
+++++++++++++++..+++++++++++++++
 72
    65
 73
     2
 40
40.0
 49
37.5
 49
-2.5
  0
LTYPE
  2
LONG4
 70
    64
  3
+++++++++++++++..+++++++++++++++
 72
    65
 73
     2
 40
80.0
 49
75.0
 49
-5.0
  0
LTYPE
  2
LONG5
 70
    64
  3
----------  --  ----------  --  
 72
    65
 73
     4
 40
60.0
 49
37.5
 49
-7.5
 49
7.5
 49
-7.5
  0
LTYPE
  2
dashed
 70
   64
  3
-------   -------------   ------
 72
   65
 73
    2
 40
7.5
 49
6
 49
-1.5
  0
LTYPE
  2
dashed_spaced
 70
   64
  3
----        --------        ----
 72
   65
 73
    2
 40
12
 49
6
 49
-6
  0
LTYPE
  2
long_dashed_dotted
 70
   64
  3
------------- --- --------------
 72
   65
 73
    4
 40
15.25
 49
12
 49
-1.5
 49
0.25
 49
-1.5
  0
LTYPE
  2
long_dashed_double-dotted
 70
   64
  3
----------- --- --- ------------
 72
   65
 73
    6
 40
17
 49
12
 49
-1.5
 49
0.25
 49
-1.5
 49
0.25
 49
-1.5
  0
LTYPE
  2
long_dashed_triplicate-dotted
 70
   64
  3
--------- --- --- --- ----------
 72
   65
 73
    8
 40
18.75
 49
12
 49
-1.5
 49
0.25
 49
-1.5
 49
0.25
 49
-1.5
 49
0.25
 49
-1.5
  0
LTYPE
  2
dotted
 70
   64
  3
   -       -       -       -    
 72
   65
 73
    2
 40
1.75
 49
0.25
 49
-1.5
  0
LTYPE
  2
chain
 70
   64
  3
-------------- -- --------------
 72
   65
 73
    4
 40
18.5
 49
12
 49
-1.5
 49
3.5
 49
-1.5
  0
LTYPE
  2
chain_double_dash
 70
   64
  3
------------ -- -- -------------
 72
   65
 73
    6
 40
23.5
 49
12
 49
-1.5
 49
3.5
 49
-1.5
 49
3.5
 49
-1.5
  0
LTYPE
  2
dashed_dotted
 70
   64
  3
-----------     -     ----------
 72
   65
 73
    4
 40
9.25
 49
6
 49
-1.5
 49
0.25
 49
-1.5
  0
LTYPE
  2
double-dashed_dotted
 70
   64
  3
------   -----------   -   -----
 72
   65
 73
    6
 40
16.75
 49
6
 49
-1.5
 49
6
 49
-1.5
 49
0.25
 49
-1.5
  0
LTYPE
  2
dashed_double-dotted
 70
   64
  3
---------    -    -    ---------
 72
   65
 73
    6
 40
11
 49
6
 49
-1.5
 49
0.25
 49
-1.5
 49
0.25
 49
-1.5
  0
LTYPE
  2
double-dashed_double-dotted
 70
   64
  3
-----   ---------   -   -   ----
 72
   65
 73
    8
 40
18.5
 49
6
 49
-1.5
 49
6
 49
-1.5
 49
0.25
 49
-1.5
 49
0.25
 49
-1.5
  0
LTYPE
  2
dashed_triplicate-dotted
 70
   64
  3
-------    -    -    -    ------
 72
   65
 73
    8
 40
12.75
 49
6
 49
-1.5
 49
0.25
 49
-1.5
 49
0.25
 49
-1.5
 49
0.25
 49
-1.5
  0
LTYPE
  2
double-dashed_triplicate-dotted
 70
   64
  3
-----  ---------  -  -  -  -----
 72
   65
 73
   10
 40
20.25
 49
6
 49
-1.5
 49
6
 49
-1.5
 49
0.25
 49
-1.5
 49
0.25
 49
-1.5
 49
0.25
 49
-1.5
  0
LTYPE
  2
undefined
 70
   64
  3
--------------------------------
 72
   65
 73
    0
 40
0
  0
ENDTAB
  0
TABLE
  2
STYLE
  5
3
100
AcDbSymbolTable
 70
     1
  0
STYLE
  5
10
100
AcDbSymbolTableRecord
100
AcDbTextStyleTableRecord
  2
STANDARD
 70
     0
 40
0.0
 41
1.0
 50
0.0
 71
     0
 42
0.2
  3
txt
  4
bigfont.shx
  0
STYLE
  5
26
100
AcDbSymbolTableRecord
100
AcDbTextStyleTableRecord
  2
TATEGAKI
 70
    68
 40
0.0
 41
1.0
 50
0.0
 71
     0
 42
1.0
  3
txt
  4
bigfont.shx
  0
ENDTAB
  0
TABLE
  2
LAYER
 70
   12
  0
LAYER
  2
_0-1_線色１__水色__
 70
   64
 62
    7
  6
CONTINUOUS
  0
LAYER
  2
_0-2_線色２__白__
 70
   64
 62
    7
  6
CONTINUOUS
  0
LAYER
  2
_0-3_線色３__緑__
 70
   64
 62
    7
  6
CONTINUOUS
  0
LAYER
  2
_0-4_線色４__黄__
 70
   64
 62
    7
  6
CONTINUOUS
  0
LAYER
  2
_0-5_金属
 70
   64
 62
    7
  6
CONTINUOUS
  0
LAYER
  2
_0-6_鋼板__アングル
 70
   64
 62
    7
  6
CONTINUOUS
  0
LAYER
  2
_0-7_ビス
 70
   64
 62
    7
  6
CONTINUOUS
  0
LAYER
  2
_0-a_文字
 70
   64
 62
    7
  6
CONTINUOUS
  0
LAYER
  2
_0-d_断熱__ハッチ
 70
   64
 62
    7
  6
CONTINUOUS
  0
LAYER
  2
_f-0_
 70
   64
 62
    7
  6
CONTINUOUS
  0
LAYER
  2
_f-f_
 70
   64
 62
    7
  6
CONTINUOUS
  0
LAYER
  2
ADD_LINE
 70
   64
 62
    7
  6
CONTINUOUS
  0
ENDTAB
  0
ENDSEC
  0
SECTION
  2
BLOCKS
  0
ENDSEC
  0
SECTION
  2
ENTITIES
  0
LINE
  8
_f-0_
  6
CONTINUOUS
 62
  136
 10
1714.9999999999989
 20
1192.5
 11
385
 21
1192.5
  0
LINE
  8
_f-0_
  6
CONTINUOUS
 62
  136
 10
385
 20
277.50000000000341
 11
1714.9999999999989
 21
277.50000000000341
  0
LINE
  8
_f-0_
  6
CONTINUOUS
 62
  136
 10
385
 20
1192.5
 11
385
 21
277.50000000000341
  0
LINE
  8
_f-0_
  6
CONTINUOUS
 62
  136
 10
1714.9999999999989
 20
1192.5
 11
1714.9999999999989
 21
277.50000000000341
  0
LINE
  8
_f-0_
  6
CONTINUOUS
 62
    6
 10
1714.9999999999989
 20
1152.5
 11
385
 21
1152.5
  0
LINE
  8
_f-f_
  6
CONTINUOUS
 62
    9
 10
310
 20
217.5
 11
310
 21
1267.5
  0
LINE
  8
_f-f_
  6
CONTINUOUS
 62
    9
 10
1790
 20
217.5
 11
310
 21
217.5
  0
LINE
  8
_f-f_
  6
CONTINUOUS
 62
    9
 10
1790
 20
1267.5
 11
310
 21
1267.5
  0
LINE
  8
_f-f_
  6
CONTINUOUS
 62
    9
 10
1790
 20
1267.5
 11
1790
 21
217.5
  0
LINE
  8
ADD_LINE
  6
DOT
 62
  136
 10
1764.9999999999989
 20
1242.5
 11
335
 21
1242.5
  0
LINE
  8
ADD_LINE
  6
DOT
 62
  136
 10
335
 20
242.50000000000227
 11
335
 21
1242.5
  0
LINE
  8
ADD_LINE
  6
DOT
 62
  136
 10
1765
 20
1242.5
 11
1765
 21
242.5
  0
LINE
  8
ADD_LINE
  6
DOT
 62
  136
 10
1765
 20
242.5
 11
335.00000000000114
 21
242.5
  0
TEXT
  8
_0-a_文字
 62
    7
 10
405
 20
287.50000000000313
 40
15.000000000000568
 41
0.9999999999999666
 50
0
  1
※ 本図面は防水納まりの参考図であり、下地等の構造を保証するものではありません
  0
TEXT
  8
_0-a_文字
 62
    7
 10
405
 20
307.50000000000313
 40
15.000000000000568
 41
0.9999999999999668
 50
0
  1
※ デッキ端部などの開口部には、必要に応じ遮炎性を満たす処理をお願いします（別途工事）
  0
TEXT
  8
_0-a_文字
 62
    7
 10
405
 20
327.50000000000313
 40
15.000000000000568
 41
0.9999999999999666
 50
0
  1
※ ラジアルシートＬ６００は、断熱材の種類がポリスチレンフォームの場合のみ使用
  0
LINE
  8
_0-6_鋼板__アングル
  6
CONTINUOUS
 62
    2
 10
796.30914526836364
 20
688.29893331157905
 11
997.50914526836482
 21
688.29893331157905
  0
LINE
  8
_0-6_鋼板__アングル
  6
CONTINUOUS
 62
    2
 10
997.50914526836482
 20
688.29893331157905
 11
997.50914526836482
 21
689.49893331157796
  0
LINE
  8
_0-6_鋼板__アングル
  6
CONTINUOUS
 62
    2
 10
797.50914526836482
 20
689.49893331157796
 11
997.50914526836482
 21
689.49893331157796
  0
ARC
  8
_0-1_線色１__水色__
  6
CONTINUOUS
 62
    4
 10
1038.5472172623247
 20
726.75726664879335
 40
1.2083333333333581
 50
307.52351320333912
 51
232.47648680464988
  0
ARC
  8
_0-1_線色１__水色__
  6
CONTINUOUS
 62
    4
 10
1020.8836955302479
 20
726.75726664815897
 40
1.2083333333333581
 50
307.52351320333912
 51
232.47648680464988
  0
ARC
  8
_0-1_線色１__水色__
  6
CONTINUOUS
 62
    4
 10
1022.3556556747246
 20
724.84059998156113
 40
1.2083333333333179
 50
127.52351320610693
 51
52.47648680188081
  0
ARC
  8
_0-1_線色１__水色__
  6
CONTINUOUS
 62
    4
 10
1017.939775241565
 20
726.75726664795434
 40
1.2083333333333581
 50
307.52351320333912
 51
232.47648680464988
  0
ARC
  8
_0-1_線色１__水色__
  6
CONTINUOUS
 62
    4
 10
1019.4117353860395
 20
724.84059998135422
 40
1.2083333333333179
 50
127.52351320610693
 51
52.47648680188081
  0
ARC
  8
_0-1_線色１__水色__
  6
CONTINUOUS
 62
    4
 10
1014.9958549528822
 20
726.7572666477497
 40
1.2083333333333581
 50
307.52351320333912
 51
232.47648680464988
  0
ARC
  8
_0-1_線色１__水色__
  6
CONTINUOUS
 62
    4
 10
1016.4678150973566
 20
724.84059998114958
 40
1.2083333333333179
 50
127.52351320610693
 51
52.47648680188081
  0
ARC
  8
_0-1_線色１__水色__
  6
CONTINUOUS
 62
    4
 10
1013.5238948086737
 20
724.84059998094494
 40
1.2083333333333179
 50
127.52351320610693
 51
52.47648680188081
  0
ARC
  8
_0-1_線色１__水色__
  6
CONTINUOUS
 62
    4
 10
1025.2995759634075
 20
724.84059998114958
 40
1.2083333333333179
 50
127.52351320610693
 51
52.47648680188081
  0
ARC
  8
_0-1_線色１__水色__
  6
CONTINUOUS
 62
    4
 10
1023.8276158189308
 20
726.7572666477497
 40
1.2083333333333581
 50
307.52351320333912
 51
232.47648680464988
  0
ARC
  8
_0-1_線色１__水色__
  6
CONTINUOUS
 62
    4
 10
1035.6032969736646
 20
726.75726664857052
 40
1.2083333333333581
 50
307.52351320333912
 51
232.47648680464988
  0
ARC
  8
_0-1_線色１__水色__
  6
CONTINUOUS
 62
    4
 10
1032.6593766849817
 20
726.75726664836588
 40
1.2083333333333581
 50
307.52351320333912
 51
232.47648680464988
  0
ARC
  8
_0-1_線色１__水色__
  6
CONTINUOUS
 62
    4
 10
1034.1313368294561
 20
724.84059998176576
 40
1.2083333333333179
 50
127.52351320610693
 51
52.47648680188081
  0
ARC
  8
_0-1_線色１__水色__
  6
CONTINUOUS
 62
    4
 10
1029.7154563962988
 20
726.75726664815897
 40
1.2083333333333581
 50
307.52351320333912
 51
232.47648680464988
  0
ARC
  8
_0-1_線色１__水色__
  6
CONTINUOUS
 62
    4
 10
1028.2434962520904
 20
724.84059998135422
 40
1.2083333333333179
 50
127.52351320610693
 51
52.47648680188081
  0
ARC
  8
_0-1_線色１__水色__
  6
CONTINUOUS
 62
    4
 10
1031.1874165407733
 20
724.84059998156113
 40
1.2083333333333179
 50
127.52351320610693
 51
52.47648680188081
  0
ARC
  8
_0-1_線色１__水色__
  6
CONTINUOUS
 62
    4
 10
1026.7715361076137
 20
726.75726664795434
 40
1.2083333333333581
 50
307.52351320333912
 51
232.47648680464988
  0
ARC
  8
_0-1_線色１__水色__
  6
CONTINUOUS
 62
    4
 10
1037.075257118139
 20
724.8405999819704
 40
1.2083333333333179
 50
127.52351320610693
 51
52.47648680188081
  0
ARC
  8
_0-1_線色１__水色__
  6
CONTINUOUS
 62
    4
 10
1009.1080143754914
 20
726.75726665106936
 40
1.2083333333333581
 50
307.52351320333912
 51
232.47648680464988
  0
ARC
  8
_0-1_線色１__水色__
  6
CONTINUOUS
 62
    4
 10
1007.636054231283
 20
724.8405999842646
 40
1.2083333333333179
 50
127.52351320610693
 51
52.47648680188081
  0
ARC
  8
_0-1_線色１__水色__
  6
CONTINUOUS
 62
    4
 10
1010.5799745199681
 20
724.84059998446924
 40
1.2083333333333179
 50
127.52351320610693
 51
52.47648680188081
  0
ARC
  8
_0-1_線色１__水色__
  6
CONTINUOUS
 62
    4
 10
1006.1640940868085
 20
726.75726665086245
 40
1.2083333333333581
 50
307.52351320333912
 51
232.47648680464988
  0
ARC
  8
_0-1_線色１__水色__
  6
CONTINUOUS
 62
    4
 10
1003.2201737981484
 20
726.75726665063962
 40
1.2083333333333581
 50
307.52351320333912
 51
232.47648680464988
  0
ARC
  8
_0-1_線色１__水色__
  6
CONTINUOUS
 62
    4
 10
1000.2762535094655
 20
726.75726665043499
 40
1.2083333333333581
 50
307.52351320333912
 51
232.47648680464988
  0
ARC
  8
_0-1_線色１__水色__
  6
CONTINUOUS
 62
    4
 10
1001.74821365394
 20
724.84059998383486
 40
1.2083333333333179
 50
127.52351320610693
 51
52.47648680188081
  0
ARC
  8
_0-1_線色１__水色__
  6
CONTINUOUS
 62
    4
 10
1004.6921339426228
 20
724.84059998404177
 40
1.2083333333333179
 50
127.52351320610693
 51
52.47648680188081
  0
ARC
  8
_0-1_線色１__水色__
  6
CONTINUOUS
 62
    4
 10
1012.0519346641743
 20
726.75726665127399
 40
1.2083333333333581
 50
307.52351320333912
 51
232.47648680464988
  0
LINE
  8
_0-2_線色２__白__
  6
CONTINUOUS
 62
    7
 10
814.30914526836318
 20
689.49893331157796
 11
814.30914526836318
 21
980.37360483996849
  0
ARC
  8
_0-1_線色１__水色__
  6
CONTINUOUS
 62
    4
 10
816.28123546695747
 20
724.84059998135422
 40
1.2083333333333179
 50
267.27680329960265
 51
52.476486801880824
  0
LINE
  8
_0-2_線色２__白__
  6
CONTINUOUS
 62
    7
 10
865.16509206942715
 20
733.29893331157905
 11
873.00315798460701
 21
733.29893331157905
  0
LINE
  8
_0-2_線色２__白__
  6
CONTINUOUS
 62
    7
 10
861.11374349347102
 20
736.75008209850489
 11
865.16509206942715
 21
733.29893331157905
  0
LINE
  8
_0-2_線色２__白__
  6
CONTINUOUS
 62
    7
 10
814.30914526836318
 20
736.75008209850489
 11
861.11374349347102
 21
736.75008209850489
  0
LINE
  8
_0-2_線色２__白__
  6
CONTINUOUS
 62
    7
 10
867.00602591767506
 20
738.29893331157905
 11
867.02424470519759
 21
738.42983825826082
  0
LINE
  8
_0-2_線色２__白__
  6
CONTINUOUS
 62
    7
 10
867.02424470519759
 20
738.42983825826082
 11
867.05731148485825
 21
738.65491219327964
  0
LINE
  8
_0-2_線色２__白__
  6
CONTINUOUS
 62
    7
 10
867.05731148485825
 20
738.65491219327964
 11
867.09497570072358
 21
738.87825210353753
  0
LINE
  8
_0-2_線色２__白__
  6
CONTINUOUS
 62
    7
 10
867.09497570072358
 20
738.87825210353753
 11
867.1401471225488
 21
739.09876050500884
  0
LINE
  8
_0-2_線色２__白__
  6
CONTINUOUS
 62
    7
 10
867.1401471225488
 20
739.09876050500884
 11
867.19573552007773
 21
739.31533991366564
  0
LINE
  8
_0-2_線色２__白__
  6
CONTINUOUS
 62
    7
 10
867.19573552007773
 20
739.31533991366564
 11
867.26465066306787
 21
739.52689284548455
  0
LINE
  8
_0-2_線色２__白__
  6
CONTINUOUS
 62
    7
 10
867.26465066306787
 20
739.52689284548455
 11
867.31187436136111
 21
739.64685794847696
  0
LINE
  8
_0-2_線色２__白__
  6
CONTINUOUS
 62
    7
 10
867.31187436136111
 20
739.64685794847696
 11
867.35281542262442
 21
739.73897478806862
  0
LINE
  8
_0-2_線色２__白__
  6
CONTINUOUS
 62
    7
 10
867.35281542262442
 20
739.73897478806862
 11
867.43123059530603
 21
739.89468909108041
  0
LINE
  8
_0-2_線色２__白__
  6
CONTINUOUS
 62
    7
 10
867.43123059530603
 20
739.89468909108041
 11
867.51833760963223
 21
740.04669269396231
  0
LINE
  8
_0-2_線色２__白__
  6
CONTINUOUS
 62
    7
 10
867.51833760963223
 20
740.04669269396231
 11
867.61272259877956
 21
740.19524520976233
  0
LINE
  8
_0-2_線色２__白__
  6
CONTINUOUS
 62
    7
 10
867.61272259877956
 20
740.19524520976233
 11
867.71297169592458
 21
740.34060625153302
  0
LINE
  8
_0-2_線色２__白__
  6
CONTINUOUS
 62
    7
 10
867.71297169592458
 20
740.34060625153302
 11
867.81767103424158
 21
740.48303543232919
  0
LINE
  8
_0-2_線色２__白__
  6
CONTINUOUS
 62
    7
 10
867.81767103424158
 20
740.48303543232919
 11
867.87987861392025
 21
740.5644032795351
  0
LINE
  8
_0-2_線色２__白__
  6
CONTINUOUS
 62
    7
 10
867.87987861392025
 20
740.5644032795351
 11
867.95409488785594
 21
740.65908687233673
  0
LINE
  8
_0-2_線色２__白__
  6
CONTINUOUS
 62
    7
 10
867.95409488785594
 20
740.65908687233673
 11
868.08431982795923
 21
740.81980566620018
  0
LINE
  8
_0-2_線色２__白__
  6
CONTINUOUS
 62
    7
 10
868.08431982795923
 20
740.81980566620018
 11
868.21717164718052
 21
740.97767242859049
  0
LINE
  8
_0-2_線色２__白__
  6
CONTINUOUS
 62
    7
 10
868.21717164718052
 20
740.97767242859049
 11
868.35236978530816
 21
741.13309292205599
  0
LINE
  8
_0-2_線色２__白__
  6
CONTINUOUS
 62
    7
 10
868.35236978530816
 20
741.13309292205599
 11
868.48963368213276
 21
741.286472909145
  0
LINE
  8
_0-2_線色２__白__
  6
CONTINUOUS
 62
    7
 10
868.48963368213276
 20
741.286472909145
 11
868.62868277744042
 21
741.43821815239903
  0
LINE
  8
_0-2_線色２__白__
  6
CONTINUOUS
 62
    7
 10
868.62868277744042
 20
741.43821815239903
 11
868.71003867535251
 21
741.52564124540618
  0
LINE
  8
_0-2_線色２__白__
  6
CONTINUOUS
 62
    7
 10
868.71003867535251
 20
741.52564124540618
 11
868.79567374876729
 21
741.61671141980491
  0
LINE
  8
_0-2_線色２__白__
  6
CONTINUOUS
 62
    7
 10
868.79567374876729
 20
741.61671141980491
 11
868.94487110707473
 21
741.77241316863615
  0
LINE
  8
_0-2_線色２__白__
  6
CONTINUOUS
 62
    7
 10
868.94487110707473
 20
741.77241316863615
 11
869.09662132064454
 21
741.92575914703752
  0
LINE
  8
_0-2_線色２__白__
  6
CONTINUOUS
 62
    7
 10
869.09662132064454
 20
741.92575914703752
 11
869.25161040014814
 21
742.07594678595683
  0
LINE
  8
_0-2_線色２__白__
  6
CONTINUOUS
 62
    7
 10
869.25161040014814
 20
742.07594678595683
 11
869.41052435625465
 21
742.2221735163555
  0
LINE
  8
_0-2_線色２__白__
  6
CONTINUOUS
 62
    7
 10
869.41052435625465
 20
742.2221735163555
 11
869.57404919963551
 21
742.36363676918131
  0
LINE
  8
_0-2_線色２__白__
  6
CONTINUOUS
 62
    7
 10
869.57404919963551
 20
742.36363676918131
 11
869.67127664122359
 21
742.44318657646204
  0
LINE
  8
_0-2_線色２__白__
  6
CONTINUOUS
 62
    7
 10
869.67127664122359
 20
742.44318657646204
 11
869.75893034076648
 21
742.51191192895817
  0
LINE
  8
_0-2_線色２__白__
  6
CONTINUOUS
 62
    7
 10
869.75893034076648
 20
742.51191192895817
 11
869.91354344068554
 21
742.62612469675901
  0
LINE
  8
_0-2_線色２__白__
  6
CONTINUOUS
 62
    7
 10
869.91354344068554
 20
742.62612469675901
 11
870.07250858387465
 21
742.73409738569057
  0
LINE
  8
_0-2_線色２__白__
  6
CONTINUOUS
 62
    7
 10
870.07250858387465
 20
742.73409738569057
 11
870.23575524110242
 21
742.83487261711684
  0
LINE
  8
_0-2_線色２__白__
  6
CONTINUOUS
 62
    7
 10
870.23575524110242
 20
742.83487261711684
 11
870.40321288313294
 21
742.92749301240178
  0
LINE
  8
_0-2_線色２__白__
  6
CONTINUOUS
 62
    7
 10
870.40321288313294
 20
742.92749301240178
 11
870.57481098073708
 21
743.01100119291391
  0
LINE
  8
_0-2_線色２__白__
  6
CONTINUOUS
 62
    7
 10
870.57481098073708
 20
743.01100119291391
 11
870.67620724190533
 21
743.05488346383413
  0
LINE
  8
_0-2_線色２__白__
  6
CONTINUOUS
 62
    7
 10
870.67620724190533
 20
743.05488346383413
 11
870.79011273464516
 21
743.09941217709707
  0
LINE
  8
_0-2_線色２__白__
  6
CONTINUOUS
 62
    7
 10
870.79011273464516
 20
743.09941217709707
 11
870.99000119250036
 21
743.16672280551188
  0
LINE
  8
_0-2_線色２__白__
  6
CONTINUOUS
 62
    7
 10
870.99000119250036
 20
743.16672280551188
 11
871.19370329135677
 21
743.22332635700946
  0
LINE
  8
_0-2_線色２__白__
  6
CONTINUOUS
 62
    7
 10
871.19370329135677
 20
743.22332635700946
 11
871.40050236816592
 21
743.27070123074122
  0
LINE
  8
_0-2_線色２__白__
  6
CONTINUOUS
 62
    7
 10
871.40050236816592
 20
743.27070123074122
 11
871.60968175987477
 21
743.31032582584953
  0
LINE
  8
_0-2_線色２__白__
  6
CONTINUOUS
 62
    7
 10
871.60968175987477
 20
743.31032582584953
 11
871.82052480343032
 21
743.34367854148582
  0
LINE
  8
_0-2_線色２__白__
  6
CONTINUOUS
 62
    7
 10
871.82052480343032
 20
743.34367854148582
 11
871.94329365146018
 21
743.36073190752018
  0
LINE
  8
_0-2_線色２__白__
  6
CONTINUOUS
 62
    7
 10
871.94329365146018
 20
743.36073190752018
 11
872.09175062154486
 21
743.37944890678841
  0
LINE
  8
_0-2_線色２__白__
  6
CONTINUOUS
 62
    7
 10
872.09175062154486
 20
743.37944890678841
 11
872.34807088682942
 21
743.40635566787682
  0
LINE
  8
_0-2_線色２__白__
  6
CONTINUOUS
 62
    7
 10
872.34807088682942
 20
743.40635566787682
 11
872.60446621541064
 21
743.42521391517607
  0
LINE
  8
_0-2_線色２__白__
  6
CONTINUOUS
 62
    7
 10
872.60446621541064
 20
743.42521391517607
 11
872.86049405204153
 21
743.43456000636138
  0
LINE
  8
_0-2_線色２__白__
  6
CONTINUOUS
 62
    7
 10
872.86049405204153
 20
743.43456000636138
 11
873.1157118414751
 21
743.43293029911479
  0
LINE
  8
_0-2_線色２__白__
  6
CONTINUOUS
 62
    7
 10
873.1157118414751
 20
743.43293029911479
 11
873.36967702846664
 21
743.41886115111151
  0
LINE
  8
_0-2_線色２__白__
  6
CONTINUOUS
 62
    7
 10
873.36967702846664
 20
743.41886115111151
 11
873.51622850470335
 21
743.40442454233312
  0
LINE
  8
_0-2_線色２__白__
  6
CONTINUOUS
 62
    7
 10
873.51622850470335
 20
743.40442454233312
 11
873.62357269626841
 21
743.39073475624787
  0
LINE
  8
_0-2_線色２__白__
  6
CONTINUOUS
 62
    7
 10
873.62357269626841
 20
743.39073475624787
 11
873.80802275703786
 21
743.3617751250074
  0
LINE
  8
_0-2_線色２__白__
  6
CONTINUOUS
 62
    7
 10
873.80802275703786
 20
743.3617751250074
 11
873.99199361447813
 21
743.32745964346827
  0
LINE
  8
_0-2_線色２__白__
  6
CONTINUOUS
 62
    7
 10
873.99199361447813
 20
743.32745964346827
 11
874.17584965033598
 21
743.28944481744088
  0
LINE
  8
_0-2_線色２__白__
  6
CONTINUOUS
 62
    7
 10
874.17584965033598
 20
743.28944481744088
 11
874.35995524635814
 21
743.24938715273333
  0
LINE
  8
_0-2_線色２__白__
  6
CONTINUOUS
 62
    7
 10
874.35995524635814
 20
743.24938715273333
 11
874.54467478428455
 21
743.20894315515829
  0
LINE
  8
_0-2_線色２__白__
  6
CONTINUOUS
 62
    7
 10
874.54467478428455
 20
743.20894315515829
 11
874.65223700982165
 21
743.18596136827068
  0
LINE
  8
_0-2_線色２__白__
  6
CONTINUOUS
 62
    7
 10
874.65223700982165
 20
743.18596136827068
 11
874.77434824114994
 21
743.16068764677198
  0
LINE
  8
_0-2_線色２__白__
  6
CONTINUOUS
 62
    7
 10
874.77434824114994
 20
743.16068764677198
 11
874.98514626471319
 21
743.1173381305382
  0
LINE
  8
_0-2_線色２__白__
  6
CONTINUOUS
 62
    7
 10
874.98514626471319
 20
743.1173381305382
 11
875.19485148855097
 21
743.07120497238998
  0
LINE
  8
_0-2_線色２__白__
  6
CONTINUOUS
 62
    7
 10
875.19485148855097
 20
743.07120497238998
 11
875.40180843781741
 21
743.01871893068551
  0
LINE
  8
_0-2_線色２__白__
  6
CONTINUOUS
 62
    7
 10
875.40180843781741
 20
743.01871893068551
 11
875.60436163767349
 21
742.95631076378754
  0
LINE
  8
_0-2_線色２__白__
  6
CONTINUOUS
 62
    7
 10
875.60436163767349
 20
742.95631076378754
 11
875.80085561327337
 21
742.880411230052
  0
LINE
  8
_0-2_線色２__白__
  6
CONTINUOUS
 62
    7
 10
875.80085561327337
 20
742.880411230052
 11
875.9113934393929
 21
742.8288012893961
  0
LINE
  8
_0-2_線色２__白__
  6
CONTINUOUS
 62
    7
 10
875.9113934393929
 20
742.8288012893961
 11
876.01071567057375
 21
742.77571581747338
  0
LINE
  8
_0-2_線色２__白__
  6
CONTINUOUS
 62
    7
 10
876.01071567057375
 20
742.77571581747338
 11
876.17613958576271
 21
742.67242953637492
  0
LINE
  8
_0-2_線色２__白__
  6
CONTINUOUS
 62
    7
 10
876.17613958576271
 20
742.67242953637492
 11
876.33419115712172
 21
742.55587990464278
  0
LINE
  8
_0-2_線色２__白__
  6
CONTINUOUS
 62
    7
 10
876.33419115712172
 20
742.55587990464278
 11
876.48486620353992
 21
742.42795323132782
  0
LINE
  8
_0-2_線色２__白__
  6
CONTINUOUS
 62
    7
 10
876.48486620353992
 20
742.42795323132782
 11
876.62816054390646
 21
742.2905358254809
  0
LINE
  8
_0-2_線色２__白__
  6
CONTINUOUS
 62
    7
 10
876.62816054390646
 20
742.2905358254809
 11
876.76406999711048
 21
742.14551399615061
  0
LINE
  8
_0-2_線色２__白__
  6
CONTINUOUS
 62
    7
 10
876.76406999711048
 20
742.14551399615061
 11
876.83951207709583
 21
742.05866029215372
  0
LINE
  8
_0-2_線色２__白__
  6
CONTINUOUS
 62
    7
 10
876.83951207709583
 20
742.05866029215372
 11
876.92380710146722
 21
741.95609290416201
  0
LINE
  8
_0-2_線色２__白__
  6
CONTINUOUS
 62
    7
 10
876.92380710146722
 20
741.95609290416201
 11
877.06197896073604
 21
741.77480789442711
  0
LINE
  8
_0-2_線色２__白__
  6
CONTINUOUS
 62
    7
 10
877.06197896073604
 20
741.77480789442711
 11
877.19208922775465
 21
741.58858321980574
  0
LINE
  8
_0-2_線色２__白__
  6
CONTINUOUS
 62
    7
 10
877.19208922775465
 20
741.58858321980574
 11
877.31530912974108
 21
741.39821715871562
  0
LINE
  8
_0-2_線色２__白__
  6
CONTINUOUS
 62
    7
 10
877.31530912974108
 20
741.39821715871562
 11
877.4328098939111
 21
741.20450798957222
  0
LINE
  8
_0-2_線色２__白__
  6
CONTINUOUS
 62
    7
 10
877.4328098939111
 20
741.20450798957222
 11
877.54576274747819
 21
741.00825399079099
  0
LINE
  8
_0-2_線色２__白__
  6
CONTINUOUS
 62
    7
 10
877.54576274747819
 20
741.00825399079099
 11
877.60965307433821
 21
740.89357519376222
  0
LINE
  8
_0-2_線色２__白__
  6
CONTINUOUS
 62
    7
 10
877.60965307433821
 20
740.89357519376222
 11
877.676920441844
 21
740.77050860162558
  0
LINE
  8
_0-2_線色２__白__
  6
CONTINUOUS
 62
    7
 10
877.676920441844
 20
740.77050860162558
 11
877.79090168305288
 21
740.55730184525714
  0
LINE
  8
_0-2_線色２__白__
  6
CONTINUOUS
 62
    7
 10
877.79090168305288
 20
740.55730184525714
 11
877.90301623141772
 21
740.343004845721
  0
LINE
  8
_0-2_線色２__白__
  6
CONTINUOUS
 62
    7
 10
877.90301623141772
 20
740.343004845721
 11
878.01403284066396
 21
740.12785558464543
  0
LINE
  8
_0-2_線色２__白__
  6
CONTINUOUS
 62
    7
 10
878.01403284066396
 20
740.12785558464543
 11
878.12472026452383
 21
739.91209204366555
  0
LINE
  8
_0-2_線色２__白__
  6
CONTINUOUS
 62
    7
 10
878.12472026452383
 20
739.91209204366555
 11
878.23584725672049
 21
739.69595220440965
  0
LINE
  8
_0-2_線色２__白__
  6
CONTINUOUS
 62
    7
 10
878.23584725672049
 20
739.69595220440965
 11
878.30080525135031
 21
739.57051245491016
  0
LINE
  8
_0-2_線色２__白__
  6
CONTINUOUS
 62
    7
 10
878.30080525135031
 20
739.57051245491016
 11
878.38921870552781
 21
739.40168427190315
  0
LINE
  8
_0-2_線色２__白__
  6
CONTINUOUS
 62
    7
 10
878.38921870552781
 20
739.40168427190315
 11
878.54572352145738
 21
739.1122885060156
  0
LINE
  8
_0-2_線色２__白__
  6
CONTINUOUS
 62
    7
 10
878.54572352145738
 20
739.1122885060156
 11
878.70994511468439
 21
738.82758032976312
  0
LINE
  8
_0-2_線色２__白__
  6
CONTINUOUS
 62
    7
 10
878.70994511468439
 20
738.82758032976312
 11
878.88486910207007
 21
738.55052690174603
  0
LINE
  8
_0-2_線色２__白__
  6
CONTINUOUS
 62
    7
 10
878.88486910207007
 20
738.55052690174603
 11
879.0734811004711
 21
738.28409538056007
  0
LINE
  8
_0-2_線色２__白__
  6
CONTINUOUS
 62
    7
 10
879.0734811004711
 20
738.28409538056007
 11
879.27876672674415
 21
738.03125292480104
  0
LINE
  8
_0-2_線色２__白__
  6
CONTINUOUS
 62
    7
 10
879.27876672674415
 20
738.03125292480104
 11
879.40664873457195
 21
737.89200002502071
  0
LINE
  8
_0-2_線色２__白__
  6
CONTINUOUS
 62
    7
 10
879.40664873457195
 20
737.89200002502071
 11
879.45286390687556
 21
737.84489501911025
  0
LINE
  8
_0-2_線色２__白__
  6
CONTINUOUS
 62
    7
 10
879.45286390687556
 20
737.84489501911025
 11
879.53456316841653
 21
737.76554992407569
  0
LINE
  8
_0-2_線色２__白__
  6
CONTINUOUS
 62
    7
 10
879.53456316841653
 20
737.76554992407569
 11
879.61876556074571
 21
737.68874981463455
  0
LINE
  8
_0-2_線色２__白__
  6
CONTINUOUS
 62
    7
 10
879.61876556074571
 20
737.68874981463455
 11
879.7054115362414
 21
737.61470091130718
  0
LINE
  8
_0-2_線色２__白__
  6
CONTINUOUS
 62
    7
 10
879.7054115362414
 20
737.61470091130718
 11
879.7944415472773
 21
737.54360943461847
  0
LINE
  8
_0-2_線色２__白__
  6
CONTINUOUS
 62
    7
 10
879.7944415472773
 20
737.54360943461847
 11
879.88579604622942
 21
737.47568160508877
  0
LINE
  8
_0-2_線色２__白__
  6
CONTINUOUS
 62
    7
 10
879.88579604622942
 20
737.47568160508877
 11
879.93982327112349
 21
737.43781430869944
  0
LINE
  8
_0-2_線色２__白__
  6
CONTINUOUS
 62
    7
 10
879.93982327112349
 20
737.43781430869944
 11
880.02942468221249
 21
737.37852161831938
  0
LINE
  8
_0-2_線色２__白__
  6
CONTINUOUS
 62
    7
 10
880.02942468221249
 20
737.37852161831938
 11
880.18761612638286
 21
737.28210835412597
  0
LINE
  8
_0-2_線色２__白__
  6
CONTINUOUS
 62
    7
 10
880.18761612638286
 20
737.28210835412597
 11
880.34902741341625
 21
737.19077994505483
  0
LINE
  8
_0-2_線色２__白__
  6
CONTINUOUS
 62
    7
 10
880.34902741341625
 20
737.19077994505483
 11
880.51194736170714
 21
737.10188923660439
  0
LINE
  8
_0-2_線色２__白__
  6
CONTINUOUS
 62
    7
 10
880.51194736170714
 20
737.10188923660439
 11
880.67466478966139
 21
737.01278907426854
  0
LINE
  8
_0-2_線色２__白__
  6
CONTINUOUS
 62
    7
 10
880.67466478966139
 20
737.01278907426854
 11
880.83546851567348
 21
736.92083230354342
  0
LINE
  8
_0-2_線色２__白__
  6
CONTINUOUS
 62
    7
 10
880.83546851567348
 20
736.92083230354342
 11
880.92718352399856
 21
736.86514536203163
  0
LINE
  8
_0-2_線色２__白__
  6
CONTINUOUS
 62
    7
 10
880.92718352399856
 20
736.86514536203163
 11
881.019594516398
 21
736.80578059215918
  0
LINE
  8
_0-2_線色２__白__
  6
CONTINUOUS
 62
    7
 10
881.019594516398
 20
736.80578059215918
 11
881.17553751855098
 21
736.69827883039147
  0
LINE
  8
_0-2_線色２__白__
  6
CONTINUOUS
 62
    7
 10
881.17553751855098
 20
736.69827883039147
 11
881.32786006077481
 21
736.58529564042169
  0
LINE
  8
_0-2_線色２__白__
  6
CONTINUOUS
 62
    7
 10
881.32786006077481
 20
736.58529564042169
 11
881.47733654950912
 21
736.46803558802617
  0
LINE
  8
_0-2_線色２__白__
  6
CONTINUOUS
 62
    7
 10
881.47733654950912
 20
736.46803558802617
 11
881.62474139120263
 21
736.34770323897897
  0
LINE
  8
_0-2_線色２__白__
  6
CONTINUOUS
 62
    7
 10
881.62474139120263
 20
736.34770323897897
 11
881.77084899229726
 21
736.22550315905414
  0
LINE
  8
_0-2_線色２__白__
  6
CONTINUOUS
 62
    7
 10
881.77084899229726
 20
736.22550315905414
 11
881.8553021617015
 21
736.15424597996139
  0
LINE
  8
_0-2_線色２__白__
  6
CONTINUOUS
 62
    7
 10
881.8553021617015
 20
736.15424597996139
 11
881.96114402531862
 21
736.06476539605978
  0
LINE
  8
_0-2_線色２__白__
  6
CONTINUOUS
 62
    7
 10
881.96114402531862
 20
736.06476539605978
 11
882.14271680362913
 21
735.9096823422658
  0
LINE
  8
_0-2_線色２__白__
  6
CONTINUOUS
 62
    7
 10
882.14271680362913
 20
735.9096823422658
 11
882.32189145625512
 21
735.75229317402432
  0
LINE
  8
_0-2_線色２__白__
  6
CONTINUOUS
 62
    7
 10
882.32189145625512
 20
735.75229317402432
 11
882.4972235824805
 21
735.59110297609891
  0
LINE
  8
_0-2_線色２__白__
  6
CONTINUOUS
 62
    7
 10
882.4972235824805
 20
735.59110297609891
 11
882.6672687815892
 21
735.42461683324859
  0
LINE
  8
_0-2_線色２__白__
  6
CONTINUOUS
 62
    7
 10
882.6672687815892
 20
735.42461683324859
 11
882.83058265286741
 21
735.2513398302392
  0
LINE
  8
_0-2_線色２__白__
  6
CONTINUOUS
 62
    7
 10
882.83058265286741
 20
735.2513398302392
 11
882.92165123480686
 21
735.14713852202817
  0
LINE
  8
_0-2_線色２__白__
  6
CONTINUOUS
 62
    7
 10
882.92165123480686
 20
735.14713852202817
 11
882.97331050744447
 21
735.08505124650469
  0
LINE
  8
_0-2_線色２__白__
  6
CONTINUOUS
 62
    7
 10
882.97331050744447
 20
735.08505124650469
 11
883.05963561775002
 21
734.97557850666794
  0
LINE
  8
_0-2_線色２__白__
  6
CONTINUOUS
 62
    7
 10
883.05963561775002
 20
734.97557850666794
 11
883.14199548988086
 21
734.86307724890935
  0
LINE
  8
_0-2_線色２__白__
  6
CONTINUOUS
 62
    7
 10
883.14199548988086
 20
734.86307724890935
 11
883.2198161806275
 21
734.74759631619577
  0
LINE
  8
_0-2_線色２__白__
  6
CONTINUOUS
 62
    7
 10
883.2198161806275
 20
734.74759631619577
 11
883.29252374677139
 21
734.62918455150316
  0
LINE
  8
_0-2_線色２__白__
  6
CONTINUOUS
 62
    7
 10
883.29252374677139
 20
734.62918455150316
 11
883.35954424510078
 21
734.50789079780066
  0
LINE
  8
_0-2_線色２__白__
  6
CONTINUOUS
 62
    7
 10
883.35954424510078
 20
734.50789079780066
 11
883.39558415618626
 21
734.43623913995793
  0
LINE
  8
_0-2_線色２__白__
  6
CONTINUOUS
 62
    7
 10
883.39558415618626
 20
734.43623913995793
 11
883.44223600954479
 21
734.33476324890876
  0
LINE
  8
_0-2_線色２__白__
  6
CONTINUOUS
 62
    7
 10
883.44223600954479
 20
734.33476324890876
 11
883.51372276789448
 21
734.15599886985888
  0
LINE
  8
_0-2_線色２__白__
  6
CONTINUOUS
 62
    7
 10
883.51372276789448
 20
734.15599886985888
 11
883.57567410651768
 21
733.9731784517096
  0
LINE
  8
_0-2_線色２__白__
  6
CONTINUOUS
 62
    7
 10
883.57567410651768
 20
733.9731784517096
 11
883.63017199478804
 21
733.7871875925191
  0
LINE
  8
_0-2_線色２__白__
  6
CONTINUOUS
 62
    7
 10
883.63017199478804
 20
733.7871875925191
 11
883.67929840207466
 21
733.59891189034329
  0
LINE
  8
_0-2_線色２__白__
  6
CONTINUOUS
 62
    7
 10
883.67929840207466
 20
733.59891189034329
 11
883.72513529775347
 21
733.40923694324033
  0
LINE
  8
_0-2_線色２__白__
  6
CONTINUOUS
 62
    7
 10
883.72513529775347
 20
733.40923694324033
 11
883.75103384722138
 21
733.29893331157905
  0
LINE
  8
_0-2_線色２__白__
  6
CONTINUOUS
 62
    7
 10
862.309145268365
 20
729.16357397508705
 11
863.32415822117923
 21
728.29893331157905
  0
LINE
  8
_0-4_線色４__黄__
  6
CONTINUOUS
 62
    2
 10
873.00315798460701
 20
738.29893331157905
 11
873.00315798460701
 21
733.29893331157905
  0
LINE
  8
_0-4_線色４__黄__
  6
CONTINUOUS
 62
    2
 10
867.00602591767506
 20
738.29893331157905
 11
873.00315798460701
 21
738.29893331157905
  0
LINE
  8
_0-4_線色４__黄__
  6
CONTINUOUS
 62
    2
 10
822.309145268365
 20
741.75008209850489
 11
862.95467734171893
 21
741.75008209850489
  0
LINE
  8
_0-4_線色４__黄__
  6
CONTINUOUS
 62
    2
 10
862.95467734171893
 20
741.75008209850489
 11
867.00602591767506
 21
738.29893331157905
  0
ARC
  8
_0-1_線色１__水色__
  6
CONTINUOUS
 62
    4
 10
850.1363187866616
 20
726.7572666498188
 40
1.2083333333333581
 50
307.52351320333912
 51
232.47648680464988
  0
ARC
  8
_0-1_線色１__水色__
  6
CONTINUOUS
 62
    4
 10
848.66435864245318
 20
724.84059998301404
 40
1.2083333333333179
 50
127.52351320610693
 51
52.47648680188081
  0
ARC
  8
_0-1_線色１__水色__
  6
CONTINUOUS
 62
    4
 10
847.19239849797873
 20
726.7572666498188
 40
1.2083333333333581
 50
307.52351320333912
 51
232.47648680464988
  0
ARC
  8
_0-1_線色１__水色__
  6
CONTINUOUS
 62
    4
 10
845.72043835377031
 20
724.84059998301404
 40
1.2083333333333179
 50
127.52351320610693
 51
52.47648680188081
  0
ARC
  8
_0-1_線色１__水色__
  6
CONTINUOUS
 62
    4
 10
844.24847820929358
 20
726.7572666498188
 40
1.2083333333333581
 50
307.52351320333912
 51
232.47648680464988
  0
ARC
  8
_0-1_線色１__水色__
  6
CONTINUOUS
 62
    4
 10
842.77651806508516
 20
724.84059998301404
 40
1.2083333333333179
 50
127.52351320610693
 51
52.47648680188081
  0
ARC
  8
_0-1_線色１__水色__
  6
CONTINUOUS
 62
    4
 10
988.50057235473173
 20
726.75726665023035
 40
1.2083333333333581
 50
307.52351320333912
 51
232.47648680464988
  0
ARC
  8
_0-1_線色１__水色__
  6
CONTINUOUS
 62
    4
 10
989.97253249920618
 20
724.84059998363023
 40
1.2083333333333179
 50
127.52351320610693
 51
52.47648680188081
  0
ARC
  8
_0-1_線色１__水色__
  6
CONTINUOUS
 62
    4
 10
985.55665206604885
 20
726.75726665002571
 40
1.2083333333333581
 50
307.52351320333912
 51
232.47648680464988
  0
ARC
  8
_0-1_線色１__水色__
  6
CONTINUOUS
 62
    4
 10
987.02861221052331
 20
724.84059998342559
 40
1.2083333333333179
 50
127.52351320610693
 51
52.47648680188081
  0
ARC
  8
_0-1_線色１__水色__
  6
CONTINUOUS
 62
    4
 10
982.61273177736598
 20
726.7572666498188
 40
1.2083333333333581
 50
307.52351320333912
 51
232.47648680464988
  0
ARC
  8
_0-1_線色１__水色__
  6
CONTINUOUS
 62
    4
 10
984.08469192184043
 20
724.84059998322095
 40
1.2083333333333179
 50
127.52351320610693
 51
52.47648680188081
  0
ARC
  8
_0-1_線色１__水色__
  6
CONTINUOUS
 62
    4
 10
979.66881148868083
 20
726.75726664961417
 40
1.2083333333333581
 50
307.52351320333912
 51
232.47648680464988
  0
ARC
  8
_0-1_線色１__水色__
  6
CONTINUOUS
 62
    4
 10
981.14077163315756
 20
724.84059998301404
 40
1.2083333333333179
 50
127.52351320610693
 51
52.47648680188081
  0
ARC
  8
_0-1_線色１__水色__
  6
CONTINUOUS
 62
    4
 10
976.72489119999796
 20
726.75726664940953
 40
1.2083333333333581
 50
307.52351320333912
 51
232.47648680464988
  0
ARC
  8
_0-1_線色１__水色__
  6
CONTINUOUS
 62
    4
 10
978.19685134447241
 20
724.84059998280941
 40
1.2083333333333179
 50
127.52351320610693
 51
52.47648680188081
  0
ARC
  8
_0-1_線色１__水色__
  6
CONTINUOUS
 62
    4
 10
973.78097091131508
 20
726.75726664920489
 40
1.2083333333333581
 50
307.52351320333912
 51
232.47648680464988
  0
ARC
  8
_0-1_線色１__水色__
  6
CONTINUOUS
 62
    4
 10
975.25293105578953
 20
724.84059998260477
 40
1.2083333333333179
 50
127.52351320610693
 51
52.47648680188081
  0
ARC
  8
_0-1_線色１__水色__
  6
CONTINUOUS
 62
    4
 10
970.8370506226322
 20
726.75726664899798
 40
1.2083333333333581
 50
307.52351320333912
 51
232.47648680464988
  0
ARC
  8
_0-1_線色１__水色__
  6
CONTINUOUS
 62
    4
 10
969.36509047842378
 20
724.84059998219323
 40
1.2083333333333179
 50
127.52351320610693
 51
52.47648680188081
  0
ARC
  8
_0-1_線色１__水色__
  6
CONTINUOUS
 62
    4
 10
972.30901076710666
 20
724.84059998240014
 40
1.2083333333333179
 50
127.52351320610693
 51
52.47648680188081
  0
ARC
  8
_0-1_線色１__水色__
  6
CONTINUOUS
 62
    4
 10
992.91645278788906
 20
724.84059998322095
 40
1.2083333333333179
 50
127.52351320610693
 51
52.47648680188081
  0
ARC
  8
_0-1_線色１__水色__
  6
CONTINUOUS
 62
    4
 10
991.44449264341461
 20
726.7572666498188
 40
1.2083333333333581
 50
307.52351320333912
 51
232.47648680464988
  0
ARC
  8
_0-1_線色１__水色__
  6
CONTINUOUS
 62
    4
 10
967.89313033394706
 20
726.75726664879335
 40
1.2083333333333581
 50
307.52351320333912
 51
232.47648680464988
  0
ARC
  8
_0-1_線色１__水色__
  6
CONTINUOUS
 62
    4
 10
997.33233322078036
 20
726.75726665023035
 40
1.2083333333333581
 50
307.52351320333912
 51
232.47648680464988
  0
ARC
  8
_0-1_線色１__水色__
  6
CONTINUOUS
 62
    4
 10
995.86037307657421
 20
724.84059998342559
 40
1.2083333333333179
 50
127.52351320610693
 51
52.47648680188081
  0
ARC
  8
_0-1_線色１__水色__
  6
CONTINUOUS
 62
    4
 10
998.80429336525708
 20
724.84059998363023
 40
1.2083333333333179
 50
127.52351320610693
 51
52.47648680188081
  0
ARC
  8
_0-1_線色１__水色__
  6
CONTINUOUS
 62
    4
 10
994.38841293209748
 20
726.75726665002571
 40
1.2083333333333581
 50
307.52351320333912
 51
232.47648680464988
  0
ARC
  8
_0-1_線色１__水色__
  6
CONTINUOUS
 62
    4
 10
950.22960860187027
 20
726.75726664815897
 40
1.2083333333333581
 50
307.52351320333912
 51
232.47648680464988
  0
ARC
  8
_0-1_線色１__水色__
  6
CONTINUOUS
 62
    4
 10
951.70156874634699
 20
724.84059998156113
 40
1.2083333333333179
 50
127.52351320610693
 51
52.47648680188081
  0
ARC
  8
_0-1_線色１__水色__
  6
CONTINUOUS
 62
    4
 10
947.28568831318739
 20
726.75726664795434
 40
1.2083333333333581
 50
307.52351320333912
 51
232.47648680464988
  0
ARC
  8
_0-1_線色１__水色__
  6
CONTINUOUS
 62
    4
 10
948.75764845766184
 20
724.84059998135422
 40
1.2083333333333179
 50
127.52351320610693
 51
52.47648680188081
  0
ARC
  8
_0-1_線色１__水色__
  6
CONTINUOUS
 62
    4
 10
944.34176802450452
 20
726.7572666477497
 40
1.2083333333333581
 50
307.52351320333912
 51
232.47648680464988
  0
ARC
  8
_0-1_線色１__水色__
  6
CONTINUOUS
 62
    4
 10
945.81372816897897
 20
724.84059998114958
 40
1.2083333333333179
 50
127.52351320610693
 51
52.47648680188081
  0
ARC
  8
_0-1_線色１__水色__
  6
CONTINUOUS
 62
    4
 10
942.86980788029609
 20
724.84059998094494
 40
1.2083333333333179
 50
127.52351320610693
 51
52.47648680188081
  0
ARC
  8
_0-1_線色１__水色__
  6
CONTINUOUS
 62
    4
 10
954.64548903502987
 20
724.84059998114958
 40
1.2083333333333179
 50
127.52351320610693
 51
52.47648680188081
  0
ARC
  8
_0-1_線色１__水色__
  6
CONTINUOUS
 62
    4
 10
953.17352889055314
 20
726.7572666477497
 40
1.2083333333333581
 50
307.52351320333912
 51
232.47648680464988
  0
ARC
  8
_0-1_線色１__水色__
  6
CONTINUOUS
 62
    4
 10
964.94921004528692
 20
726.75726664857052
 40
1.2083333333333581
 50
307.52351320333912
 51
232.47648680464988
  0
ARC
  8
_0-1_線色１__水色__
  6
CONTINUOUS
 62
    4
 10
962.00528975660404
 20
726.75726664836588
 40
1.2083333333333581
 50
307.52351320333912
 51
232.47648680464988
  0
ARC
  8
_0-1_線色１__水色__
  6
CONTINUOUS
 62
    4
 10
963.47724990107849
 20
724.84059998176576
 40
1.2083333333333179
 50
127.52351320610693
 51
52.47648680188081
  0
ARC
  8
_0-1_線色１__水色__
  6
CONTINUOUS
 62
    4
 10
959.06136946792117
 20
726.75726664815897
 40
1.2083333333333581
 50
307.52351320333912
 51
232.47648680464988
  0
ARC
  8
_0-1_線色１__水色__
  6
CONTINUOUS
 62
    4
 10
957.58940932371274
 20
724.84059998135422
 40
1.2083333333333179
 50
127.52351320610693
 51
52.47648680188081
  0
ARC
  8
_0-1_線色１__水色__
  6
CONTINUOUS
 62
    4
 10
960.53332961239562
 20
724.84059998156113
 40
1.2083333333333179
 50
127.52351320610693
 51
52.47648680188081
  0
ARC
  8
_0-1_線色１__水色__
  6
CONTINUOUS
 62
    4
 10
956.11744917923829
 20
726.75726664795434
 40
1.2083333333333581
 50
307.52351320333912
 51
232.47648680464988
  0
ARC
  8
_0-1_線色１__水色__
  6
CONTINUOUS
 62
    4
 10
966.42117018976364
 20
724.8405999819704
 40
1.2083333333333179
 50
127.52351320610693
 51
52.47648680188081
  0
ARC
  8
_0-1_線色１__水色__
  6
CONTINUOUS
 62
    4
 10
938.45392744711376
 20
726.75726665106936
 40
1.2083333333333581
 50
307.52351320333912
 51
232.47648680464988
  0
ARC
  8
_0-1_線色１__水色__
  6
CONTINUOUS
 62
    4
 10
936.98196730290761
 20
724.8405999842646
 40
1.2083333333333179
 50
127.52351320610693
 51
52.47648680188081
  0
ARC
  8
_0-1_線色１__水色__
  6
CONTINUOUS
 62
    4
 10
939.92588759159048
 20
724.84059998446924
 40
1.2083333333333179
 50
127.52351320610693
 51
52.47648680188081
  0
ARC
  8
_0-1_線色１__水色__
  6
CONTINUOUS
 62
    4
 10
935.51000715843088
 20
726.75726665086245
 40
1.2083333333333581
 50
307.52351320333912
 51
232.47648680464988
  0
ARC
  8
_0-1_線色１__水色__
  6
CONTINUOUS
 62
    4
 10
917.84648542635409
 20
726.75726665023035
 40
1.2083333333333581
 50
307.52351320333912
 51
232.47648680464988
  0
ARC
  8
_0-1_線色１__水色__
  6
CONTINUOUS
 62
    4
 10
919.31844557082854
 20
724.84059998363023
 40
1.2083333333333179
 50
127.52351320610693
 51
52.47648680188081
  0
ARC
  8
_0-1_線色１__水色__
  6
CONTINUOUS
 62
    4
 10
914.90256513767122
 20
726.75726665002571
 40
1.2083333333333581
 50
307.52351320333912
 51
232.47648680464988
  0
ARC
  8
_0-1_線色１__水色__
  6
CONTINUOUS
 62
    4
 10
916.37452528214567
 20
724.84059998342559
 40
1.2083333333333179
 50
127.52351320610693
 51
52.47648680188081
  0
ARC
  8
_0-1_線色１__水色__
  6
CONTINUOUS
 62
    4
 10
911.95864484898834
 20
726.7572666498188
 40
1.2083333333333581
 50
307.52351320333912
 51
232.47648680464988
  0
ARC
  8
_0-1_線色１__水色__
  6
CONTINUOUS
 62
    4
 10
913.43060499346279
 20
724.84059998322095
 40
1.2083333333333179
 50
127.52351320610693
 51
52.47648680188081
  0
ARC
  8
_0-1_線色１__水色__
  6
CONTINUOUS
 62
    4
 10
909.01472456030319
 20
726.75726664961417
 40
1.2083333333333581
 50
307.52351320333912
 51
232.47648680464988
  0
ARC
  8
_0-1_線色１__水色__
  6
CONTINUOUS
 62
    4
 10
910.48668470477992
 20
724.84059998301404
 40
1.2083333333333179
 50
127.52351320610693
 51
52.47648680188081
  0
ARC
  8
_0-1_線色１__水色__
  6
CONTINUOUS
 62
    4
 10
906.07080427162032
 20
726.75726664940953
 40
1.2083333333333581
 50
307.52351320333912
 51
232.47648680464988
  0
ARC
  8
_0-1_線色１__水色__
  6
CONTINUOUS
 62
    4
 10
907.54276441609477
 20
724.84059998280941
 40
1.2083333333333179
 50
127.52351320610693
 51
52.47648680188081
  0
ARC
  8
_0-1_線色１__水色__
  6
CONTINUOUS
 62
    4
 10
903.12688398293744
 20
726.75726664920489
 40
1.2083333333333581
 50
307.52351320333912
 51
232.47648680464988
  0
ARC
  8
_0-1_線色１__水色__
  6
CONTINUOUS
 62
    4
 10
904.59884412741189
 20
724.84059998260477
 40
1.2083333333333179
 50
127.52351320610693
 51
52.47648680188081
  0
ARC
  8
_0-1_線色１__水色__
  6
CONTINUOUS
 62
    4
 10
900.18296369425457
 20
726.75726664899798
 40
1.2083333333333581
 50
307.52351320333912
 51
232.47648680464988
  0
ARC
  8
_0-1_線色１__水色__
  6
CONTINUOUS
 62
    4
 10
898.71100355004614
 20
724.84059998219323
 40
1.2083333333333179
 50
127.52351320610693
 51
52.47648680188081
  0
ARC
  8
_0-1_線色１__水色__
  6
CONTINUOUS
 62
    4
 10
901.65492383872902
 20
724.84059998240014
 40
1.2083333333333179
 50
127.52351320610693
 51
52.47648680188081
  0
ARC
  8
_0-1_線色１__水色__
  6
CONTINUOUS
 62
    4
 10
922.26236585951142
 20
724.84059998322095
 40
1.2083333333333179
 50
127.52351320610693
 51
52.47648680188081
  0
ARC
  8
_0-1_線色１__水色__
  6
CONTINUOUS
 62
    4
 10
920.79040571503697
 20
726.7572666498188
 40
1.2083333333333581
 50
307.52351320333912
 51
232.47648680464988
  0
ARC
  8
_0-1_線色１__水色__
  6
CONTINUOUS
 62
    4
 10
897.23904340556942
 20
726.75726664879335
 40
1.2083333333333581
 50
307.52351320333912
 51
232.47648680464988
  0
ARC
  8
_0-1_線色１__水色__
  6
CONTINUOUS
 62
    4
 10
932.56608686977074
 20
726.75726665063962
 40
1.2083333333333581
 50
307.52351320333912
 51
232.47648680464988
  0
ARC
  8
_0-1_線色１__水色__
  6
CONTINUOUS
 62
    4
 10
929.62216658108787
 20
726.75726665043499
 40
1.2083333333333581
 50
307.52351320333912
 51
232.47648680464988
  0
ARC
  8
_0-1_線色１__水色__
  6
CONTINUOUS
 62
    4
 10
931.09412672556232
 20
724.84059998383486
 40
1.2083333333333179
 50
127.52351320610693
 51
52.47648680188081
  0
ARC
  8
_0-1_線色１__水色__
  6
CONTINUOUS
 62
    4
 10
926.67824629240499
 20
726.75726665023035
 40
1.2083333333333581
 50
307.52351320333912
 51
232.47648680464988
  0
ARC
  8
_0-1_線色１__水色__
  6
CONTINUOUS
 62
    4
 10
925.20628614819657
 20
724.84059998342559
 40
1.2083333333333179
 50
127.52351320610693
 51
52.47648680188081
  0
ARC
  8
_0-1_線色１__水色__
  6
CONTINUOUS
 62
    4
 10
928.15020643687944
 20
724.84059998363023
 40
1.2083333333333179
 50
127.52351320610693
 51
52.47648680188081
  0
ARC
  8
_0-1_線色１__水色__
  6
CONTINUOUS
 62
    4
 10
923.73432600371984
 20
726.75726665002571
 40
1.2083333333333581
 50
307.52351320333912
 51
232.47648680464988
  0
ARC
  8
_0-1_線色１__水色__
  6
CONTINUOUS
 62
    4
 10
934.03804701424519
 20
724.84059998404177
 40
1.2083333333333179
 50
127.52351320610693
 51
52.47648680188081
  0
ARC
  8
_0-1_線色１__水色__
  6
CONTINUOUS
 62
    4
 10
879.57552167349263
 20
726.75726664815897
 40
1.2083333333333581
 50
307.52351320333912
 51
232.47648680464988
  0
ARC
  8
_0-1_線色１__水色__
  6
CONTINUOUS
 62
    4
 10
881.04748181796936
 20
724.84059998156113
 40
1.2083333333333179
 50
127.52351320610693
 51
52.47648680188081
  0
ARC
  8
_0-1_線色１__水色__
  6
CONTINUOUS
 62
    4
 10
876.63160138480976
 20
726.75726664795434
 40
1.2083333333333581
 50
307.52351320333912
 51
232.47648680464988
  0
ARC
  8
_0-1_線色１__水色__
  6
CONTINUOUS
 62
    4
 10
878.10356152928648
 20
724.84059998135422
 40
1.2083333333333179
 50
127.52351320610693
 51
52.47648680188081
  0
ARC
  8
_0-1_線色１__水色__
  6
CONTINUOUS
 62
    4
 10
873.68768109612688
 20
726.7572666477497
 40
1.2083333333333581
 50
307.52351320333912
 51
232.47648680464988
  0
ARC
  8
_0-1_線色１__水色__
  6
CONTINUOUS
 62
    4
 10
875.15964124060133
 20
724.84059998114958
 40
1.2083333333333179
 50
127.52351320610693
 51
52.47648680188081
  0
ARC
  8
_0-1_線色１__水色__
  6
CONTINUOUS
 62
    4
 10
872.21572095191846
 20
724.84059998094494
 40
1.2083333333333179
 50
127.52351320610693
 51
52.47648680188081
  0
ARC
  8
_0-1_線色１__水色__
  6
CONTINUOUS
 62
    4
 10
883.99140210665223
 20
724.84059998114958
 40
1.2083333333333179
 50
127.52351320610693
 51
52.47648680188081
  0
ARC
  8
_0-1_線色１__水色__
  6
CONTINUOUS
 62
    4
 10
882.51944196217778
 20
726.7572666477497
 40
1.2083333333333581
 50
307.52351320333912
 51
232.47648680464988
  0
ARC
  8
_0-1_線色１__水色__
  6
CONTINUOUS
 62
    4
 10
894.29512311690928
 20
726.75726664857052
 40
1.2083333333333581
 50
307.52351320333912
 51
232.47648680464988
  0
ARC
  8
_0-1_線色１__水色__
  6
CONTINUOUS
 62
    4
 10
891.35120282822641
 20
726.75726664836588
 40
1.2083333333333581
 50
307.52351320333912
 51
232.47648680464988
  0
ARC
  8
_0-1_線色１__水色__
  6
CONTINUOUS
 62
    4
 10
892.82316297270313
 20
724.84059998176576
 40
1.2083333333333179
 50
127.52351320610693
 51
52.47648680188081
  0
ARC
  8
_0-1_線色１__水色__
  6
CONTINUOUS
 62
    4
 10
888.40728253954353
 20
726.75726664815897
 40
1.2083333333333581
 50
307.52351320333912
 51
232.47648680464988
  0
ARC
  8
_0-1_線色１__水色__
  6
CONTINUOUS
 62
    4
 10
886.93532239533511
 20
724.84059998135422
 40
1.2083333333333179
 50
127.52351320610693
 51
52.47648680188081
  0
ARC
  8
_0-1_線色１__水色__
  6
CONTINUOUS
 62
    4
 10
889.87924268401798
 20
724.84059998156113
 40
1.2083333333333179
 50
127.52351320610693
 51
52.47648680188081
  0
ARC
  8
_0-1_線色１__水色__
  6
CONTINUOUS
 62
    4
 10
885.46336225086065
 20
726.75726664795434
 40
1.2083333333333581
 50
307.52351320333912
 51
232.47648680464988
  0
ARC
  8
_0-1_線色１__水色__
  6
CONTINUOUS
 62
    4
 10
895.76708326138601
 20
724.8405999819704
 40
1.2083333333333179
 50
127.52351320610693
 51
52.47648680188081
  0
ARC
  8
_0-1_線色１__水色__
  6
CONTINUOUS
 62
    4
 10
941.3978477357989
 20
726.75726665127399
 40
1.2083333333333581
 50
307.52351320333912
 51
232.47648680464988
  0
ARC
  8
_0-1_線色１__水色__
  6
CONTINUOUS
 62
    4
 10
867.79984051873612
 20
726.75726665106936
 40
1.2083333333333581
 50
307.52351320333912
 51
232.47648680464988
  0
ARC
  8
_0-1_線色１__水色__
  6
CONTINUOUS
 62
    4
 10
866.32788037452997
 20
724.8405999842646
 40
1.2083333333333179
 50
127.52351320610693
 51
52.47648680188081
  0
ARC
  8
_0-1_線色１__水色__
  6
CONTINUOUS
 62
    4
 10
869.27180066321284
 20
724.84059998446924
 40
1.2083333333333179
 50
127.52351320610693
 51
52.47648680188081
  0
ARC
  8
_0-1_線色１__水色__
  6
CONTINUOUS
 62
    4
 10
864.85592023005324
 20
726.75726665086245
 40
1.2083333333333581
 50
307.52351320333912
 51
232.47648680464988
  0
ARC
  8
_0-1_線色１__水色__
  6
CONTINUOUS
 62
    4
 10
841.3045579206107
 20
726.7572666498188
 40
1.2083333333333581
 50
307.52351320333912
 51
232.47648680464988
  0
ARC
  8
_0-1_線色１__水色__
  6
CONTINUOUS
 62
    4
 10
838.36063763192783
 20
726.75726664961417
 40
1.2083333333333581
 50
307.52351320333912
 51
232.47648680464988
  0
ARC
  8
_0-1_線色１__水色__
  6
CONTINUOUS
 62
    4
 10
839.83259777640228
 20
724.84059998301404
 40
1.2083333333333179
 50
127.52351320610693
 51
52.47648680188081
  0
ARC
  8
_0-1_線色１__水色__
  6
CONTINUOUS
 62
    4
 10
835.41671734324268
 20
726.75726664940953
 40
1.2083333333333581
 50
307.52351320333912
 51
232.47648680464988
  0
ARC
  8
_0-1_線色１__水色__
  6
CONTINUOUS
 62
    4
 10
836.88867748771941
 20
724.84059998280941
 40
1.2083333333333179
 50
127.52351320610693
 51
52.47648680188081
  0
ARC
  8
_0-1_線色１__水色__
  6
CONTINUOUS
 62
    4
 10
832.47279705455981
 20
726.75726664920489
 40
1.2083333333333581
 50
307.52351320333912
 51
232.47648680464988
  0
ARC
  8
_0-1_線色１__水色__
  6
CONTINUOUS
 62
    4
 10
833.94475719903426
 20
724.84059998260477
 40
1.2083333333333179
 50
127.52351320610693
 51
52.47648680188081
  0
ARC
  8
_0-1_線色１__水色__
  6
CONTINUOUS
 62
    4
 10
829.52887676587693
 20
726.75726664899798
 40
1.2083333333333581
 50
307.52351320333912
 51
232.47648680464988
  0
ARC
  8
_0-1_線色１__水色__
  6
CONTINUOUS
 62
    4
 10
828.05691662166851
 20
724.84059998219323
 40
1.2083333333333179
 50
127.52351320610693
 51
52.47648680188081
  0
ARC
  8
_0-1_線色１__水色__
  6
CONTINUOUS
 62
    4
 10
831.00083691035138
 20
724.84059998240014
 40
1.2083333333333179
 50
127.52351320610693
 51
52.47648680188081
  0
ARC
  8
_0-1_線色１__水色__
  6
CONTINUOUS
 62
    4
 10
851.60827893113606
 20
724.84059998322095
 40
1.2083333333333179
 50
127.52351320610693
 51
52.47648680188081
  0
ARC
  8
_0-1_線色１__水色__
  6
CONTINUOUS
 62
    4
 10
826.58495647719405
 20
726.75726664879335
 40
1.2083333333333581
 50
307.52351320333912
 51
232.47648680464988
  0
ARC
  8
_0-1_線色１__水色__
  6
CONTINUOUS
 62
    4
 10
861.91199994139311
 20
726.75726665063962
 40
1.2083333333333581
 50
307.52351320333912
 51
232.47648680464988
  0
ARC
  8
_0-1_線色１__水色__
  6
CONTINUOUS
 62
    4
 10
858.96807965271023
 20
726.75726665043499
 40
1.2083333333333581
 50
307.52351320333912
 51
232.47648680464988
  0
ARC
  8
_0-1_線色１__水色__
  6
CONTINUOUS
 62
    4
 10
860.44003979718468
 20
724.84059998383486
 40
1.2083333333333179
 50
127.52351320610693
 51
52.47648680188081
  0
ARC
  8
_0-1_線色１__水色__
  6
CONTINUOUS
 62
    4
 10
856.02415936402735
 20
726.75726665023035
 40
1.2083333333333581
 50
307.52351320333912
 51
232.47648680464988
  0
ARC
  8
_0-1_線色１__水色__
  6
CONTINUOUS
 62
    4
 10
854.55219921981893
 20
724.84059998342559
 40
1.2083333333333179
 50
127.52351320610693
 51
52.47648680188081
  0
ARC
  8
_0-1_線色１__水色__
  6
CONTINUOUS
 62
    4
 10
857.49611950850181
 20
724.84059998363023
 40
1.2083333333333179
 50
127.52351320610693
 51
52.47648680188081
  0
ARC
  8
_0-1_線色１__水色__
  6
CONTINUOUS
 62
    4
 10
853.08023907534448
 20
726.75726665002571
 40
1.2083333333333581
 50
307.52351320333912
 51
232.47648680464988
  0
ARC
  8
_0-1_線色１__水色__
  6
CONTINUOUS
 62
    4
 10
863.38396008586983
 20
724.84059998404177
 40
1.2083333333333179
 50
127.52351320610693
 51
52.47648680188081
  0
ARC
  8
_0-1_線色１__水色__
  6
CONTINUOUS
 62
    4
 10
823.64103618853392
 20
726.75726664857052
 40
1.2083333333333581
 50
307.52351320333912
 51
232.47648680464988
  0
ARC
  8
_0-1_線色１__水色__
  6
CONTINUOUS
 62
    4
 10
820.69711589984877
 20
726.75726664836588
 40
1.2083333333333581
 50
307.52351320333912
 51
232.47648680464988
  0
ARC
  8
_0-1_線色１__水色__
  6
CONTINUOUS
 62
    4
 10
822.16907604432549
 20
724.84059998176576
 40
1.2083333333333179
 50
127.52351320610693
 51
52.47648680188081
  0
ARC
  8
_0-1_線色１__水色__
  6
CONTINUOUS
 62
    4
 10
817.75319561116589
 20
726.75726664815897
 40
1.2083333333333581
 50
307.52351320333912
 51
232.47648680464988
  0
ARC
  8
_0-1_線色１__水色__
  6
CONTINUOUS
 62
    4
 10
819.22515575564262
 20
724.84059998156113
 40
1.2083333333333179
 50
127.52351320610693
 51
52.47648680188081
  0
ARC
  8
_0-1_線色１__水色__
  6
CONTINUOUS
 62
    4
 10
825.11299633300837
 20
724.8405999819704
 40
1.2083333333333179
 50
127.52351320610693
 51
52.47648680188081
  0
ARC
  8
_0-1_線色１__水色__
  6
CONTINUOUS
 62
    4
 10
870.74376080742127
 20
726.75726665127399
 40
1.2083333333333581
 50
307.52351320333912
 51
232.47648680464988
  0
ARC
  8
_0-2_線色２__白__
  6
CONTINUOUS
 62
    7
 10
822.309145268365
 20
744.75008209850444
 40
8
 50
180
 51
270
  0
LINE
  8
_0-4_線色４__黄__
  6
CONTINUOUS
 62
    2
 10
819.30914526836546
 20
744.75008209850444
 11
819.30914526836546
 21
980.37360483996849
  0
ARC
  8
_0-4_線色４__黄__
  6
CONTINUOUS
 62
    2
 10
822.309145268365
 20
744.75008209850444
 40
3.0000000000000004
 50
180
 51
270
  0
LINE
  8
_0-5_金属
  6
CONTINUOUS
 62
    7
 10
776.30914526836136
 20
740.59893231330875
 11
776.30914526836136
 21
738.29893231330857
  0
LINE
  8
_0-5_金属
  6
CONTINUOUS
 62
    7
 10
716.30914526836136
 20
740.59893231330875
 11
716.30914526836136
 21
738.29893231330857
  0
LINE
  8
_0-5_金属
  6
CONTINUOUS
 62
    7
 10
700.609145268362
 20
740.59893231330875
 11
716.30914526836136
 21
740.59893231330875
  0
ARC
  8
_0-5_金属
  6
CONTINUOUS
 62
    7
 10
700.609145268362
 20
742.59893231330921
 40
2
 50
180
 51
270
  0
LINE
  8
_0-5_金属
  6
CONTINUOUS
 62
    7
 10
698.60914526836382
 20
783.99893231331021
 11
698.60914526836382
 21
742.59893231330921
  0
ARC
  8
_0-5_金属
  6
CONTINUOUS
 62
    7
 10
700.609145268362
 20
783.99893231331021
 40
2
 50
90
 51
180
  0
LINE
  8
_0-5_金属
  6
CONTINUOUS
 62
    7
 10
792.009145268363
 20
785.99893231330839
 11
700.609145268362
 21
785.99893231330839
  0
ARC
  8
_0-5_金属
  6
CONTINUOUS
 62
    7
 10
792.009145268363
 20
783.99893231331021
 40
2
 50
0
 51
90.000000000000014
  0
LINE
  8
_0-5_金属
  6
CONTINUOUS
 62
    7
 10
792.009145268363
 20
740.59893231330875
 11
776.30914526836136
 21
740.59893231330875
  0
ARC
  8
_0-5_金属
  6
CONTINUOUS
 62
    7
 10
792.009145268363
 20
742.59893231330921
 40
2
 50
270
 51
0
  0
LINE
  8
_0-5_金属
  6
CONTINUOUS
 62
    7
 10
792.009145268363
 20
738.29893231330857
 11
776.30914526836136
 21
738.29893231330857
  0
ARC
  8
_0-5_金属
  6
CONTINUOUS
 62
    7
 10
792.009145268363
 20
742.59893231330921
 40
4.2999999999999989
 50
270
 51
0
  0
ARC
  8
_0-5_金属
  6
CONTINUOUS
 62
    7
 10
792.009145268363
 20
783.99893231331021
 40
4.2999999999999989
 50
0
 51
90
  0
LINE
  8
_0-5_金属
  6
CONTINUOUS
 62
    7
 10
700.609145268362
 20
788.29893231331084
 11
792.009145268363
 21
788.29893231331084
  0
ARC
  8
_0-5_金属
  6
CONTINUOUS
 62
    7
 10
700.609145268362
 20
783.99893231331021
 40
4.2999999999999989
 50
90
 51
180
  0
LINE
  8
_0-5_金属
  6
CONTINUOUS
 62
    7
 10
700.609145268362
 20
738.29893231330857
 11
716.30914526836136
 21
738.29893231330857
  0
ARC
  8
_0-5_金属
  6
CONTINUOUS
 62
    7
 10
700.609145268362
 20
742.59893231330921
 40
4.2999999999999989
 50
180
 51
270
  0
LINE
  8
_0-5_金属
  6
CONTINUOUS
 62
    7
 10
794.00914526836118
 20
742.59893231330921
 11
794.00914526836118
 21
783.99893231331021
  0
LINE
  8
_0-5_金属
  6
CONTINUOUS
 62
    7
 10
776.30914526836136
 20
980.37360483996849
 11
776.30914526836136
 21
788.29893231331084
  0
LINE
  8
_0-5_金属
  6
CONTINUOUS
 62
    7
 10
716.30914526836136
 20
980.37360483996849
 11
716.30914526836136
 21
788.29893231331084
  0
LINE
  8
_0-d_断熱__ハッチ
  6
CONTINUOUS
 62
    4
 10
904.96515258866452
 20
689.49893331158023
 11
938.76515258866334
 21
723.29893331157905
  0
LINE
  8
_0-d_断熱__ハッチ
  6
CONTINUOUS
 62
    4
 10
876.68088134119557
 20
689.49893331157796
 11
910.48088134119439
 21
723.29893331157677
  0
LINE
  8
_0-d_断熱__ハッチ
  6
CONTINUOUS
 62
    4
 10
848.39661009373799
 20
689.49893331157796
 11
882.19661009373908
 21
723.29893331157905
  0
LINE
  8
_0-d_断熱__ハッチ
  6
CONTINUOUS
 62
    4
 10
820.11233884626904
 20
689.49893331157568
 11
853.91233884627013
 21
723.2989333115745
  0
LINE
  8
_0-d_断熱__ハッチ
  6
CONTINUOUS
 62
    4
 10
814.30914526836318
 20
711.98001098112741
 11
825.62806759881482
 21
723.29893331157905
  0
LINE
  8
_0-d_断熱__ハッチ
  6
CONTINUOUS
 62
    4
 10
814.30914526836546
 20
700.77460990689019
 11
825.58482186367542
 21
689.49893331158023
  0
LINE
  8
_0-d_断熱__ハッチ
  6
CONTINUOUS
 62
    4
 10
820.06909311114555
 20
723.29893331157677
 11
853.86909311114437
 21
689.49893331157796
  0
LINE
  8
_0-d_断熱__ハッチ
  6
CONTINUOUS
 62
    4
 10
848.35336435860086
 20
723.29893331157905
 11
882.15336435860195
 21
689.49893331157796
  0
LINE
  8
_0-d_断熱__ハッチ
  6
CONTINUOUS
 62
    4
 10
876.63763560606981
 20
723.29893331157677
 11
910.4376356060709
 21
689.49893331157796
  0
LINE
  8
_0-d_断熱__ハッチ
  6
CONTINUOUS
 62
    4
 10
989.77472059591832
 20
723.29893331157677
 11
1024.7747205959206
 21
688.2989333115745
  0
LINE
  8
_0-d_断熱__ハッチ
  6
CONTINUOUS
 62
    4
 10
809.50573712847131
 20
689.49893331157796
 11
814.30914526836546
 21
694.3023414514721
  0
LINE
  8
_0-d_断熱__ハッチ
  6
CONTINUOUS
 62
    4
 10
798.89913541068267
 20
689.49893331158023
 11
814.30914526836318
 21
704.90894316926074
  0
LINE
  8
_0-d_断熱__ハッチ
  6
CONTINUOUS
 62
    4
 10
797.50914526836482
 20
698.71554488706238
 11
814.30914526836546
 21
715.51554488706302
  0
LINE
  8
_0-d_断熱__ハッチ
  6
CONTINUOUS
 62
    4
 10
797.50914526836254
 20
709.32214660486011
 11
814.30914526836091
 21
726.12214660485847
  0
LINE
  8
_0-d_断熱__ハッチ
  6
CONTINUOUS
 62
    4
 10
797.50914526836254
 20
719.92874832266011
 11
814.30914526836546
 21
736.72874832266302
  0
LINE
  8
_0-d_断熱__ハッチ
  6
CONTINUOUS
 62
    4
 10
797.50914526836254
 20
730.53535004046012
 11
814.30914526836546
 21
747.33535004046303
  0
LINE
  8
_0-d_断熱__ハッチ
  6
CONTINUOUS
 62
    4
 10
797.50914526836482
 20
741.1419517582533
 11
814.30914526836318
 21
757.94195175825166
  0
LINE
  8
_0-d_断熱__ハッチ
  6
CONTINUOUS
 62
    4
 10
797.50914526836482
 20
751.7485534760533
 11
814.30914526836546
 21
768.54855347605394
  0
LINE
  8
_0-d_断熱__ハッチ
  6
CONTINUOUS
 62
    4
 10
797.50914526836254
 20
762.35515519385103
 11
814.30914526836318
 21
779.15515519385167
  0
LINE
  8
_0-d_断熱__ハッチ
  6
CONTINUOUS
 62
    4
 10
797.50914526836482
 20
772.96175691165331
 11
814.30914526836546
 21
789.76175691165395
  0
LINE
  8
_0-d_断熱__ハッチ
  6
CONTINUOUS
 62
    4
 10
797.50914526836027
 20
783.56835862944877
 11
814.30914526836546
 21
800.36835862945395
  0
LINE
  8
_0-d_断熱__ハッチ
  6
CONTINUOUS
 62
    4
 10
796.30914526836364
 20
792.97496034724304
 11
814.30914526836318
 21
810.97496034724259
  0
LINE
  8
_0-d_断熱__ハッチ
  6
CONTINUOUS
 62
    4
 10
796.30914526836591
 20
803.58156206504532
 11
814.30914526836546
 21
821.58156206504486
  0
LINE
  8
_0-d_断熱__ハッチ
  6
CONTINUOUS
 62
    4
 10
796.30914526836364
 20
814.18816378284305
 11
814.30914526836318
 21
832.18816378284259
  0
LINE
  8
_0-d_断熱__ハッチ
  6
CONTINUOUS
 62
    4
 10
796.30914526836364
 20
824.79476550064305
 11
814.30914526836546
 21
842.79476550064487
  0
LINE
  8
_0-d_断熱__ハッチ
  6
CONTINUOUS
 62
    4
 10
796.30914526836136
 20
835.40136721844078
 11
814.30914526836546
 21
853.40136721844488
  0
LINE
  8
_0-d_断熱__ハッチ
  6
CONTINUOUS
 62
    4
 10
796.30914526836364
 20
846.00796893623851
 11
814.30914526836546
 21
864.00796893624033
  0
LINE
  8
_0-d_断熱__ハッチ
  6
CONTINUOUS
 62
    4
 10
796.30914526836591
 20
856.61457065403397
 11
814.30914526836318
 21
874.61457065403351
  0
LINE
  8
_0-d_断熱__ハッチ
  6
CONTINUOUS
 62
    4
 10
796.30914526836364
 20
867.22117237183397
 11
814.30914526836318
 21
885.22117237183352
  0
LINE
  8
_0-d_断熱__ハッチ
  6
CONTINUOUS
 62
    4
 10
796.30914526836364
 20
877.82777408963398
 11
814.30914526836546
 21
895.8277740896358
  0
LINE
  8
_0-d_断熱__ハッチ
  6
CONTINUOUS
 62
    4
 10
796.30914526836136
 20
888.43437580743171
 11
814.30914526836546
 21
906.4343758074358
  0
LINE
  8
_0-d_断熱__ハッチ
  6
CONTINUOUS
 62
    4
 10
796.30914526836136
 20
899.04097752523171
 11
814.30914526836546
 21
917.0409775252358
  0
LINE
  8
_0-d_断熱__ハッチ
  6
CONTINUOUS
 62
    4
 10
796.30914526836364
 20
909.64757924302489
 11
814.30914526836318
 21
927.64757924302444
  0
LINE
  8
_0-d_断熱__ハッチ
  6
CONTINUOUS
 62
    4
 10
796.30914526836364
 20
920.2541809608249
 11
814.30914526836318
 21
938.25418096082444
  0
LINE
  8
_0-d_断熱__ハッチ
  6
CONTINUOUS
 62
    4
 10
796.30914526836364
 20
930.8607826786249
 11
814.30914526836318
 21
948.86078267862445
  0
LINE
  8
_0-d_断熱__ハッチ
  6
CONTINUOUS
 62
    4
 10
796.30914526836136
 20
941.46738439642263
 11
814.30914526836546
 21
959.46738439642672
  0
LINE
  8
_0-d_断熱__ハッチ
  6
CONTINUOUS
 62
    4
 10
796.30914526836136
 20
952.07398611422263
 11
814.30914526836546
 21
970.07398611422445
  0
LINE
  8
_0-d_断熱__ハッチ
  6
CONTINUOUS
 62
    4
 10
796.30914526836364
 20
962.68058783201582
 11
814.00216227631859
 21
980.37360483997077
  0
LINE
  8
_0-d_断熱__ハッチ
  6
CONTINUOUS
 62
    4
 10
796.30914526836364
 20
973.28718954981582
 11
803.39556055851631
 21
980.37360483996849
  0
LINE
  8
_0-6_鋼板__アングル
  6
CONTINUOUS
 62
    2
 10
797.50914526836482
 20
689.49893331157796
 11
797.50914526836482
 21
789.49893331157796
  0
LINE
  8
_0-6_鋼板__アングル
  6
CONTINUOUS
 62
    2
 10
796.30914526836364
 20
789.49893331157796
 11
797.50914526836482
 21
789.49893331157796
  0
LINE
  8
_0-6_鋼板__アングル
  6
CONTINUOUS
 62
    2
 10
796.30914526836364
 20
688.29893331157905
 11
796.30914526836364
 21
789.49893331157796
  0
LINE
  8
ADD_LINE
  6
DOT
 62
    4
 10
838.30914526836409
 20
743.30287079935147
 11
838.30914526836409
 21
709.11851460928915
  0
LINE
  8
_0-6_鋼板__アングル
  6
CONTINUOUS
 62
    2
 10
845.30620154323401
 20
730.55008209849234
 11
858.27870536717114
 21
730.55008209849234
  0
LINE
  8
_0-6_鋼板__アングル
  6
CONTINUOUS
 62
    2
 10
845.62543794041062
 20
731.75008209850489
 11
858.27870536717114
 21
731.75008209850489
  0
LINE
  8
_0-6_鋼板__アングル
  6
CONTINUOUS
 62
    2
 10
862.309145268365
 20
729.16357397508705
 11
861.53098552164352
 21
728.25008209850353
  0
LINE
  8
_0-6_鋼板__アングル
  6
CONTINUOUS
 62
    2
 10
860.0295647972905
 20
731.10543882081743
 11
862.309145268365
 21
729.16357397508705
  0
ARC
  8
_0-6_鋼板__アングル
  6
CONTINUOUS
 62
    2
 10
858.27870536717114
 20
729.0500820985028
 40
1.5000000000000002
 50
49.573921259901446
 51
90
  0
ARC
  8
_0-6_鋼板__アングル
  6
CONTINUOUS
 62
    2
 10
858.27870536717114
 20
729.05008209850507
 40
2.7000000000000002
 50
49.573921259901446
 51
90
  0
LINE
  8
_0-6_鋼板__アングル
  6
CONTINUOUS
 62
    2
 10
859.25140505056902
 20
730.19194694423391
 11
861.53098552164352
 21
728.25008209850353
  0
LINE
  8
_0-6_鋼板__アングル
  6
CONTINUOUS
 62
    2
 10
814.30914526836318
 20
731.75008209850489
 11
830.99285259631756
 21
731.75008209850489
  0
ARC
  8
_0-6_鋼板__アングル
  6
CONTINUOUS
 62
    2
 10
830.99285259631756
 20
729.3500820985048
 40
1.2
 50
52.431407971171978
 51
90.000000000000057
  0
LINE
  8
_0-6_鋼板__アングル
  6
CONTINUOUS
 62
    2
 10
831.72450550933831
 20
730.30123088542837
 11
834.32749235534516
 21
728.29893331157905
  0
ARC
  8
_0-6_鋼板__アングル
  6
CONTINUOUS
 62
    2
 10
845.62543794041062
 20
729.3500820985048
 40
1.2
 50
90
 51
127.56859202882507
  0
LINE
  8
_0-6_鋼板__アングル
  6
CONTINUOUS
 62
    2
 10
844.89378502738987
 20
730.30123088542837
 11
842.29079818138302
 21
728.29893331157905
  0
LINE
  8
_0-6_鋼板__アングル
  6
CONTINUOUS
 62
    4
 10
834.32749235534516
 20
728.29893331157905
 11
842.29079818138302
 21
728.29893331157905
  0
LINE
  8
_0-6_鋼板__アングル
  6
CONTINUOUS
 62
    2
 10
835.05914526836364
 20
729.25008209850489
 11
834.32749235534516
 21
728.29893331157905
  0
LINE
  8
_0-6_鋼板__アングル
  6
CONTINUOUS
 62
    2
 10
841.55914526836455
 20
729.25008209850489
 11
842.29079818138302
 21
728.29893331157905
  0
LINE
  8
_0-6_鋼板__アングル
  6
CONTINUOUS
 62
    4
 10
835.05914526836364
 20
729.25008209850489
 11
841.55914526836455
 21
729.25008209850489
  0
LINE
  8
_0-6_鋼板__アングル
  6
CONTINUOUS
 62
    4
 10
845.62543794041062
 20
731.75008209850489
 11
830.99285259631756
 21
731.75008209850489
  0
ARC
  8
_0-6_鋼板__アングル
  6
CONTINUOUS
 62
    2
 10
830.99285259631756
 20
729.3500820985048
 40
2.3999999999999999
 50
52.431407971173961
 51
90
  0
LINE
  8
_0-6_鋼板__アングル
  6
CONTINUOUS
 62
    2
 10
832.45615842235679
 20
731.25237967235421
 11
835.05914526836364
 21
729.25008209850489
  0
ARC
  8
_0-6_鋼板__アングル
  6
CONTINUOUS
 62
    2
 10
845.62543794041062
 20
729.3500820985048
 40
2.3999999999999999
 50
90
 51
127.56859202882603
  0
LINE
  8
_0-6_鋼板__アングル
  6
CONTINUOUS
 62
    2
 10
844.16213211437139
 20
731.25237967235421
 11
841.55914526836455
 21
729.25008209850489
  0
LINE
  8
_0-6_鋼板__アングル
  6
CONTINUOUS
 62
    2
 10
815.61871546963516
 20
730.55008209849234
 11
831.31208899352373
 21
730.55008209849234
  0
LINE
  8
_0-6_鋼板__アングル
  6
CONTINUOUS
 62
    2
 10
815.63822391907593
 20
716.55864360662122
 11
816.84280772409579
 21
716.55864360662122
  0
LINE
  8
_0-6_鋼板__アングル
  6
CONTINUOUS
 62
    2
 10
815.61871546963516
 20
730.55008209849234
 11
816.84280772409579
 21
716.55864360662122
  0
LINE
  8
_0-6_鋼板__アングル
  6
CONTINUOUS
 62
    2
 10
814.30914526836318
 20
731.75008209850489
 11
815.63822391907593
 21
716.55864360662122
  0
LINE
  8
_0-d_断熱__ハッチ
  6
CONTINUOUS
 62
    4
 10
961.49044934844937
 20
723.29893331158132
 11
995.29044934845047
 21
689.49893331157796
  0
LINE
  8
_0-d_断熱__ハッチ
  6
CONTINUOUS
 62
    4
 10
933.24942383611983
 20
689.49893331157796
 11
967.04942383612092
 21
723.29893331157905
  0
LINE
  8
_0-d_断熱__ハッチ
  6
CONTINUOUS
 62
    4
 10
989.81796633104409
 20
689.49893331157796
 11
1023.6179663310452
 21
723.29893331157677
  0
LINE
  8
_0-d_断熱__ハッチ
  6
CONTINUOUS
 62
    4
 10
961.53369508358651
 20
689.49893331157796
 11
995.3336950835876
 21
723.29893331157905
  0
LINE
  8
_0-d_断熱__ハッチ
  6
CONTINUOUS
 62
    4
 10
904.92190685352512
 20
723.29893331157905
 11
938.72190685352621
 21
689.49893331157796
  0
LINE
  8
_0-d_断熱__ハッチ
  6
CONTINUOUS
 62
    4
 10
933.20617810099407
 20
723.29893331157677
 11
967.00617810099288
 21
689.49893331157796
  0
LINE
  8
ADD_LINE
  6
DOT
 62
    4
 10
826.30914608307307
 20
576.34494231506892
 11
826.30914608307307
 21
704.99929315827217
  0
LINE
  8
ADD_LINE
  6
DOT
 62
    4
 10
1026.3091460830731
 20
576.34494231506892
 11
1026.3091460830731
 21
704.99929315827217
  0
LINE
  8
ADD_LINE
  6
DOT
 62
    4
 10
1273.067796317265
 20
576.34494231506892
 11
1273.067796317265
 21
704.99929315827217
  0
LINE
  8
ADD_LINE
  6
DOT
 62
    4
 10
1073.067796317265
 20
576.34494231506892
 11
1073.067796317265
 21
704.99929315827217
  0
ARC
  8
_0-1_線色１__水色__
  6
CONTINUOUS
 62
    4
 10
1499.8941315690593
 20
826.7575166555082
 40
1.2083333333333581
 50
307.52351320333912
 51
232.47648680464988
  0
ARC
  8
_0-1_線色１__水色__
  6
CONTINUOUS
 62
    4
 10
1482.2306098369825
 20
826.75751665487383
 40
1.2083333333333581
 50
307.52351320333912
 51
232.47648680464988
  0
ARC
  8
_0-1_線色１__水色__
  6
CONTINUOUS
 62
    4
 10
1483.7025699814592
 20
824.8408499882737
 40
1.2083333333333179
 50
127.52351320610693
 51
52.47648680188081
  0
ARC
  8
_0-1_線色１__水色__
  6
CONTINUOUS
 62
    4
 10
1479.2866895482996
 20
826.75751665466919
 40
1.2083333333333581
 50
307.52351320333912
 51
232.47648680464988
  0
ARC
  8
_0-1_線色１__水色__
  6
CONTINUOUS
 62
    4
 10
1480.758649692774
 20
824.84084998806907
 40
1.2083333333333179
 50
127.52351320610693
 51
52.47648680188081
  0
ARC
  8
_0-1_線色１__水色__
  6
CONTINUOUS
 62
    4
 10
1476.3427692596167
 20
826.75751665446228
 40
1.2083333333333581
 50
307.52351320333912
 51
232.47648680464988
  0
ARC
  8
_0-1_線色１__水色__
  6
CONTINUOUS
 62
    4
 10
1477.8147294040912
 20
824.84084998786443
 40
1.2083333333333179
 50
127.52351320610693
 51
52.47648680188081
  0
ARC
  8
_0-1_線色１__水色__
  6
CONTINUOUS
 62
    4
 10
1474.8708091154083
 20
824.84084998765752
 40
1.2083333333333179
 50
127.52351320610693
 51
52.47648680188081
  0
ARC
  8
_0-1_線色１__水色__
  6
CONTINUOUS
 62
    4
 10
1486.6464902701421
 20
824.84084998786443
 40
1.2083333333333179
 50
127.52351320610693
 51
52.47648680188081
  0
ARC
  8
_0-1_線色１__水色__
  6
CONTINUOUS
 62
    4
 10
1485.1745301256653
 20
826.75751665446228
 40
1.2083333333333581
 50
307.52351320333912
 51
232.47648680464988
  0
ARC
  8
_0-1_線色１__水色__
  6
CONTINUOUS
 62
    4
 10
1496.9502112803991
 20
826.7575166552831
 40
1.2083333333333581
 50
307.52351320333912
 51
232.47648680464988
  0
ARC
  8
_0-1_線色１__水色__
  6
CONTINUOUS
 62
    4
 10
1494.0062909917162
 20
826.75751665507846
 40
1.2083333333333581
 50
307.52351320333912
 51
232.47648680464988
  0
ARC
  8
_0-1_線色１__水色__
  6
CONTINUOUS
 62
    4
 10
1495.4782511361907
 20
824.84084998847834
 40
1.2083333333333179
 50
127.52351320610693
 51
52.47648680188081
  0
ARC
  8
_0-1_線色１__水色__
  6
CONTINUOUS
 62
    4
 10
1491.0623707030334
 20
826.75751665487383
 40
1.2083333333333581
 50
307.52351320333912
 51
232.47648680464988
  0
ARC
  8
_0-1_線色１__水色__
  6
CONTINUOUS
 62
    4
 10
1489.5904105588249
 20
824.84084998806907
 40
1.2083333333333179
 50
127.52351320610693
 51
52.47648680188081
  0
ARC
  8
_0-1_線色１__水色__
  6
CONTINUOUS
 62
    4
 10
1492.5343308475078
 20
824.8408499882737
 40
1.2083333333333179
 50
127.52351320610693
 51
52.47648680188081
  0
ARC
  8
_0-1_線色１__水色__
  6
CONTINUOUS
 62
    4
 10
1488.1184504143482
 20
826.75751665466919
 40
1.2083333333333581
 50
307.52351320333912
 51
232.47648680464988
  0
ARC
  8
_0-1_線色１__水色__
  6
CONTINUOUS
 62
    4
 10
1498.4221714248736
 20
824.84084998868525
 40
1.2083333333333179
 50
127.52351320610693
 51
52.47648680188081
  0
ARC
  8
_0-1_線色１__水色__
  6
CONTINUOUS
 62
    4
 10
1473.3988489709088
 20
826.75751665798657
 40
1.2083333333333581
 50
307.52351320333912
 51
232.47648680464988
  0
ARC
  8
_0-1_線色１__水色__
  6
CONTINUOUS
 62
    4
 10
1470.4549286822282
 20
826.75751665777966
 40
1.2083333333333581
 50
307.52351320333912
 51
232.47648680464988
  0
ARC
  8
_0-1_線色１__水色__
  6
CONTINUOUS
 62
    4
 10
1471.9268888267027
 20
824.84084999118181
 40
1.2083333333333179
 50
127.52351320610693
 51
52.47648680188081
  0
ARC
  8
_0-1_線色１__水色__
  6
CONTINUOUS
 62
    4
 10
1467.5110083935454
 20
826.75751665757502
 40
1.2083333333333581
 50
307.52351320333912
 51
232.47648680464988
  0
ARC
  8
_0-1_線色１__水色__
  6
CONTINUOUS
 62
    4
 10
1468.9829685380198
 20
824.8408499909749
 40
1.2083333333333179
 50
127.52351320610693
 51
52.47648680188081
  0
ARC
  8
_0-1_線色１__水色__
  6
CONTINUOUS
 62
    4
 10
1464.5670881048602
 20
826.75751665737039
 40
1.2083333333333581
 50
307.52351320333912
 51
232.47648680464988
  0
ARC
  8
_0-1_線色１__水色__
  6
CONTINUOUS
 62
    4
 10
1463.0951279606541
 20
824.84084999056563
 40
1.2083333333333179
 50
127.52351320610693
 51
52.47648680188081
  0
ARC
  8
_0-1_線色１__水色__
  6
CONTINUOUS
 62
    4
 10
1466.0390482493369
 20
824.84084999077027
 40
1.2083333333333179
 50
127.52351320610693
 51
52.47648680188081
  0
ARC
  8
_0-1_線色１__水色__
  6
CONTINUOUS
 62
    4
 10
1461.6231678161773
 20
826.75751665716575
 40
1.2083333333333581
 50
307.52351320333912
 51
232.47648680464988
  0
ARC
  8
_0-1_線色１__水色__
  6
CONTINUOUS
 62
    4
 10
1443.9596460841005
 20
826.75751665653138
 40
1.2083333333333581
 50
307.52351320333912
 51
232.47648680464988
  0
ARC
  8
_0-1_線色１__水色__
  6
CONTINUOUS
 62
    4
 10
1445.4316062285773
 20
824.84084998993126
 40
1.2083333333333179
 50
127.52351320610693
 51
52.47648680188081
  0
ARC
  8
_0-1_線色１__水色__
  6
CONTINUOUS
 62
    4
 10
1441.0157257954177
 20
826.75751665632674
 40
1.2083333333333581
 50
307.52351320333912
 51
232.47648680464988
  0
ARC
  8
_0-1_線色１__水色__
  6
CONTINUOUS
 62
    4
 10
1442.4876859398921
 20
824.84084998972662
 40
1.2083333333333179
 50
127.52351320610693
 51
52.47648680188081
  0
ARC
  8
_0-1_線色１__水色__
  6
CONTINUOUS
 62
    4
 10
1438.0718055067348
 20
826.75751665612211
 40
1.2083333333333581
 50
307.52351320333912
 51
232.47648680464988
  0
ARC
  8
_0-1_線色１__水色__
  6
CONTINUOUS
 62
    4
 10
1439.5437656512092
 20
824.84084998952198
 40
1.2083333333333179
 50
127.52351320610693
 51
52.47648680188081
  0
ARC
  8
_0-1_線色１__水色__
  6
CONTINUOUS
 62
    4
 10
1436.5998453625264
 20
824.84084998931735
 40
1.2083333333333179
 50
127.52351320610693
 51
52.47648680188081
  0
ARC
  8
_0-1_線色１__水色__
  6
CONTINUOUS
 62
    4
 10
1448.3755265172601
 20
824.84084998952198
 40
1.2083333333333179
 50
127.52351320610693
 51
52.47648680188081
  0
ARC
  8
_0-1_線色１__水色__
  6
CONTINUOUS
 62
    4
 10
1446.9035663727834
 20
826.75751665612211
 40
1.2083333333333581
 50
307.52351320333912
 51
232.47648680464988
  0
ARC
  8
_0-1_線色１__水色__
  6
CONTINUOUS
 62
    4
 10
1458.6792475275172
 20
826.75751665694293
 40
1.2083333333333581
 50
307.52351320333912
 51
232.47648680464988
  0
ARC
  8
_0-1_線色１__水色__
  6
CONTINUOUS
 62
    4
 10
1455.7353272388343
 20
826.75751665673602
 40
1.2083333333333581
 50
307.52351320333912
 51
232.47648680464988
  0
ARC
  8
_0-1_線色１__水色__
  6
CONTINUOUS
 62
    4
 10
1457.2072873833088
 20
824.84084999013817
 40
1.2083333333333179
 50
127.52351320610693
 51
52.47648680188081
  0
ARC
  8
_0-1_線色１__水色__
  6
CONTINUOUS
 62
    4
 10
1452.7914069501514
 20
826.75751665653138
 40
1.2083333333333581
 50
307.52351320333912
 51
232.47648680464988
  0
ARC
  8
_0-1_線色１__水色__
  6
CONTINUOUS
 62
    4
 10
1451.319446805943
 20
824.84084998972662
 40
1.2083333333333179
 50
127.52351320610693
 51
52.47648680188081
  0
ARC
  8
_0-1_線色１__水色__
  6
CONTINUOUS
 62
    4
 10
1454.2633670946259
 20
824.84084998993126
 40
1.2083333333333179
 50
127.52351320610693
 51
52.47648680188081
  0
ARC
  8
_0-1_線色１__水色__
  6
CONTINUOUS
 62
    4
 10
1449.8474866614663
 20
826.75751665632674
 40
1.2083333333333581
 50
307.52351320333912
 51
232.47648680464988
  0
ARC
  8
_0-1_線色１__水色__
  6
CONTINUOUS
 62
    4
 10
1460.1512076719916
 20
824.8408499903428
 40
1.2083333333333179
 50
127.52351320610693
 51
52.47648680188081
  0
ARC
  8
_0-1_線色１__水色__
  6
CONTINUOUS
 62
    4
 10
1435.1278852180269
 20
826.75751665964412
 40
1.2083333333333581
 50
307.52351320333912
 51
232.47648680464988
  0
ARC
  8
_0-1_線色１__水色__
  6
CONTINUOUS
 62
    4
 10
1432.183964929344
 20
826.75751665943949
 40
1.2083333333333581
 50
307.52351320333912
 51
232.47648680464988
  0
ARC
  8
_0-1_線色１__水色__
  6
CONTINUOUS
 62
    4
 10
1433.6559250738185
 20
824.84084999283937
 40
1.2083333333333179
 50
127.52351320610693
 51
52.47648680188081
  0
ARC
  8
_0-1_線色１__水色__
  6
CONTINUOUS
 62
    4
 10
1429.2400446406612
 20
826.75751665923485
 40
1.2083333333333581
 50
307.52351320333912
 51
232.47648680464988
  0
ARC
  8
_0-1_線色１__水色__
  6
CONTINUOUS
 62
    4
 10
1430.7120047851356
 20
824.84084999263473
 40
1.2083333333333179
 50
127.52351320610693
 51
52.47648680188081
  0
ARC
  8
_0-1_線色１__水色__
  6
CONTINUOUS
 62
    4
 10
1426.296124351976
 20
826.75751665902794
 40
1.2083333333333581
 50
307.52351320333912
 51
232.47648680464988
  0
ARC
  8
_0-1_線色１__水色__
  6
CONTINUOUS
 62
    4
 10
1424.8241642077699
 20
824.84084999222318
 40
1.2083333333333179
 50
127.52351320610693
 51
52.47648680188081
  0
ARC
  8
_0-1_線色１__水色__
  6
CONTINUOUS
 62
    4
 10
1427.7680844964527
 20
824.84084999243009
 40
1.2083333333333179
 50
127.52351320610693
 51
52.47648680188081
  0
ARC
  8
_0-1_線色１__水色__
  6
CONTINUOUS
 62
    4
 10
1423.3522040632931
 20
826.75751665882331
 40
1.2083333333333581
 50
307.52351320333912
 51
232.47648680464988
  0
ARC
  8
_0-1_線色１__水色__
  6
CONTINUOUS
 62
    4
 10
1405.6886823312163
 20
826.75751665819121
 40
1.2083333333333581
 50
307.52351320333912
 51
232.47648680464988
  0
ARC
  8
_0-1_線色１__水色__
  6
CONTINUOUS
 62
    4
 10
1407.1606424756931
 20
824.84084999159109
 40
1.2083333333333179
 50
127.52351320610693
 51
52.47648680188081
  0
ARC
  8
_0-1_線色１__水色__
  6
CONTINUOUS
 62
    4
 10
1402.7447620425335
 20
826.7575166579843
 40
1.2083333333333581
 50
307.52351320333912
 51
232.47648680464988
  0
ARC
  8
_0-1_線色１__水色__
  6
CONTINUOUS
 62
    4
 10
1404.2167221870079
 20
824.84084999138645
 40
1.2083333333333179
 50
127.52351320610693
 51
52.47648680188081
  0
ARC
  8
_0-1_線色１__水色__
  6
CONTINUOUS
 62
    4
 10
1399.8008417538506
 20
826.75751665777966
 40
1.2083333333333581
 50
307.52351320333912
 51
232.47648680464988
  0
ARC
  8
_0-1_線色１__水色__
  6
CONTINUOUS
 62
    4
 10
1401.272801898325
 20
824.84084999117954
 40
1.2083333333333179
 50
127.52351320610693
 51
52.47648680188081
  0
ARC
  8
_0-1_線色１__水色__
  6
CONTINUOUS
 62
    4
 10
1398.3288816096422
 20
824.8408499909749
 40
1.2083333333333179
 50
127.52351320610693
 51
52.47648680188081
  0
ARC
  8
_0-1_線色１__水色__
  6
CONTINUOUS
 62
    4
 10
1410.1045627643759
 20
824.84084999117954
 40
1.2083333333333179
 50
127.52351320610693
 51
52.47648680188081
  0
ARC
  8
_0-1_線色１__水色__
  6
CONTINUOUS
 62
    4
 10
1408.6326026198992
 20
826.75751665777966
 40
1.2083333333333581
 50
307.52351320333912
 51
232.47648680464988
  0
ARC
  8
_0-1_線色１__水色__
  6
CONTINUOUS
 62
    4
 10
1420.408283774633
 20
826.75751665860048
 40
1.2083333333333581
 50
307.52351320333912
 51
232.47648680464988
  0
ARC
  8
_0-1_線色１__水色__
  6
CONTINUOUS
 62
    4
 10
1417.4643634859501
 20
826.75751665839584
 40
1.2083333333333581
 50
307.52351320333912
 51
232.47648680464988
  0
ARC
  8
_0-1_線色１__水色__
  6
CONTINUOUS
 62
    4
 10
1418.9363236304246
 20
824.84084999179572
 40
1.2083333333333179
 50
127.52351320610693
 51
52.47648680188081
  0
ARC
  8
_0-1_線色１__水色__
  6
CONTINUOUS
 62
    4
 10
1414.5204431972672
 20
826.75751665819121
 40
1.2083333333333581
 50
307.52351320333912
 51
232.47648680464988
  0
ARC
  8
_0-1_線色１__水色__
  6
CONTINUOUS
 62
    4
 10
1413.0484830530588
 20
824.84084999138645
 40
1.2083333333333179
 50
127.52351320610693
 51
52.47648680188081
  0
ARC
  8
_0-1_線色１__水色__
  6
CONTINUOUS
 62
    4
 10
1415.9924033417417
 20
824.84084999159109
 40
1.2083333333333179
 50
127.52351320610693
 51
52.47648680188081
  0
ARC
  8
_0-1_線色１__水色__
  6
CONTINUOUS
 62
    4
 10
1411.5765229085821
 20
826.7575166579843
 40
1.2083333333333581
 50
307.52351320333912
 51
232.47648680464988
  0
ARC
  8
_0-1_線色１__水色__
  6
CONTINUOUS
 62
    4
 10
1421.8802439191074
 20
824.84084999200036
 40
1.2083333333333179
 50
127.52351320610693
 51
52.47648680188081
  0
ARC
  8
_0-1_線色１__水色__
  6
CONTINUOUS
 62
    4
 10
1396.8569214651427
 20
826.75751666130395
 40
1.2083333333333581
 50
307.52351320333912
 51
232.47648680464988
  0
ARC
  8
_0-1_線色１__水色__
  6
CONTINUOUS
 62
    4
 10
1393.9130011764621
 20
826.75751666109704
 40
1.2083333333333581
 50
307.52351320333912
 51
232.47648680464988
  0
ARC
  8
_0-1_線色１__水色__
  6
CONTINUOUS
 62
    4
 10
1395.3849613209366
 20
824.84084999449919
 40
1.2083333333333179
 50
127.52351320610693
 51
52.47648680188081
  0
ARC
  8
_0-1_線色１__水色__
  6
CONTINUOUS
 62
    4
 10
1390.9690808877792
 20
826.75751666089241
 40
1.2083333333333581
 50
307.52351320333912
 51
232.47648680464988
  0
ARC
  8
_0-1_線色１__水色__
  6
CONTINUOUS
 62
    4
 10
1392.4410410322537
 20
824.84084999429228
 40
1.2083333333333179
 50
127.52351320610693
 51
52.47648680188081
  0
ARC
  8
_0-1_線色１__水色__
  6
CONTINUOUS
 62
    4
 10
1388.0251605990941
 20
826.75751666068777
 40
1.2083333333333581
 50
307.52351320333912
 51
232.47648680464988
  0
ARC
  8
_0-1_線色１__水色__
  6
CONTINUOUS
 62
    4
 10
1386.5532004548879
 20
824.84084999388301
 40
1.2083333333333179
 50
127.52351320610693
 51
52.47648680188081
  0
ARC
  8
_0-1_線色１__水色__
  6
CONTINUOUS
 62
    4
 10
1389.4971207435708
 20
824.84084999408765
 40
1.2083333333333179
 50
127.52351320610693
 51
52.47648680188081
  0
ARC
  8
_0-1_線色１__水色__
  6
CONTINUOUS
 62
    4
 10
1385.0812403104112
 20
826.75751666048313
 40
1.2083333333333581
 50
307.52351320333912
 51
232.47648680464988
  0
ARC
  8
_0-1_線色１__水色__
  6
CONTINUOUS
 62
    4
 10
1367.4177185783344
 20
826.75751665984876
 40
1.2083333333333581
 50
307.52351320333912
 51
232.47648680464988
  0
ARC
  8
_0-1_線色１__水色__
  6
CONTINUOUS
 62
    4
 10
1368.8896787228111
 20
824.84084999324864
 40
1.2083333333333179
 50
127.52351320610693
 51
52.47648680188081
  0
ARC
  8
_0-1_線色１__水色__
  6
CONTINUOUS
 62
    4
 10
1364.4737982896515
 20
826.75751665964412
 40
1.2083333333333581
 50
307.52351320333912
 51
232.47648680464988
  0
ARC
  8
_0-1_線色１__水色__
  6
CONTINUOUS
 62
    4
 10
1365.945758434126
 20
824.840849993044
 40
1.2083333333333179
 50
127.52351320610693
 51
52.47648680188081
  0
ARC
  8
_0-1_線色１__水色__
  6
CONTINUOUS
 62
    4
 10
1361.5298780009687
 20
826.75751665943721
 40
1.2083333333333581
 50
307.52351320333912
 51
232.47648680464988
  0
ARC
  8
_0-1_線色１__水色__
  6
CONTINUOUS
 62
    4
 10
1363.0018381454431
 20
824.84084999283937
 40
1.2083333333333179
 50
127.52351320610693
 51
52.47648680188081
  0
ARC
  8
_0-1_線色１__水色__
  6
CONTINUOUS
 62
    4
 10
1360.0579178567602
 20
824.84084999263246
 40
1.2083333333333179
 50
127.52351320610693
 51
52.47648680188081
  0
ARC
  8
_0-1_線色１__水色__
  6
CONTINUOUS
 62
    4
 10
1371.833599011494
 20
824.84084999283937
 40
1.2083333333333179
 50
127.52351320610693
 51
52.47648680188081
  0
ARC
  8
_0-1_線色１__水色__
  6
CONTINUOUS
 62
    4
 10
1370.3616388670173
 20
826.75751665943721
 40
1.2083333333333581
 50
307.52351320333912
 51
232.47648680464988
  0
ARC
  8
_0-1_線色１__水色__
  6
CONTINUOUS
 62
    4
 10
1382.1373200217511
 20
826.75751666025803
 40
1.2083333333333581
 50
307.52351320333912
 51
232.47648680464988
  0
ARC
  8
_0-1_線色１__水色__
  6
CONTINUOUS
 62
    4
 10
1379.1933997330682
 20
826.7575166600534
 40
1.2083333333333581
 50
307.52351320333912
 51
232.47648680464988
  0
ARC
  8
_0-1_線色１__水色__
  6
CONTINUOUS
 62
    4
 10
1380.6653598775426
 20
824.84084999345328
 40
1.2083333333333179
 50
127.52351320610693
 51
52.47648680188081
  0
ARC
  8
_0-1_線色１__水色__
  6
CONTINUOUS
 62
    4
 10
1376.2494794443853
 20
826.75751665984876
 40
1.2083333333333581
 50
307.52351320333912
 51
232.47648680464988
  0
ARC
  8
_0-1_線色１__水色__
  6
CONTINUOUS
 62
    4
 10
1374.7775193001769
 20
824.840849993044
 40
1.2083333333333179
 50
127.52351320610693
 51
52.47648680188081
  0
ARC
  8
_0-1_線色１__水色__
  6
CONTINUOUS
 62
    4
 10
1377.7214395888598
 20
824.84084999324864
 40
1.2083333333333179
 50
127.52351320610693
 51
52.47648680188081
  0
ARC
  8
_0-1_線色１__水色__
  6
CONTINUOUS
 62
    4
 10
1373.3055591557002
 20
826.75751665964412
 40
1.2083333333333581
 50
307.52351320333912
 51
232.47648680464988
  0
ARC
  8
_0-1_線色１__水色__
  6
CONTINUOUS
 62
    4
 10
1383.6092801662255
 20
824.84084999366019
 40
1.2083333333333179
 50
127.52351320610693
 51
52.47648680188081
  0
ARC
  8
_0-1_線色１__水色__
  6
CONTINUOUS
 62
    4
 10
1358.5859577122608
 20
826.75751666296151
 40
1.2083333333333581
 50
307.52351320333912
 51
232.47648680464988
  0
ARC
  8
_0-1_線色１__水色__
  6
CONTINUOUS
 62
    4
 10
1355.6420374235779
 20
826.75751666275687
 40
1.2083333333333581
 50
307.52351320333912
 51
232.47648680464988
  0
ARC
  8
_0-1_線色１__水色__
  6
CONTINUOUS
 62
    4
 10
1357.1139975680524
 20
824.84084999615675
 40
1.2083333333333179
 50
127.52351320610693
 51
52.47648680188081
  0
ARC
  8
_0-1_線色１__水色__
  6
CONTINUOUS
 62
    4
 10
1352.698117134895
 20
826.75751666255223
 40
1.2083333333333581
 50
307.52351320333912
 51
232.47648680464988
  0
ARC
  8
_0-1_線色１__水色__
  6
CONTINUOUS
 62
    4
 10
1354.1700772793695
 20
824.84084999595211
 40
1.2083333333333179
 50
127.52351320610693
 51
52.47648680188081
  0
ARC
  8
_0-1_線色１__水色__
  6
CONTINUOUS
 62
    4
 10
1349.7541968462099
 20
826.75751666234532
 40
1.2083333333333581
 50
307.52351320333912
 51
232.47648680464988
  0
ARC
  8
_0-1_線色１__水色__
  6
CONTINUOUS
 62
    4
 10
1348.2822367020037
 20
824.84084999554057
 40
1.2083333333333179
 50
127.52351320610693
 51
52.47648680188081
  0
ARC
  8
_0-1_線色１__水色__
  6
CONTINUOUS
 62
    4
 10
1351.2261569906866
 20
824.84084999574748
 40
1.2083333333333179
 50
127.52351320610693
 51
52.47648680188081
  0
ARC
  8
_0-1_線色１__水色__
  6
CONTINUOUS
 62
    4
 10
1346.810276557527
 20
826.75751666214069
 40
1.2083333333333581
 50
307.52351320333912
 51
232.47648680464988
  0
ARC
  8
_0-1_線色１__水色__
  6
CONTINUOUS
 62
    4
 10
1329.1467548254502
 20
826.75751666150632
 40
1.2083333333333581
 50
307.52351320333912
 51
232.47648680464988
  0
ARC
  8
_0-1_線色１__水色__
  6
CONTINUOUS
 62
    4
 10
1330.6187149699269
 20
824.84084999490847
 40
1.2083333333333179
 50
127.52351320610693
 51
52.47648680188081
  0
ARC
  8
_0-1_線色１__水色__
  6
CONTINUOUS
 62
    4
 10
1326.2028345367673
 20
826.75751666130168
 40
1.2083333333333581
 50
307.52351320333912
 51
232.47648680464988
  0
ARC
  8
_0-1_線色１__水色__
  6
CONTINUOUS
 62
    4
 10
1327.6747946812418
 20
824.84084999470156
 40
1.2083333333333179
 50
127.52351320610693
 51
52.47648680188081
  0
ARC
  8
_0-1_線色１__水色__
  6
CONTINUOUS
 62
    4
 10
1323.2589142480845
 20
826.75751666109704
 40
1.2083333333333581
 50
307.52351320333912
 51
232.47648680464988
  0
ARC
  8
_0-1_線色１__水色__
  6
CONTINUOUS
 62
    4
 10
1324.7308743925589
 20
824.84084999449692
 40
1.2083333333333179
 50
127.52351320610693
 51
52.47648680188081
  0
ARC
  8
_0-1_線色１__水色__
  6
CONTINUOUS
 62
    4
 10
1321.786954103876
 20
824.84084999429228
 40
1.2083333333333179
 50
127.52351320610693
 51
52.47648680188081
  0
ARC
  8
_0-1_線色１__水色__
  6
CONTINUOUS
 62
    4
 10
1333.5626352586098
 20
824.84084999449692
 40
1.2083333333333179
 50
127.52351320610693
 51
52.47648680188081
  0
ARC
  8
_0-1_線色１__水色__
  6
CONTINUOUS
 62
    4
 10
1332.0906751141331
 20
826.75751666109704
 40
1.2083333333333581
 50
307.52351320333912
 51
232.47648680464988
  0
ARC
  8
_0-1_線色１__水色__
  6
CONTINUOUS
 62
    4
 10
1343.8663562688669
 20
826.75751666191786
 40
1.2083333333333581
 50
307.52351320333912
 51
232.47648680464988
  0
ARC
  8
_0-1_線色１__水色__
  6
CONTINUOUS
 62
    4
 10
1340.922435980184
 20
826.75751666171323
 40
1.2083333333333581
 50
307.52351320333912
 51
232.47648680464988
  0
ARC
  8
_0-1_線色１__水色__
  6
CONTINUOUS
 62
    4
 10
1342.3943961246584
 20
824.8408499951131
 40
1.2083333333333179
 50
127.52351320610693
 51
52.47648680188081
  0
ARC
  8
_0-1_線色１__水色__
  6
CONTINUOUS
 62
    4
 10
1337.9785156915011
 20
826.75751666150632
 40
1.2083333333333581
 50
307.52351320333912
 51
232.47648680464988
  0
ARC
  8
_0-1_線色１__水色__
  6
CONTINUOUS
 62
    4
 10
1336.5065555472927
 20
824.84084999470156
 40
1.2083333333333179
 50
127.52351320610693
 51
52.47648680188081
  0
ARC
  8
_0-1_線色１__水色__
  6
CONTINUOUS
 62
    4
 10
1339.4504758359756
 20
824.84084999490847
 40
1.2083333333333179
 50
127.52351320610693
 51
52.47648680188081
  0
ARC
  8
_0-1_線色１__水色__
  6
CONTINUOUS
 62
    4
 10
1335.034595402816
 20
826.75751666130168
 40
1.2083333333333581
 50
307.52351320333912
 51
232.47648680464988
  0
ARC
  8
_0-1_線色１__水色__
  6
CONTINUOUS
 62
    4
 10
1345.3383164133413
 20
824.84084999531774
 40
1.2083333333333179
 50
127.52351320610693
 51
52.47648680188081
  0
ARC
  8
_0-1_線色１__水色__
  6
CONTINUOUS
 62
    4
 10
1320.3149939593766
 20
826.75751666462133
 40
1.2083333333333581
 50
307.52351320333912
 51
232.47648680464988
  0
ARC
  8
_0-1_線色１__水色__
  6
CONTINUOUS
 62
    4
 10
1317.371073670696
 20
826.75751666441442
 40
1.2083333333333581
 50
307.52351320333912
 51
232.47648680464988
  0
ARC
  8
_0-1_線色１__水色__
  6
CONTINUOUS
 62
    4
 10
1318.8430338151704
 20
824.8408499978143
 40
1.2083333333333179
 50
127.52351320610693
 51
52.47648680188081
  0
ARC
  8
_0-1_線色１__水色__
  6
CONTINUOUS
 62
    4
 10
1314.4271533820131
 20
826.75751666420979
 40
1.2083333333333581
 50
307.52351320333912
 51
232.47648680464988
  0
ARC
  8
_0-1_線色１__水色__
  6
CONTINUOUS
 62
    4
 10
1315.8991135264876
 20
824.84084999760967
 40
1.2083333333333179
 50
127.52351320610693
 51
52.47648680188081
  0
ARC
  8
_0-1_線色１__水色__
  6
CONTINUOUS
 62
    4
 10
1311.483233093328
 20
826.75751666400288
 40
1.2083333333333581
 50
307.52351320333912
 51
232.47648680464988
  0
ARC
  8
_0-1_線色１__水色__
  6
CONTINUOUS
 62
    4
 10
1310.0112729491218
 20
824.84084999719812
 40
1.2083333333333179
 50
127.52351320610693
 51
52.47648680188081
  0
ARC
  8
_0-1_線色１__水色__
  6
CONTINUOUS
 62
    4
 10
1312.9551932378047
 20
824.84084999740503
 40
1.2083333333333179
 50
127.52351320610693
 51
52.47648680188081
  0
ARC
  8
_0-1_線色１__水色__
  6
CONTINUOUS
 62
    4
 10
1308.5393128046451
 20
826.75751666379824
 40
1.2083333333333581
 50
307.52351320333912
 51
232.47648680464988
  0
ARC
  8
_0-1_線色１__水色__
  6
CONTINUOUS
 62
    4
 10
1290.8757910725683
 20
826.75751666316614
 40
1.2083333333333581
 50
307.52351320333912
 51
232.47648680464988
  0
ARC
  8
_0-1_線色１__水色__
  6
CONTINUOUS
 62
    4
 10
1292.347751217045
 20
824.84084999656602
 40
1.2083333333333179
 50
127.52351320610693
 51
52.47648680188081
  0
ARC
  8
_0-1_線色１__水色__
  6
CONTINUOUS
 62
    4
 10
1287.9318707838854
 20
826.75751666295923
 40
1.2083333333333581
 50
307.52351320333912
 51
232.47648680464988
  0
ARC
  8
_0-1_線色１__水色__
  6
CONTINUOUS
 62
    4
 10
1289.4038309283599
 20
824.84084999636138
 40
1.2083333333333179
 50
127.52351320610693
 51
52.47648680188081
  0
ARC
  8
_0-1_線色１__水色__
  6
CONTINUOUS
 62
    4
 10
1284.9879504952025
 20
826.7575166627546
 40
1.2083333333333581
 50
307.52351320333912
 51
232.47648680464988
  0
ARC
  8
_0-1_線色１__水色__
  6
CONTINUOUS
 62
    4
 10
1286.459910639677
 20
824.84084999615447
 40
1.2083333333333179
 50
127.52351320610693
 51
52.47648680188081
  0
ARC
  8
_0-1_線色１__水色__
  6
CONTINUOUS
 62
    4
 10
1283.5159903509941
 20
824.84084999594984
 40
1.2083333333333179
 50
127.52351320610693
 51
52.47648680188081
  0
ARC
  8
_0-1_線色１__水色__
  6
CONTINUOUS
 62
    4
 10
1295.2916715057279
 20
824.84084999615447
 40
1.2083333333333179
 50
127.52351320610693
 51
52.47648680188081
  0
ARC
  8
_0-1_線色１__水色__
  6
CONTINUOUS
 62
    4
 10
1293.8197113612512
 20
826.7575166627546
 40
1.2083333333333581
 50
307.52351320333912
 51
232.47648680464988
  0
ARC
  8
_0-1_線色１__水色__
  6
CONTINUOUS
 62
    4
 10
1305.5953925159849
 20
826.75751666357542
 40
1.2083333333333581
 50
307.52351320333912
 51
232.47648680464988
  0
ARC
  8
_0-1_線色１__水色__
  6
CONTINUOUS
 62
    4
 10
1302.6514722273021
 20
826.75751666337078
 40
1.2083333333333581
 50
307.52351320333912
 51
232.47648680464988
  0
ARC
  8
_0-1_線色１__水色__
  6
CONTINUOUS
 62
    4
 10
1304.1234323717765
 20
824.84084999677066
 40
1.2083333333333179
 50
127.52351320610693
 51
52.47648680188081
  0
ARC
  8
_0-1_線色１__水色__
  6
CONTINUOUS
 62
    4
 10
1299.7075519386192
 20
826.75751666316614
 40
1.2083333333333581
 50
307.52351320333912
 51
232.47648680464988
  0
ARC
  8
_0-1_線色１__水色__
  6
CONTINUOUS
 62
    4
 10
1298.2355917944108
 20
824.84084999636138
 40
1.2083333333333179
 50
127.52351320610693
 51
52.47648680188081
  0
ARC
  8
_0-1_線色１__水色__
  6
CONTINUOUS
 62
    4
 10
1301.1795120830936
 20
824.84084999656602
 40
1.2083333333333179
 50
127.52351320610693
 51
52.47648680188081
  0
ARC
  8
_0-1_線色１__水色__
  6
CONTINUOUS
 62
    4
 10
1296.763631649934
 20
826.75751666295923
 40
1.2083333333333581
 50
307.52351320333912
 51
232.47648680464988
  0
ARC
  8
_0-1_線色１__水色__
  6
CONTINUOUS
 62
    4
 10
1307.0673526604594
 20
824.84084999697529
 40
1.2083333333333179
 50
127.52351320610693
 51
52.47648680188081
  0
ARC
  8
_0-1_線色１__水色__
  6
CONTINUOUS
 62
    4
 10
1282.0440302064947
 20
826.75751666627889
 40
1.2083333333333581
 50
307.52351320333912
 51
232.47648680464988
  0
ARC
  8
_0-1_線色１__水色__
  6
CONTINUOUS
 62
    4
 10
1279.1001099178118
 20
826.75751666607198
 40
1.2083333333333581
 50
307.52351320333912
 51
232.47648680464988
  0
ARC
  8
_0-1_線色１__水色__
  6
CONTINUOUS
 62
    4
 10
1280.5720700622862
 20
824.84084999947413
 40
1.2083333333333179
 50
127.52351320610693
 51
52.47648680188081
  0
ARC
  8
_0-1_線色１__水色__
  6
CONTINUOUS
 62
    4
 10
1276.1561896291289
 20
826.75751666586734
 40
1.2083333333333581
 50
307.52351320333912
 51
232.47648680464988
  0
ARC
  8
_0-1_線色１__水色__
  6
CONTINUOUS
 62
    4
 10
1277.6281497736034
 20
824.84084999926722
 40
1.2083333333333179
 50
127.52351320610693
 51
52.47648680188081
  0
ARC
  8
_0-1_線色１__水色__
  6
CONTINUOUS
 62
    4
 10
1273.2122693404438
 20
826.75751666566271
 40
1.2083333333333581
 50
307.52351320333912
 51
232.47648680464988
  0
ARC
  8
_0-1_線色１__水色__
  6
CONTINUOUS
 62
    4
 10
1271.7403091962376
 20
824.84084999885795
 40
1.2083333333333179
 50
127.52351320610693
 51
52.47648680188081
  0
ARC
  8
_0-1_線色１__水色__
  6
CONTINUOUS
 62
    4
 10
1274.6842294849205
 20
824.84084999906258
 40
1.2083333333333179
 50
127.52351320610693
 51
52.47648680188081
  0
ARC
  8
_0-1_線色１__水色__
  6
CONTINUOUS
 62
    4
 10
1270.2683490517609
 20
826.75751666545807
 40
1.2083333333333581
 50
307.52351320333912
 51
232.47648680464988
  0
ARC
  8
_0-1_線色１__水色__
  6
CONTINUOUS
 62
    4
 10
1267.3244287631007
 20
826.75751666523524
 40
1.2083333333333581
 50
307.52351320333912
 51
232.47648680464988
  0
ARC
  8
_0-1_線色１__水色__
  6
CONTINUOUS
 62
    4
 10
1264.3805084744179
 20
826.75751666502833
 40
1.2083333333333581
 50
307.52351320333912
 51
232.47648680464988
  0
ARC
  8
_0-1_線色１__水色__
  6
CONTINUOUS
 62
    4
 10
1265.8524686188923
 20
824.84084999843049
 40
1.2083333333333179
 50
127.52351320610693
 51
52.47648680188081
  0
ARC
  8
_0-1_線色１__水色__
  6
CONTINUOUS
 62
    4
 10
1268.7963889075752
 20
824.84084999863512
 40
1.2083333333333179
 50
127.52351320610693
 51
52.47648680188081
  0
ARC
  8
_0-1_線色１__水色__
  6
CONTINUOUS
 62
    4
 10
1261.436588185735
 20
826.7575166648237
 40
1.2083333333333581
 50
307.52351320333918
 51
69.092359369636583
  0
ARC
  8
_0-1_線色１__水色__
  6
CONTINUOUS
 62
    4
 10
1262.9085483302094
 20
824.84084999822358
 40
1.2083333333333179
 50
127.52351320610693
 51
149.46414004239466
  0
ARC
  8
_0-1_線色１__水色__
  6
CONTINUOUS
 62
    4
 10
1262.9085483302094
 20
824.84084999822358
 40
1.2083333333333179
 50
210.53585995760537
 51
52.47648680188081
  0
LINE
  8
_0-2_線色２__白__
  6
CONTINUOUS
 62
    7
 10
1344.3341346762406
 20
829.16382397682241
 11
1345.3491476290549
 21
828.29918331331442
  0
LINE
  8
_0-4_線色４__黄__
  6
CONTINUOUS
 62
    2
 10
1343.1387329013467
 20
836.75033210024026
 11
1347.1900814773051
 21
833.29918331331442
  0
LINE
  8
_0-4_線色４__黄__
  6
CONTINUOUS
 62
    2
 10
1257.1515176741002
 20
836.75033210024026
 11
1343.1387329013467
 21
836.75033210024026
  0
ARC
  8
_0-4_線色４__黄__
  6
CONTINUOUS
 62
    2
 10
1257.1515176741002
 20
833.75033210023844
 40
3.0000000000000004
 50
90
 51
185.00000000008285
  0
LINE
  8
_0-2_線色２__白__
  6
CONTINUOUS
 62
    7
 10
1301.8677971319732
 20
789.49918331331332
 11
1301.8677971319732
 21
823.29918331331442
  0
LINE
  8
_0-2_線色２__白__
  6
CONTINUOUS
 62
    7
 10
1266.8677971319732
 20
823.29918331331442
 11
1266.8677971319732
 21
689.49918331331332
  0
LINE
  8
_0-2_線色２__白__
  6
CONTINUOUS
 62
    7
 10
1260.6632133269534
 20
816.55889360835658
 11
1261.8677971319732
 21
802.79043771414649
  0
LINE
  8
_0-4_線色４__黄__
  6
CONTINUOUS
 62
    2
 10
1254.1629335798245
 20
833.48886487199138
 11
1256.8677971319732
 21
802.57213299961109
  0
LINE
  8
_0-2_線色２__白__
  6
CONTINUOUS
 62
    7
 10
1203.5684056939169
 20
729.16357397508705
 11
1202.5533927411027
 21
728.29893331157905
  0
LINE
  8
_0-4_線色４__黄__
  6
CONTINUOUS
 62
    2
 10
1202.922873620563
 20
741.75008209850489
 11
1198.8715250446069
 21
738.29893331157905
  0
LINE
  8
_0-4_線色４__黄__
  6
CONTINUOUS
 62
    2
 10
1250.2084837373502
 20
741.75008209850489
 11
1202.922873620563
 21
741.75008209850489
  0
LINE
  8
_0-4_線色４__黄__
  6
CONTINUOUS
 62
    2
 10
1253.1629069963867
 20
744.22913756550201
 11
1253.5359002330404
 21
746.34448732737269
  0
ARC
  8
_0-4_線色４__黄__
  6
CONTINUOUS
 62
    2
 10
1250.2084837373502
 20
744.75008209850444
 40
3.0000000000000004
 50
270
 51
349.99999999998295
  0
ARC
  8
_0-2_線色２__白__
  6
CONTINUOUS
 62
    7
 10
1250.2084837373502
 20
744.75008209850444
 40
8
 50
270
 51
349.99999999998295
  0
LINE
  8
_0-2_線色２__白__
  6
CONTINUOUS
 62
    7
 10
1198.8715250446069
 20
738.29893331157905
 11
1198.8533062570821
 21
738.42983825825854
  0
LINE
  8
_0-2_線色２__白__
  6
CONTINUOUS
 62
    7
 10
1198.8533062570821
 20
738.42983825825854
 11
1198.8202394774214
 21
738.65491219327737
  0
LINE
  8
_0-2_線色２__白__
  6
CONTINUOUS
 62
    7
 10
1198.8202394774214
 20
738.65491219327737
 11
1198.7825752615561
 21
738.87825210353526
  0
LINE
  8
_0-2_線色２__白__
  6
CONTINUOUS
 62
    7
 10
1198.7825752615561
 20
738.87825210353526
 11
1198.7374038397331
 21
739.09876050500657
  0
LINE
  8
_0-2_線色２__白__
  6
CONTINUOUS
 62
    7
 10
1198.7374038397331
 20
739.09876050500657
 11
1198.6818154422019
 21
739.31533991366564
  0
LINE
  8
_0-2_線色２__白__
  6
CONTINUOUS
 62
    7
 10
1198.6818154422019
 20
739.31533991366564
 11
1198.6129002992118
 21
739.52689284548455
  0
LINE
  8
_0-2_線色２__白__
  6
CONTINUOUS
 62
    7
 10
1198.6129002992118
 20
739.52689284548455
 11
1198.5656766009208
 21
739.64685794847696
  0
LINE
  8
_0-2_線色２__白__
  6
CONTINUOUS
 62
    7
 10
1198.5656766009208
 20
739.64685794847696
 11
1198.5247355396575
 21
739.73897478806634
  0
LINE
  8
_0-2_線色２__白__
  6
CONTINUOUS
 62
    7
 10
1198.5247355396575
 20
739.73897478806634
 11
1198.4463203669759
 21
739.89468909108041
  0
LINE
  8
_0-2_線色２__白__
  6
CONTINUOUS
 62
    7
 10
1198.4463203669759
 20
739.89468909108041
 11
1198.3592133526474
 21
740.04669269396004
  0
LINE
  8
_0-2_線色２__白__
  6
CONTINUOUS
 62
    7
 10
1198.3592133526474
 20
740.04669269396004
 11
1198.2648283635001
 21
740.19524520976233
  0
LINE
  8
_0-2_線色２__白__
  6
CONTINUOUS
 62
    7
 10
1198.2648283635001
 20
740.19524520976233
 11
1198.1645792663551
 21
740.34060625153302
  0
LINE
  8
_0-2_線色２__白__
  6
CONTINUOUS
 62
    7
 10
1198.1645792663551
 20
740.34060625153302
 11
1198.0598799280381
 21
740.48303543232919
  0
LINE
  8
_0-2_線色２__白__
  6
CONTINUOUS
 62
    7
 10
1198.0598799280381
 20
740.48303543232919
 11
1197.9976723483594
 21
740.5644032795351
  0
LINE
  8
_0-2_線色２__白__
  6
CONTINUOUS
 62
    7
 10
1197.9976723483594
 20
740.5644032795351
 11
1197.9234560744237
 21
740.65908687233673
  0
LINE
  8
_0-2_線色２__白__
  6
CONTINUOUS
 62
    7
 10
1197.9234560744237
 20
740.65908687233673
 11
1197.7932311343204
 21
740.81980566619791
  0
LINE
  8
_0-2_線色２__白__
  6
CONTINUOUS
 62
    7
 10
1197.7932311343204
 20
740.81980566619791
 11
1197.6603793150991
 21
740.97767242858822
  0
LINE
  8
_0-2_線色２__白__
  6
CONTINUOUS
 62
    7
 10
1197.6603793150991
 20
740.97767242858822
 11
1197.5251811769715
 21
741.13309292205599
  0
LINE
  8
_0-2_線色２__白__
  6
CONTINUOUS
 62
    7
 10
1197.5251811769715
 20
741.13309292205599
 11
1197.3879172801492
 21
741.28647290914273
  0
LINE
  8
_0-2_線色２__白__
  6
CONTINUOUS
 62
    7
 10
1197.3879172801492
 20
741.28647290914273
 11
1197.2488681848392
 21
741.43821815239676
  0
LINE
  8
_0-2_線色２__白__
  6
CONTINUOUS
 62
    7
 10
1197.2488681848392
 20
741.43821815239676
 11
1197.1675122869271
 21
741.5256412454039
  0
LINE
  8
_0-2_線色２__白__
  6
CONTINUOUS
 62
    7
 10
1197.1675122869271
 20
741.5256412454039
 11
1197.0818772135124
 21
741.61671141980264
  0
LINE
  8
_0-2_線色２__白__
  6
CONTINUOUS
 62
    7
 10
1197.0818772135124
 20
741.61671141980264
 11
1196.9326798552049
 21
741.77241316863615
  0
LINE
  8
_0-2_線色２__白__
  6
CONTINUOUS
 62
    7
 10
1196.9326798552049
 20
741.77241316863615
 11
1196.7809296416351
 21
741.92575914703525
  0
LINE
  8
_0-2_線色２__白__
  6
CONTINUOUS
 62
    7
 10
1196.7809296416351
 20
741.92575914703525
 11
1196.6259405621315
 21
742.07594678595683
  0
LINE
  8
_0-2_線色２__白__
  6
CONTINUOUS
 62
    7
 10
1196.6259405621315
 20
742.07594678595683
 11
1196.467026606025
 21
742.22217351635322
  0
LINE
  8
_0-2_線色２__白__
  6
CONTINUOUS
 62
    7
 10
1196.467026606025
 20
742.22217351635322
 11
1196.3035017626441
 21
742.36363676918131
  0
LINE
  8
_0-2_線色２__白__
  6
CONTINUOUS
 62
    7
 10
1196.3035017626441
 20
742.36363676918131
 11
1196.2062743210583
 21
742.44318657646204
  0
LINE
  8
_0-2_線色２__白__
  6
CONTINUOUS
 62
    7
 10
1196.2062743210583
 20
742.44318657646204
 11
1196.1186206215154
 21
742.51191192895817
  0
LINE
  8
_0-2_線色２__白__
  6
CONTINUOUS
 62
    7
 10
1196.1186206215154
 20
742.51191192895817
 11
1195.9640075215941
 21
742.62612469675901
  0
LINE
  8
_0-2_線色２__白__
  6
CONTINUOUS
 62
    7
 10
1195.9640075215941
 20
742.62612469675901
 11
1195.805042378405
 21
742.7340973856883
  0
LINE
  8
_0-2_線色２__白__
  6
CONTINUOUS
 62
    7
 10
1195.805042378405
 20
742.7340973856883
 11
1195.6417957211795
 21
742.83487261711457
  0
LINE
  8
_0-2_線色２__白__
  6
CONTINUOUS
 62
    7
 10
1195.6417957211795
 20
742.83487261711457
 11
1195.4743380791467
 21
742.92749301240178
  0
LINE
  8
_0-2_線色２__白__
  6
CONTINUOUS
 62
    7
 10
1195.4743380791467
 20
742.92749301240178
 11
1195.3027399815448
 21
743.01100119291391
  0
LINE
  8
_0-2_線色２__白__
  6
CONTINUOUS
 62
    7
 10
1195.3027399815448
 20
743.01100119291391
 11
1195.2013437203743
 21
743.05488346383413
  0
LINE
  8
_0-2_線色２__白__
  6
CONTINUOUS
 62
    7
 10
1195.2013437203743
 20
743.05488346383413
 11
1195.0874382276368
 21
743.09941217709707
  0
LINE
  8
_0-2_線色２__白__
  6
CONTINUOUS
 62
    7
 10
1195.0874382276368
 20
743.09941217709707
 11
1194.8875497697816
 21
743.16672280551188
  0
LINE
  8
_0-2_線色２__白__
  6
CONTINUOUS
 62
    7
 10
1194.8875497697816
 20
743.16672280551188
 11
1194.6838476709229
 21
743.22332635700946
  0
LINE
  8
_0-2_線色２__白__
  6
CONTINUOUS
 62
    7
 10
1194.6838476709229
 20
743.22332635700946
 11
1194.4770485941137
 21
743.27070123073895
  0
LINE
  8
_0-2_線色２__白__
  6
CONTINUOUS
 62
    7
 10
1194.4770485941137
 20
743.27070123073895
 11
1194.2678692024049
 21
743.31032582584953
  0
LINE
  8
_0-2_線色２__白__
  6
CONTINUOUS
 62
    7
 10
1194.2678692024049
 20
743.31032582584953
 11
1194.0570261588493
 21
743.34367854148582
  0
LINE
  8
_0-2_線色２__白__
  6
CONTINUOUS
 62
    7
 10
1194.0570261588493
 20
743.34367854148582
 11
1193.9342573108195
 21
743.36073190752018
  0
LINE
  8
_0-2_線色２__白__
  6
CONTINUOUS
 62
    7
 10
1193.9342573108195
 20
743.36073190752018
 11
1193.7858003407371
 21
743.37944890678614
  0
LINE
  8
_0-2_線色２__白__
  6
CONTINUOUS
 62
    7
 10
1193.7858003407371
 20
743.37944890678614
 11
1193.5294800754525
 21
743.40635566787682
  0
LINE
  8
_0-2_線色２__白__
  6
CONTINUOUS
 62
    7
 10
1193.5294800754525
 20
743.40635566787682
 11
1193.2730847468713
 21
743.42521391517607
  0
LINE
  8
_0-2_線色２__白__
  6
CONTINUOUS
 62
    7
 10
1193.2730847468713
 20
743.42521391517607
 11
1193.0170569102404
 21
743.43456000636138
  0
LINE
  8
_0-2_線色２__白__
  6
CONTINUOUS
 62
    7
 10
1193.0170569102404
 20
743.43456000636138
 11
1192.7618391208046
 21
743.43293029911479
  0
LINE
  8
_0-2_線色２__白__
  6
CONTINUOUS
 62
    7
 10
1192.7618391208046
 20
743.43293029911479
 11
1192.507873933813
 21
743.41886115111151
  0
LINE
  8
_0-2_線色２__白__
  6
CONTINUOUS
 62
    7
 10
1192.507873933813
 20
743.41886115111151
 11
1192.3613224575786
 21
743.40442454233084
  0
LINE
  8
_0-2_線色２__白__
  6
CONTINUOUS
 62
    7
 10
1192.3613224575786
 20
743.40442454233084
 11
1192.2539782660112
 21
743.39073475624559
  0
LINE
  8
_0-2_線色２__白__
  6
CONTINUOUS
 62
    7
 10
1192.2539782660112
 20
743.39073475624559
 11
1192.0695282052418
 21
743.36177512500512
  0
LINE
  8
_0-2_線色２__白__
  6
CONTINUOUS
 62
    7
 10
1192.0695282052418
 20
743.36177512500512
 11
1191.8855573478015
 21
743.327459643466
  0
LINE
  8
_0-2_線色２__白__
  6
CONTINUOUS
 62
    7
 10
1191.8855573478015
 20
743.327459643466
 11
1191.7017013119437
 21
743.28944481743861
  0
LINE
  8
_0-2_線色２__白__
  6
CONTINUOUS
 62
    7
 10
1191.7017013119437
 20
743.28944481743861
 11
1191.5175957159238
 21
743.24938715273333
  0
LINE
  8
_0-2_線色２__白__
  6
CONTINUOUS
 62
    7
 10
1191.5175957159238
 20
743.24938715273333
 11
1191.3328761779951
 21
743.20894315515829
  0
LINE
  8
_0-2_線色２__白__
  6
CONTINUOUS
 62
    7
 10
1191.3328761779951
 20
743.20894315515829
 11
1191.225313952458
 21
743.18596136827068
  0
LINE
  8
_0-2_線色２__白__
  6
CONTINUOUS
 62
    7
 10
1191.225313952458
 20
743.18596136827068
 11
1191.1032027211297
 21
743.16068764677198
  0
LINE
  8
_0-2_線色２__白__
  6
CONTINUOUS
 62
    7
 10
1191.1032027211297
 20
743.16068764677198
 11
1190.8924046975665
 21
743.1173381305382
  0
LINE
  8
_0-2_線色２__白__
  6
CONTINUOUS
 62
    7
 10
1190.8924046975665
 20
743.1173381305382
 11
1190.6826994737287
 21
743.0712049723877
  0
LINE
  8
_0-2_線色２__白__
  6
CONTINUOUS
 62
    7
 10
1190.6826994737287
 20
743.0712049723877
 11
1190.4757425244622
 21
743.01871893068551
  0
LINE
  8
_0-2_線色２__白__
  6
CONTINUOUS
 62
    7
 10
1190.4757425244622
 20
743.01871893068551
 11
1190.2731893246062
 21
742.95631076378754
  0
LINE
  8
_0-2_線色２__白__
  6
CONTINUOUS
 62
    7
 10
1190.2731893246062
 20
742.95631076378754
 11
1190.0766953490086
 21
742.880411230052
  0
LINE
  8
_0-2_線色２__白__
  6
CONTINUOUS
 62
    7
 10
1190.0766953490086
 20
742.880411230052
 11
1189.9661575228868
 21
742.8288012893961
  0
LINE
  8
_0-2_線色２__白__
  6
CONTINUOUS
 62
    7
 10
1189.9661575228868
 20
742.8288012893961
 11
1189.8668352917082
 21
742.77571581747111
  0
LINE
  8
_0-2_線色２__白__
  6
CONTINUOUS
 62
    7
 10
1189.8668352917082
 20
742.77571581747111
 11
1189.7014113765169
 21
742.67242953637265
  0
LINE
  8
_0-2_線色２__白__
  6
CONTINUOUS
 62
    7
 10
1189.7014113765169
 20
742.67242953637265
 11
1189.5433598051579
 21
742.55587990464051
  0
LINE
  8
_0-2_線色２__白__
  6
CONTINUOUS
 62
    7
 10
1189.5433598051579
 20
742.55587990464051
 11
1189.3926847587397
 21
742.42795323132782
  0
LINE
  8
_0-2_線色２__白__
  6
CONTINUOUS
 62
    7
 10
1189.3926847587397
 20
742.42795323132782
 11
1189.2493904183755
 21
742.2905358254809
  0
LINE
  8
_0-2_線色２__白__
  6
CONTINUOUS
 62
    7
 10
1189.2493904183755
 20
742.2905358254809
 11
1189.1134809651714
 21
742.14551399615061
  0
LINE
  8
_0-2_線色２__白__
  6
CONTINUOUS
 62
    7
 10
1189.1134809651714
 20
742.14551399615061
 11
1189.0380388851838
 21
742.05866029215372
  0
LINE
  8
_0-2_線色２__白__
  6
CONTINUOUS
 62
    7
 10
1189.0380388851838
 20
742.05866029215372
 11
1188.9537438608124
 21
741.95609290416201
  0
LINE
  8
_0-2_線色２__白__
  6
CONTINUOUS
 62
    7
 10
1188.9537438608124
 20
741.95609290416201
 11
1188.8155720015459
 21
741.77480789442484
  0
LINE
  8
_0-2_線色２__白__
  6
CONTINUOUS
 62
    7
 10
1188.8155720015459
 20
741.77480789442484
 11
1188.685461734525
 21
741.58858321980574
  0
LINE
  8
_0-2_線色２__白__
  6
CONTINUOUS
 62
    7
 10
1188.685461734525
 20
741.58858321980574
 11
1188.5622418325386
 21
741.39821715871562
  0
LINE
  8
_0-2_線色２__白__
  6
CONTINUOUS
 62
    7
 10
1188.5622418325386
 20
741.39821715871562
 11
1188.4447410683708
 21
741.20450798957222
  0
LINE
  8
_0-2_線色２__白__
  6
CONTINUOUS
 62
    7
 10
1188.4447410683708
 20
741.20450798957222
 11
1188.3317882148015
 21
741.00825399078872
  0
LINE
  8
_0-2_線色２__白__
  6
CONTINUOUS
 62
    7
 10
1188.3317882148015
 20
741.00825399078872
 11
1188.2678978879414
 21
740.89357519375994
  0
LINE
  8
_0-2_線色２__白__
  6
CONTINUOUS
 62
    7
 10
1188.2678978879414
 20
740.89357519375994
 11
1188.2006305204357
 21
740.77050860162558
  0
LINE
  8
_0-2_線色２__白__
  6
CONTINUOUS
 62
    7
 10
1188.2006305204357
 20
740.77050860162558
 11
1188.0866492792268
 21
740.55730184525714
  0
LINE
  8
_0-2_線色２__白__
  6
CONTINUOUS
 62
    7
 10
1188.0866492792268
 20
740.55730184525714
 11
1187.9745347308642
 21
740.34300484571872
  0
LINE
  8
_0-2_線色２__白__
  6
CONTINUOUS
 62
    7
 10
1187.9745347308642
 20
740.34300484571872
 11
1187.8635181216157
 21
740.12785558464543
  0
LINE
  8
_0-2_線色２__白__
  6
CONTINUOUS
 62
    7
 10
1187.8635181216157
 20
740.12785558464543
 11
1187.7528306977581
 21
739.91209204366555
  0
LINE
  8
_0-2_線色２__白__
  6
CONTINUOUS
 62
    7
 10
1187.7528306977581
 20
739.91209204366555
 11
1187.6417037055592
 21
739.69595220440965
  0
LINE
  8
_0-2_線色２__白__
  6
CONTINUOUS
 62
    7
 10
1187.6417037055592
 20
739.69595220440965
 11
1187.5767457109293
 21
739.57051245490788
  0
LINE
  8
_0-2_線色２__白__
  6
CONTINUOUS
 62
    7
 10
1187.5767457109293
 20
739.57051245490788
 11
1187.4883322567541
 21
739.40168427190088
  0
LINE
  8
_0-2_線色２__白__
  6
CONTINUOUS
 62
    7
 10
1187.4883322567541
 20
739.40168427190088
 11
1187.3318274408246
 21
739.11228850601333
  0
LINE
  8
_0-2_線色２__白__
  6
CONTINUOUS
 62
    7
 10
1187.3318274408246
 20
739.11228850601333
 11
1187.1676058475953
 21
738.82758032976312
  0
LINE
  8
_0-2_線色２__白__
  6
CONTINUOUS
 62
    7
 10
1187.1676058475953
 20
738.82758032976312
 11
1186.9926818602119
 21
738.55052690174603
  0
LINE
  8
_0-2_線色２__白__
  6
CONTINUOUS
 62
    7
 10
1186.9926818602119
 20
738.55052690174603
 11
1186.8040698618108
 21
738.2840953805578
  0
LINE
  8
_0-2_線色２__白__
  6
CONTINUOUS
 62
    7
 10
1186.8040698618108
 20
738.2840953805578
 11
1186.5987842355355
 21
738.03125292480104
  0
LINE
  8
_0-2_線色２__白__
  6
CONTINUOUS
 62
    7
 10
1186.5987842355355
 20
738.03125292480104
 11
1186.47090222771
 21
737.89200002502071
  0
LINE
  8
_0-2_線色２__白__
  6
CONTINUOUS
 62
    7
 10
1186.47090222771
 20
737.89200002502071
 11
1186.4246870554041
 21
737.84489501911025
  0
LINE
  8
_0-2_線色２__白__
  6
CONTINUOUS
 62
    7
 10
1186.4246870554041
 20
737.84489501911025
 11
1186.3429877938631
 21
737.76554992407569
  0
LINE
  8
_0-2_線色２__白__
  6
CONTINUOUS
 62
    7
 10
1186.3429877938631
 20
737.76554992407569
 11
1186.2587854015339
 21
737.68874981463227
  0
LINE
  8
_0-2_線色２__白__
  6
CONTINUOUS
 62
    7
 10
1186.2587854015339
 20
737.68874981463227
 11
1186.1721394260383
 21
737.61470091130718
  0
LINE
  8
_0-2_線色２__白__
  6
CONTINUOUS
 62
    7
 10
1186.1721394260383
 20
737.61470091130718
 11
1186.0831094150024
 21
737.54360943461847
  0
LINE
  8
_0-2_線色２__白__
  6
CONTINUOUS
 62
    7
 10
1186.0831094150024
 20
737.54360943461847
 11
1185.9917549160502
 21
737.47568160508877
  0
LINE
  8
_0-2_線色２__白__
  6
CONTINUOUS
 62
    7
 10
1185.9917549160502
 20
737.47568160508877
 11
1185.9377276911562
 21
737.43781430869717
  0
LINE
  8
_0-2_線色２__白__
  6
CONTINUOUS
 62
    7
 10
1185.9377276911562
 20
737.43781430869717
 11
1185.8481262800694
 21
737.37852161831938
  0
LINE
  8
_0-2_線色２__白__
  6
CONTINUOUS
 62
    7
 10
1185.8481262800694
 20
737.37852161831938
 11
1185.6899348358968
 21
737.28210835412369
  0
LINE
  8
_0-2_線色２__白__
  6
CONTINUOUS
 62
    7
 10
1185.6899348358968
 20
737.28210835412369
 11
1185.5285235488657
 21
737.19077994505483
  0
LINE
  8
_0-2_線色２__白__
  6
CONTINUOUS
 62
    7
 10
1185.5285235488657
 20
737.19077994505483
 11
1185.3656036005725
 21
737.10188923660212
  0
LINE
  8
_0-2_線色２__白__
  6
CONTINUOUS
 62
    7
 10
1185.3656036005725
 20
737.10188923660212
 11
1185.2028861726183
 21
737.01278907426627
  0
LINE
  8
_0-2_線色２__白__
  6
CONTINUOUS
 62
    7
 10
1185.2028861726183
 20
737.01278907426627
 11
1185.0420824466062
 21
736.92083230354115
  0
LINE
  8
_0-2_線色２__白__
  6
CONTINUOUS
 62
    7
 10
1185.0420824466062
 20
736.92083230354115
 11
1184.9503674382811
 21
736.86514536202935
  0
LINE
  8
_0-2_線色２__白__
  6
CONTINUOUS
 62
    7
 10
1184.9503674382811
 20
736.86514536202935
 11
1184.8579564458817
 21
736.80578059215918
  0
LINE
  8
_0-2_線色２__白__
  6
CONTINUOUS
 62
    7
 10
1184.8579564458817
 20
736.80578059215918
 11
1184.7020134437287
 21
736.6982788303892
  0
LINE
  8
_0-2_線色２__白__
  6
CONTINUOUS
 62
    7
 10
1184.7020134437287
 20
736.6982788303892
 11
1184.5496909015071
 21
736.58529564042169
  0
LINE
  8
_0-2_線色２__白__
  6
CONTINUOUS
 62
    7
 10
1184.5496909015071
 20
736.58529564042169
 11
1184.4002144127728
 21
736.46803558802617
  0
LINE
  8
_0-2_線色２__白__
  6
CONTINUOUS
 62
    7
 10
1184.4002144127728
 20
736.46803558802617
 11
1184.2528095710793
 21
736.34770323897897
  0
LINE
  8
_0-2_線色２__白__
  6
CONTINUOUS
 62
    7
 10
1184.2528095710793
 20
736.34770323897897
 11
1184.1067019699824
 21
736.22550315905187
  0
LINE
  8
_0-2_線色２__白__
  6
CONTINUOUS
 62
    7
 10
1184.1067019699824
 20
736.22550315905187
 11
1184.0222488005782
 21
736.15424597995911
  0
LINE
  8
_0-2_線色２__白__
  6
CONTINUOUS
 62
    7
 10
1184.0222488005782
 20
736.15424597995911
 11
1183.916406936961
 21
736.06476539605978
  0
LINE
  8
_0-2_線色２__白__
  6
CONTINUOUS
 62
    7
 10
1183.916406936961
 20
736.06476539605978
 11
1183.7348341586505
 21
735.90968234226352
  0
LINE
  8
_0-2_線色２__白__
  6
CONTINUOUS
 62
    7
 10
1183.7348341586505
 20
735.90968234226352
 11
1183.5556595060268
 21
735.75229317402204
  0
LINE
  8
_0-2_線色２__白__
  6
CONTINUOUS
 62
    7
 10
1183.5556595060268
 20
735.75229317402204
 11
1183.3803273798014
 21
735.59110297609664
  0
LINE
  8
_0-2_線色２__白__
  6
CONTINUOUS
 62
    7
 10
1183.3803273798014
 20
735.59110297609664
 11
1183.2102821806905
 21
735.42461683324859
  0
LINE
  8
_0-2_線色２__白__
  6
CONTINUOUS
 62
    7
 10
1183.2102821806905
 20
735.42461683324859
 11
1183.0469683094123
 21
735.25133983023693
  0
LINE
  8
_0-2_線色２__白__
  6
CONTINUOUS
 62
    7
 10
1183.0469683094123
 20
735.25133983023693
 11
1182.9558997274728
 21
735.14713852202817
  0
LINE
  8
_0-2_線色２__白__
  6
CONTINUOUS
 62
    7
 10
1182.9558997274728
 20
735.14713852202817
 11
1182.9042404548375
 21
735.08505124650469
  0
LINE
  8
_0-2_線色２__白__
  6
CONTINUOUS
 62
    7
 10
1182.9042404548375
 20
735.08505124650469
 11
1182.8179153445319
 21
734.97557850666794
  0
LINE
  8
_0-2_線色２__白__
  6
CONTINUOUS
 62
    7
 10
1182.8179153445319
 20
734.97557850666794
 11
1182.7355554723988
 21
734.86307724890708
  0
LINE
  8
_0-2_線色２__白__
  6
CONTINUOUS
 62
    7
 10
1182.7355554723988
 20
734.86307724890708
 11
1182.6577347816544
 21
734.74759631619577
  0
LINE
  8
_0-2_線色２__白__
  6
CONTINUOUS
 62
    7
 10
1182.6577347816544
 20
734.74759631619577
 11
1182.5850272155105
 21
734.62918455150316
  0
LINE
  8
_0-2_線色２__白__
  6
CONTINUOUS
 62
    7
 10
1182.5850272155105
 20
734.62918455150316
 11
1182.5180067171812
 21
734.50789079780066
  0
LINE
  8
_0-2_線色２__白__
  6
CONTINUOUS
 62
    7
 10
1182.5180067171812
 20
734.50789079780066
 11
1182.4819668060934
 21
734.43623913995793
  0
LINE
  8
_0-2_線色２__白__
  6
CONTINUOUS
 62
    7
 10
1182.4819668060934
 20
734.43623913995793
 11
1182.4353149527349
 21
734.33476324890648
  0
LINE
  8
_0-2_線色２__白__
  6
CONTINUOUS
 62
    7
 10
1182.4353149527349
 20
734.33476324890648
 11
1182.3638281943852
 21
734.1559988698566
  0
LINE
  8
_0-2_線色２__白__
  6
CONTINUOUS
 62
    7
 10
1182.3638281943852
 20
734.1559988698566
 11
1182.301876855762
 21
733.97317845170733
  0
LINE
  8
_0-2_線色２__白__
  6
CONTINUOUS
 62
    7
 10
1182.301876855762
 20
733.97317845170733
 11
1182.2473789674939
 21
733.7871875925191
  0
LINE
  8
_0-2_線色２__白__
  6
CONTINUOUS
 62
    7
 10
1182.2473789674939
 20
733.7871875925191
 11
1182.198252560205
 21
733.59891189034329
  0
LINE
  8
_0-2_線色２__白__
  6
CONTINUOUS
 62
    7
 10
1182.198252560205
 20
733.59891189034329
 11
1182.1524156645285
 21
733.40923694324033
  0
LINE
  8
_0-2_線色２__白__
  6
CONTINUOUS
 62
    7
 10
1182.1524156645285
 20
733.40923694324033
 11
1182.1265171150583
 21
733.29893331157905
  0
LINE
  8
_0-4_線色４__黄__
  6
CONTINUOUS
 62
    2
 10
1192.8743929776726
 20
738.29893331157905
 11
1198.8715250446069
 21
738.29893331157905
  0
LINE
  8
_0-2_線色２__白__
  6
CONTINUOUS
 62
    7
 10
1192.8743929776726
 20
733.29893331157905
 11
1200.7124588928548
 21
733.29893331157905
  0
LINE
  8
_0-2_線色２__白__
  6
CONTINUOUS
 62
    7
 10
1204.7638074688109
 20
736.75008209850489
 11
1200.7124588928548
 21
733.29893331157905
  0
LINE
  8
_0-2_線色２__白__
  6
CONTINUOUS
 62
    7
 10
1250.2084837373502
 20
736.75008209850489
 11
1204.7638074688109
 21
736.75008209850489
  0
LINE
  8
_0-2_線色２__白__
  6
CONTINUOUS
 62
    7
 10
1248.4877492026283
 20
736.75008209850489
 11
1248.4877492026283
 21
731.75008209850489
  0
LINE
  8
_0-2_線色２__白__
  6
CONTINUOUS
 62
    7
 10
1260.9798690438981
 20
749.55728945129863
 11
1261.8677971319732
 21
750.53401034818194
  0
LINE
  8
_0-4_線色４__黄__
  6
CONTINUOUS
 62
    2
 10
1256.8677971319732
 20
802.57213299961109
 11
1256.8677971319732
 21
752.46704472184206
  0
LINE
  8
_0-4_線色４__黄__
  6
CONTINUOUS
 62
    2
 10
1256.155984404935
 20
751.68405072210021
 11
1256.8677971319732
 21
752.46704472184206
  0
ARC
  8
_0-4_線色４__黄__
  6
CONTINUOUS
 62
    2
 10
1264.0733431902675
 20
744.48645182633641
 40
10.700000000000003
 50
137.72631099387618
 51
169.9999999999998
  0
LINE
  8
_0-2_線色２__白__
  6
CONTINUOUS
 62
    7
 10
1261.8677971319732
 20
828.29918331331442
 11
1261.8677971319732
 21
728.29893331157905
  0
LINE
  8
_0-4_線色４__黄__
  6
CONTINUOUS
 62
    2
 10
1192.8743929776726
 20
738.29893331157905
 11
1192.8743929776726
 21
733.29893331157905
  0
ARC
  8
_0-1_線色１__水色__
  6
CONTINUOUS
 62
    4
 10
1502.8380518577194
 20
826.75751665569464
 40
1.2083333333333581
 50
307.52351320333912
 51
232.47648680464988
  0
ARC
  8
_0-1_線色１__水色__
  6
CONTINUOUS
 62
    4
 10
1504.3100120021961
 20
824.84084998909452
 40
1.2083333333333179
 50
127.52351320610693
 51
52.47648680188081
  0
ARC
  8
_0-1_線色１__水色__
  6
CONTINUOUS
 62
    4
 10
1501.366091713511
 20
824.84084998888989
 40
1.2083333333333179
 50
127.52351320610693
 51
52.47648680188081
  0
LINE
  8
_0-d_断熱__ハッチ
  6
CONTINUOUS
 62
    4
 10
1465.7690194133932
 20
788.29918331331442
 11
1500.7690194133954
 21
823.29918331331442
  0
LINE
  8
_0-d_断熱__ハッチ
  6
CONTINUOUS
 62
    4
 10
1437.4847481659356
 20
788.29918331331214
 11
1472.4847481659356
 21
823.29918331331214
  0
LINE
  8
_0-d_断熱__ハッチ
  6
CONTINUOUS
 62
    4
 10
1409.2004769184712
 20
788.29918331331442
 11
1444.2004769184712
 21
823.29918331331442
  0
LINE
  8
_0-d_断熱__ハッチ
  6
CONTINUOUS
 62
    4
 10
1282.1162056710125
 20
689.4991833133156
 11
1301.8677971319732
 21
709.25077477427408
  0
LINE
  8
_0-d_断熱__ハッチ
  6
CONTINUOUS
 62
    4
 10
1382.1162056710125
 20
789.4991833133156
 11
1415.9162056710113
 21
823.29918331331214
  0
LINE
  8
_0-d_断熱__ハッチ
  6
CONTINUOUS
 62
    4
 10
1253.8319344235481
 20
689.49918331331787
 11
1301.867797131971
 21
737.53504602173848
  0
LINE
  8
_0-d_断熱__ハッチ
  6
CONTINUOUS
 62
    4
 10
1353.8319344235481
 20
789.4991833133156
 11
1387.6319344235469
 21
823.29918331331442
  0
LINE
  8
_0-d_断熱__ハッチ
  6
CONTINUOUS
 62
    4
 10
1225.5476631760882
 20
689.49918331331332
 11
1259.3474131743517
 21
723.29893331157677
  0
LINE
  8
_0-d_断熱__ハッチ
  6
CONTINUOUS
 62
    4
 10
1266.8677971319732
 20
730.81931726920061
 11
1301.8677971319755
 21
765.81931726920061
  0
LINE
  8
_0-d_断熱__ハッチ
  6
CONTINUOUS
 62
    4
 10
1325.547663176086
 20
789.49918331331105
 11
1359.3476631760871
 21
823.29918331331442
  0
LINE
  8
_0-d_断熱__ハッチ
  6
CONTINUOUS
 62
    4
 10
1266.8677971319732
 20
759.10358851666729
 11
1331.0633919286227
 21
823.29918331331442
  0
LINE
  8
_0-d_断熱__ハッチ
  6
CONTINUOUS
 62
    4
 10
1266.8677971319732
 20
787.3878597641226
 11
1302.7791206811651
 21
823.29918331331442
  0
LINE
  8
_0-d_断熱__ハッチ
  6
CONTINUOUS
 62
    4
 10
1266.8677971319755
 20
815.67213101159155
 11
1274.4948494336938
 21
823.29918331331214
  0
LINE
  8
_0-d_断熱__ハッチ
  6
CONTINUOUS
 62
    4
 10
1082.9260569370365
 20
688.29893331157677
 11
1117.9260569370365
 21
723.29893331157677
  0
LINE
  8
_0-d_断熱__ハッチ
  6
CONTINUOUS
 62
    4
 10
1197.2198961917604
 20
723.29893331157677
 11
1231.0196461900216
 21
689.4991833133156
  0
LINE
  8
_0-d_断熱__ハッチ
  6
CONTINUOUS
 62
    4
 10
1225.5041674392203
 20
723.29893331157677
 11
1259.303917437486
 21
689.49918331331332
  0
LINE
  8
_0-d_断熱__ハッチ
  6
CONTINUOUS
 62
    4
 10
1253.788438686687
 20
723.2989333115745
 11
1287.5881886849481
 21
689.49918331331332
  0
LINE
  8
_0-d_断熱__ハッチ
  6
CONTINUOUS
 62
    4
 10
1266.8677971319732
 20
738.50384611375489
 11
1301.867797131971
 21
703.50384611375489
  0
LINE
  8
_0-d_断熱__ハッチ
  6
CONTINUOUS
 62
    4
 10
1266.867797131971
 20
766.78811736121474
 11
1301.8677971319755
 21
731.7881173612102
  0
LINE
  8
_0-d_断熱__ハッチ
  6
CONTINUOUS
 62
    4
 10
1266.8677971319732
 20
795.0723886086746
 11
1301.8677971319732
 21
760.0723886086746
  0
LINE
  8
_0-d_断熱__ハッチ
  6
CONTINUOUS
 62
    4
 10
1266.9252736747978
 20
823.29918331331214
 11
1301.867797131971
 21
788.356659856139
  0
LINE
  8
_0-d_断熱__ハッチ
  6
CONTINUOUS
 62
    4
 10
1295.2095449222554
 20
823.29918331331214
 11
1329.0095449222542
 21
789.49918331331332
  0
LINE
  8
_0-d_断熱__ハッチ
  6
CONTINUOUS
 62
    4
 10
1323.4938161697221
 20
823.29918331331214
 11
1357.2938161697186
 21
789.4991833133156
  0
LINE
  8
_0-d_断熱__ハッチ
  6
CONTINUOUS
 62
    4
 10
1351.7780874171797
 20
823.29918331331214
 11
1385.5780874171808
 21
789.49918331331105
  0
LINE
  8
_0-d_断熱__ハッチ
  6
CONTINUOUS
 62
    4
 10
1380.0623586646441
 20
823.29918331331442
 11
1415.0623586646464
 21
788.29918331331214
  0
LINE
  8
_0-d_断熱__ハッチ
  6
CONTINUOUS
 62
    4
 10
1408.3466299121039
 20
823.29918331331214
 11
1443.3466299121039
 21
788.29918331331214
  0
LINE
  8
_0-d_断熱__ハッチ
  6
CONTINUOUS
 62
    4
 10
1436.6309011595683
 20
823.29918331331442
 11
1471.6309011595683
 21
788.29918331331214
  0
LINE
  8
_0-d_断熱__ハッチ
  6
CONTINUOUS
 62
    4
 10
1464.9151724070282
 20
823.29918331331214
 11
1499.9151724070282
 21
788.29918331331214
  0
ARC
  8
_0-1_線色１__水色__
  6
CONTINUOUS
 62
    4
 10
1098.0491390335294
 20
726.75726664879335
 40
1.2083333333333581
 50
307.52351320333912
 51
232.47648680464988
  0
ARC
  8
_0-1_線色１__水色__
  6
CONTINUOUS
 62
    4
 10
1080.3856173014526
 20
726.75726664815897
 40
1.2083333333333581
 50
307.52351320333912
 51
232.47648680464988
  0
ARC
  8
_0-1_線色１__水色__
  6
CONTINUOUS
 62
    4
 10
1081.8575774459293
 20
724.84059998156113
 40
1.2083333333333179
 50
127.52351320610693
 51
52.47648680188081
  0
ARC
  8
_0-1_線色１__水色__
  6
CONTINUOUS
 62
    4
 10
1077.4416970127697
 20
726.75726664795434
 40
1.2083333333333581
 50
307.52351320333912
 51
232.47648680464988
  0
ARC
  8
_0-1_線色１__水色__
  6
CONTINUOUS
 62
    4
 10
1078.9136571572442
 20
724.84059998135422
 40
1.2083333333333179
 50
127.52351320610693
 51
52.47648680188081
  0
ARC
  8
_0-1_線色１__水色__
  6
CONTINUOUS
 62
    4
 10
1074.4977767240869
 20
726.7572666477497
 40
1.2083333333333581
 50
307.52351320333912
 51
232.47648680464988
  0
ARC
  8
_0-1_線色１__水色__
  6
CONTINUOUS
 62
    4
 10
1075.9697368685613
 20
724.84059998114958
 40
1.2083333333333179
 50
127.52351320610693
 51
52.47648680188081
  0
ARC
  8
_0-1_線色１__水色__
  6
CONTINUOUS
 62
    4
 10
1073.0258165798784
 20
724.84059998094494
 40
1.2083333333333179
 50
127.52351320610693
 51
52.47648680188081
  0
ARC
  8
_0-1_線色１__水色__
  6
CONTINUOUS
 62
    4
 10
1084.8014977346122
 20
724.84059998114958
 40
1.2083333333333179
 50
127.52351320610693
 51
52.47648680188081
  0
ARC
  8
_0-1_線色１__水色__
  6
CONTINUOUS
 62
    4
 10
1083.3295375901355
 20
726.7572666477497
 40
1.2083333333333581
 50
307.52351320333912
 51
232.47648680464988
  0
ARC
  8
_0-1_線色１__水色__
  6
CONTINUOUS
 62
    4
 10
1095.1052187448693
 20
726.75726664857052
 40
1.2083333333333581
 50
307.52351320333912
 51
232.47648680464988
  0
ARC
  8
_0-1_線色１__水色__
  6
CONTINUOUS
 62
    4
 10
1092.1612984561864
 20
726.75726664836588
 40
1.2083333333333581
 50
307.52351320333912
 51
232.47648680464988
  0
ARC
  8
_0-1_線色１__水色__
  6
CONTINUOUS
 62
    4
 10
1093.6332586006608
 20
724.84059998176576
 40
1.2083333333333179
 50
127.52351320610693
 51
52.47648680188081
  0
ARC
  8
_0-1_線色１__水色__
  6
CONTINUOUS
 62
    4
 10
1089.2173781675035
 20
726.75726664815897
 40
1.2083333333333581
 50
307.52351320333912
 51
232.47648680464988
  0
ARC
  8
_0-1_線色１__水色__
  6
CONTINUOUS
 62
    4
 10
1087.7454180232951
 20
724.84059998135422
 40
1.2083333333333179
 50
127.52351320610693
 51
52.47648680188081
  0
ARC
  8
_0-1_線色１__水色__
  6
CONTINUOUS
 62
    4
 10
1090.689338311978
 20
724.84059998156113
 40
1.2083333333333179
 50
127.52351320610693
 51
52.47648680188081
  0
ARC
  8
_0-1_線色１__水色__
  6
CONTINUOUS
 62
    4
 10
1086.2734578788184
 20
726.75726664795434
 40
1.2083333333333581
 50
307.52351320333912
 51
232.47648680464988
  0
ARC
  8
_0-1_線色１__水色__
  6
CONTINUOUS
 62
    4
 10
1096.5771788893437
 20
724.8405999819704
 40
1.2083333333333179
 50
127.52351320610693
 51
52.47648680188081
  0
ARC
  8
_0-1_線色１__水色__
  6
CONTINUOUS
 62
    4
 10
1068.6099361466961
 20
726.75726665106936
 40
1.2083333333333581
 50
307.52351320333912
 51
232.47648680464988
  0
ARC
  8
_0-1_線色１__水色__
  6
CONTINUOUS
 62
    4
 10
1067.1379760024877
 20
724.8405999842646
 40
1.2083333333333179
 50
127.52351320610693
 51
52.47648680188081
  0
ARC
  8
_0-1_線色１__水色__
  6
CONTINUOUS
 62
    4
 10
1070.0818962911728
 20
724.84059998446924
 40
1.2083333333333179
 50
127.52351320610693
 51
52.47648680188081
  0
ARC
  8
_0-1_線色１__水色__
  6
CONTINUOUS
 62
    4
 10
1065.6660158580132
 20
726.75726665086245
 40
1.2083333333333581
 50
307.52351320333912
 51
232.47648680464988
  0
ARC
  8
_0-1_線色１__水色__
  6
CONTINUOUS
 62
    4
 10
1071.553856435379
 20
726.75726665127399
 40
1.2083333333333581
 50
307.52351320333912
 51
232.47648680464988
  0
ARC
  8
_0-1_線色１__水色__
  6
CONTINUOUS
 62
    4
 10
1148.0957839411246
 20
726.75726664879335
 40
1.2083333333333581
 50
307.52351320333912
 51
232.47648680464988
  0
ARC
  8
_0-1_線色１__水色__
  6
CONTINUOUS
 62
    4
 10
1130.4322622090478
 20
726.75726664815897
 40
1.2083333333333581
 50
307.52351320333912
 51
232.47648680464988
  0
ARC
  8
_0-1_線色１__水色__
  6
CONTINUOUS
 62
    4
 10
1131.9042223535246
 20
724.84059998156113
 40
1.2083333333333179
 50
127.52351320610693
 51
52.47648680188081
  0
ARC
  8
_0-1_線色１__水色__
  6
CONTINUOUS
 62
    4
 10
1127.488341920365
 20
726.75726664795434
 40
1.2083333333333581
 50
307.52351320333912
 51
232.47648680464988
  0
ARC
  8
_0-1_線色１__水色__
  6
CONTINUOUS
 62
    4
 10
1128.9603020648394
 20
724.84059998135422
 40
1.2083333333333179
 50
127.52351320610693
 51
52.47648680188081
  0
ARC
  8
_0-1_線色１__水色__
  6
CONTINUOUS
 62
    4
 10
1124.5444216316821
 20
726.7572666477497
 40
1.2083333333333581
 50
307.52351320333912
 51
232.47648680464988
  0
ARC
  8
_0-1_線色１__水色__
  6
CONTINUOUS
 62
    4
 10
1126.0163817761565
 20
724.84059998114958
 40
1.2083333333333179
 50
127.52351320610693
 51
52.47648680188081
  0
ARC
  8
_0-1_線色１__水色__
  6
CONTINUOUS
 62
    4
 10
1123.0724614874737
 20
724.84059998094494
 40
1.2083333333333179
 50
127.52351320610693
 51
52.47648680188081
  0
ARC
  8
_0-1_線色１__水色__
  6
CONTINUOUS
 62
    4
 10
1134.8481426422074
 20
724.84059998114958
 40
1.2083333333333179
 50
127.52351320610693
 51
52.47648680188081
  0
ARC
  8
_0-1_線色１__水色__
  6
CONTINUOUS
 62
    4
 10
1133.3761824977307
 20
726.7572666477497
 40
1.2083333333333581
 50
307.52351320333912
 51
232.47648680464988
  0
ARC
  8
_0-1_線色１__水色__
  6
CONTINUOUS
 62
    4
 10
1145.1518636524645
 20
726.75726664857052
 40
1.2083333333333581
 50
307.52351320333912
 51
232.47648680464988
  0
ARC
  8
_0-1_線色１__水色__
  6
CONTINUOUS
 62
    4
 10
1142.2079433637816
 20
726.75726664836588
 40
1.2083333333333581
 50
307.52351320333912
 51
232.47648680464988
  0
ARC
  8
_0-1_線色１__水色__
  6
CONTINUOUS
 62
    4
 10
1143.6799035082561
 20
724.84059998176576
 40
1.2083333333333179
 50
127.52351320610693
 51
52.47648680188081
  0
ARC
  8
_0-1_線色１__水色__
  6
CONTINUOUS
 62
    4
 10
1139.2640230750987
 20
726.75726664815897
 40
1.2083333333333581
 50
307.52351320333912
 51
232.47648680464988
  0
ARC
  8
_0-1_線色１__水色__
  6
CONTINUOUS
 62
    4
 10
1137.7920629308903
 20
724.84059998135422
 40
1.2083333333333179
 50
127.52351320610693
 51
52.47648680188081
  0
ARC
  8
_0-1_線色１__水色__
  6
CONTINUOUS
 62
    4
 10
1140.7359832195732
 20
724.84059998156113
 40
1.2083333333333179
 50
127.52351320610693
 51
52.47648680188081
  0
ARC
  8
_0-1_線色１__水色__
  6
CONTINUOUS
 62
    4
 10
1136.3201027864136
 20
726.75726664795434
 40
1.2083333333333581
 50
307.52351320333912
 51
232.47648680464988
  0
ARC
  8
_0-1_線色１__水色__
  6
CONTINUOUS
 62
    4
 10
1146.623823796939
 20
724.8405999819704
 40
1.2083333333333179
 50
127.52351320610693
 51
52.47648680188081
  0
ARC
  8
_0-1_線色１__水色__
  6
CONTINUOUS
 62
    4
 10
1118.6565810542913
 20
726.75726665106936
 40
1.2083333333333581
 50
307.52351320333912
 51
232.47648680464988
  0
ARC
  8
_0-1_線色１__水色__
  6
CONTINUOUS
 62
    4
 10
1117.1846209100829
 20
724.8405999842646
 40
1.2083333333333179
 50
127.52351320610693
 51
52.47648680188081
  0
ARC
  8
_0-1_線色１__水色__
  6
CONTINUOUS
 62
    4
 10
1120.1285411987681
 20
724.84059998446924
 40
1.2083333333333179
 50
127.52351320610693
 51
52.47648680188081
  0
ARC
  8
_0-1_線色１__水色__
  6
CONTINUOUS
 62
    4
 10
1115.7126607656085
 20
726.75726665086245
 40
1.2083333333333581
 50
307.52351320333912
 51
232.47648680464988
  0
ARC
  8
_0-1_線色１__水色__
  6
CONTINUOUS
 62
    4
 10
1112.7687404769483
 20
726.75726665063962
 40
1.2083333333333581
 50
307.52351320333912
 51
232.47648680464988
  0
ARC
  8
_0-1_線色１__水色__
  6
CONTINUOUS
 62
    4
 10
1109.8248201882654
 20
726.75726665043499
 40
1.2083333333333581
 50
307.52351320333912
 51
232.47648680464988
  0
ARC
  8
_0-1_線色１__水色__
  6
CONTINUOUS
 62
    4
 10
1111.2967803327399
 20
724.84059998383486
 40
1.2083333333333179
 50
127.52351320610693
 51
52.47648680188081
  0
ARC
  8
_0-1_線色１__水色__
  6
CONTINUOUS
 62
    4
 10
1114.2407006214228
 20
724.84059998404177
 40
1.2083333333333179
 50
127.52351320610693
 51
52.47648680188081
  0
ARC
  8
_0-1_線色１__水色__
  6
CONTINUOUS
 62
    4
 10
1121.6005013429742
 20
726.75726665127399
 40
1.2083333333333581
 50
307.52351320333912
 51
232.47648680464988
  0
ARC
  8
_0-1_線色１__水色__
  6
CONTINUOUS
 62
    4
 10
1102.465019466689
 20
724.84059998322095
 40
1.2083333333333179
 50
127.52351320610693
 51
52.47648680188081
  0
ARC
  8
_0-1_線色１__水色__
  6
CONTINUOUS
 62
    4
 10
1100.9930593222145
 20
726.7572666498188
 40
1.2083333333333581
 50
307.52351320333912
 51
232.47648680464988
  0
ARC
  8
_0-1_線色１__水色__
  6
CONTINUOUS
 62
    4
 10
1106.8808998995803
 20
726.75726665023035
 40
1.2083333333333581
 50
307.52351320333912
 51
232.47648680464988
  0
ARC
  8
_0-1_線色１__水色__
  6
CONTINUOUS
 62
    4
 10
1105.4089397553741
 20
724.84059998342559
 40
1.2083333333333179
 50
127.52351320610693
 51
52.47648680188081
  0
ARC
  8
_0-1_線色１__水色__
  6
CONTINUOUS
 62
    4
 10
1108.352860044057
 20
724.84059998363023
 40
1.2083333333333179
 50
127.52351320610693
 51
52.47648680188081
  0
ARC
  8
_0-1_線色１__水色__
  6
CONTINUOUS
 62
    4
 10
1103.9369796108974
 20
726.75726665002571
 40
1.2083333333333581
 50
307.52351320333912
 51
232.47648680464988
  0
ARC
  8
_0-1_線色１__水色__
  6
CONTINUOUS
 62
    4
 10
1099.5210991780061
 20
724.84059998363023
 40
1.2083333333333179
 50
127.52351320610693
 51
52.47648680188081
  0
ARC
  8
_0-1_線色１__水色__
  6
CONTINUOUS
 62
    4
 10
1198.1424288487176
 20
726.75726664879335
 40
1.2083333333333581
 50
307.52351320333912
 51
232.47648680464988
  0
ARC
  8
_0-1_線色１__水色__
  6
CONTINUOUS
 62
    4
 10
1180.4789071166408
 20
726.75726664815897
 40
1.2083333333333581
 50
307.52351320333912
 51
232.47648680464988
  0
ARC
  8
_0-1_線色１__水色__
  6
CONTINUOUS
 62
    4
 10
1181.9508672611175
 20
724.84059998156113
 40
1.2083333333333179
 50
127.52351320610693
 51
52.47648680188081
  0
ARC
  8
_0-1_線色１__水色__
  6
CONTINUOUS
 62
    4
 10
1177.5349868279579
 20
726.75726664795434
 40
1.2083333333333581
 50
307.52351320333912
 51
232.47648680464988
  0
ARC
  8
_0-1_線色１__水色__
  6
CONTINUOUS
 62
    4
 10
1179.0069469724324
 20
724.84059998135422
 40
1.2083333333333179
 50
127.52351320610693
 51
52.47648680188081
  0
ARC
  8
_0-1_線色１__水色__
  6
CONTINUOUS
 62
    4
 10
1174.5910665392751
 20
726.7572666477497
 40
1.2083333333333581
 50
307.52351320333912
 51
232.47648680464988
  0
ARC
  8
_0-1_線色１__水色__
  6
CONTINUOUS
 62
    4
 10
1176.0630266837495
 20
724.84059998114958
 40
1.2083333333333179
 50
127.52351320610693
 51
52.47648680188081
  0
ARC
  8
_0-1_線色１__水色__
  6
CONTINUOUS
 62
    4
 10
1173.1191063950666
 20
724.84059998094494
 40
1.2083333333333179
 50
127.52351320610693
 51
52.47648680188081
  0
ARC
  8
_0-1_線色１__水色__
  6
CONTINUOUS
 62
    4
 10
1184.8947875498004
 20
724.84059998114958
 40
1.2083333333333179
 50
127.52351320610693
 51
52.47648680188081
  0
ARC
  8
_0-1_線色１__水色__
  6
CONTINUOUS
 62
    4
 10
1183.4228274053237
 20
726.7572666477497
 40
1.2083333333333581
 50
307.52351320333912
 51
232.47648680464988
  0
ARC
  8
_0-1_線色１__水色__
  6
CONTINUOUS
 62
    4
 10
1195.1985085600575
 20
726.75726664857052
 40
1.2083333333333581
 50
307.52351320333912
 51
232.47648680464988
  0
ARC
  8
_0-1_線色１__水色__
  6
CONTINUOUS
 62
    4
 10
1192.2545882713746
 20
726.75726664836588
 40
1.2083333333333581
 50
307.52351320333912
 51
232.47648680464988
  0
ARC
  8
_0-1_線色１__水色__
  6
CONTINUOUS
 62
    4
 10
1193.726548415849
 20
724.84059998176576
 40
1.2083333333333179
 50
127.52351320610693
 51
52.47648680188081
  0
ARC
  8
_0-1_線色１__水色__
  6
CONTINUOUS
 62
    4
 10
1189.3106679826917
 20
726.75726664815897
 40
1.2083333333333581
 50
307.52351320333912
 51
232.47648680464988
  0
ARC
  8
_0-1_線色１__水色__
  6
CONTINUOUS
 62
    4
 10
1187.8387078384833
 20
724.84059998135422
 40
1.2083333333333179
 50
127.52351320610693
 51
52.47648680188081
  0
ARC
  8
_0-1_線色１__水色__
  6
CONTINUOUS
 62
    4
 10
1190.7826281271662
 20
724.84059998156113
 40
1.2083333333333179
 50
127.52351320610693
 51
52.47648680188081
  0
ARC
  8
_0-1_線色１__水色__
  6
CONTINUOUS
 62
    4
 10
1186.3667476940066
 20
726.75726664795434
 40
1.2083333333333581
 50
307.52351320333912
 51
232.47648680464988
  0
ARC
  8
_0-1_線色１__水色__
  6
CONTINUOUS
 62
    4
 10
1196.6704687045319
 20
724.8405999819704
 40
1.2083333333333179
 50
127.52351320610693
 51
52.47648680188081
  0
ARC
  8
_0-1_線色１__水色__
  6
CONTINUOUS
 62
    4
 10
1168.7032259618843
 20
726.75726665106936
 40
1.2083333333333581
 50
307.52351320333912
 51
232.47648680464988
  0
ARC
  8
_0-1_線色１__水色__
  6
CONTINUOUS
 62
    4
 10
1167.2312658176759
 20
724.8405999842646
 40
1.2083333333333179
 50
127.52351320610693
 51
52.47648680188081
  0
ARC
  8
_0-1_線色１__水色__
  6
CONTINUOUS
 62
    4
 10
1170.175186106361
 20
724.84059998446924
 40
1.2083333333333179
 50
127.52351320610693
 51
52.47648680188081
  0
ARC
  8
_0-1_線色１__水色__
  6
CONTINUOUS
 62
    4
 10
1165.7593056732014
 20
726.75726665086245
 40
1.2083333333333581
 50
307.52351320333912
 51
232.47648680464988
  0
ARC
  8
_0-1_線色１__水色__
  6
CONTINUOUS
 62
    4
 10
1162.8153853845413
 20
726.75726665063962
 40
1.2083333333333581
 50
307.52351320333912
 51
232.47648680464988
  0
ARC
  8
_0-1_線色１__水色__
  6
CONTINUOUS
 62
    4
 10
1159.8714650958584
 20
726.75726665043499
 40
1.2083333333333581
 50
307.52351320333912
 51
232.47648680464988
  0
ARC
  8
_0-1_線色１__水色__
  6
CONTINUOUS
 62
    4
 10
1161.3434252403329
 20
724.84059998383486
 40
1.2083333333333179
 50
127.52351320610693
 51
52.47648680188081
  0
ARC
  8
_0-1_線色１__水色__
  6
CONTINUOUS
 62
    4
 10
1164.2873455290157
 20
724.84059998404177
 40
1.2083333333333179
 50
127.52351320610693
 51
52.47648680188081
  0
ARC
  8
_0-1_線色１__水色__
  6
CONTINUOUS
 62
    4
 10
1171.6471462505672
 20
726.75726665127399
 40
1.2083333333333581
 50
307.52351320333912
 51
232.47648680464988
  0
ARC
  8
_0-1_線色１__水色__
  6
CONTINUOUS
 62
    4
 10
1152.511664374282
 20
724.84059998322095
 40
1.2083333333333179
 50
127.52351320610693
 51
52.47648680188081
  0
ARC
  8
_0-1_線色１__水色__
  6
CONTINUOUS
 62
    4
 10
1151.0397042298075
 20
726.7572666498188
 40
1.2083333333333581
 50
307.52351320333912
 51
232.47648680464988
  0
ARC
  8
_0-1_線色１__水色__
  6
CONTINUOUS
 62
    4
 10
1156.9275448071733
 20
726.75726665023035
 40
1.2083333333333581
 50
307.52351320333912
 51
232.47648680464988
  0
ARC
  8
_0-1_線色１__水色__
  6
CONTINUOUS
 62
    4
 10
1155.4555846629671
 20
724.84059998342559
 40
1.2083333333333179
 50
127.52351320610693
 51
52.47648680188081
  0
ARC
  8
_0-1_線色１__水色__
  6
CONTINUOUS
 62
    4
 10
1158.39950495165
 20
724.84059998363023
 40
1.2083333333333179
 50
127.52351320610693
 51
52.47648680188081
  0
ARC
  8
_0-1_線色１__水色__
  6
CONTINUOUS
 62
    4
 10
1153.9836245184904
 20
726.75726665002571
 40
1.2083333333333581
 50
307.52351320333912
 51
232.47648680464988
  0
ARC
  8
_0-1_線色１__水色__
  6
CONTINUOUS
 62
    4
 10
1149.5677440855991
 20
724.84059998363023
 40
1.2083333333333179
 50
127.52351320610693
 51
52.47648680188081
  0
ARC
  8
_0-1_線色１__水色__
  6
CONTINUOUS
 62
    4
 10
1248.1890737563106
 20
726.75726664879335
 40
1.2083333333333581
 50
307.52351320333912
 51
232.47648680464988
  0
ARC
  8
_0-1_線色１__水色__
  6
CONTINUOUS
 62
    4
 10
1230.5255520242338
 20
726.75726664815897
 40
1.2083333333333581
 50
307.52351320333912
 51
232.47648680464988
  0
ARC
  8
_0-1_線色１__水色__
  6
CONTINUOUS
 62
    4
 10
1231.9975121687105
 20
724.84059998156113
 40
1.2083333333333179
 50
127.52351320610693
 51
52.47648680188081
  0
ARC
  8
_0-1_線色１__水色__
  6
CONTINUOUS
 62
    4
 10
1227.5816317355509
 20
726.75726664795434
 40
1.2083333333333581
 50
307.52351320333912
 51
232.47648680464988
  0
ARC
  8
_0-1_線色１__水色__
  6
CONTINUOUS
 62
    4
 10
1229.0535918800254
 20
724.84059998135422
 40
1.2083333333333179
 50
127.52351320610693
 51
52.47648680188081
  0
ARC
  8
_0-1_線色１__水色__
  6
CONTINUOUS
 62
    4
 10
1224.637711446868
 20
726.7572666477497
 40
1.2083333333333581
 50
307.52351320333912
 51
232.47648680464988
  0
ARC
  8
_0-1_線色１__水色__
  6
CONTINUOUS
 62
    4
 10
1226.1096715913425
 20
724.84059998114958
 40
1.2083333333333179
 50
127.52351320610693
 51
52.47648680188081
  0
ARC
  8
_0-1_線色１__水色__
  6
CONTINUOUS
 62
    4
 10
1223.1657513026596
 20
724.84059998094494
 40
1.2083333333333179
 50
127.52351320610693
 51
52.47648680188081
  0
ARC
  8
_0-1_線色１__水色__
  6
CONTINUOUS
 62
    4
 10
1234.9414324573934
 20
724.84059998114958
 40
1.2083333333333179
 50
127.52351320610693
 51
52.47648680188081
  0
ARC
  8
_0-1_線色１__水色__
  6
CONTINUOUS
 62
    4
 10
1233.4694723129167
 20
726.7572666477497
 40
1.2083333333333581
 50
307.52351320333912
 51
232.47648680464988
  0
ARC
  8
_0-1_線色１__水色__
  6
CONTINUOUS
 62
    4
 10
1245.2451534676504
 20
726.75726664857052
 40
1.2083333333333581
 50
307.52351320333912
 51
232.47648680464988
  0
ARC
  8
_0-1_線色１__水色__
  6
CONTINUOUS
 62
    4
 10
1242.3012331789675
 20
726.75726664836588
 40
1.2083333333333581
 50
307.52351320333912
 51
232.47648680464988
  0
ARC
  8
_0-1_線色１__水色__
  6
CONTINUOUS
 62
    4
 10
1243.773193323442
 20
724.84059998176576
 40
1.2083333333333179
 50
127.52351320610693
 51
52.47648680188081
  0
ARC
  8
_0-1_線色１__水色__
  6
CONTINUOUS
 62
    4
 10
1239.3573128902847
 20
726.75726664815897
 40
1.2083333333333581
 50
307.52351320333912
 51
232.47648680464988
  0
ARC
  8
_0-1_線色１__水色__
  6
CONTINUOUS
 62
    4
 10
1237.8853527460763
 20
724.84059998135422
 40
1.2083333333333179
 50
127.52351320610693
 51
52.47648680188081
  0
ARC
  8
_0-1_線色１__水色__
  6
CONTINUOUS
 62
    4
 10
1240.8292730347591
 20
724.84059998156113
 40
1.2083333333333179
 50
127.52351320610693
 51
52.47648680188081
  0
ARC
  8
_0-1_線色１__水色__
  6
CONTINUOUS
 62
    4
 10
1236.4133926015995
 20
726.75726664795434
 40
1.2083333333333581
 50
307.52351320333912
 51
232.47648680464988
  0
ARC
  8
_0-1_線色１__水色__
  6
CONTINUOUS
 62
    4
 10
1246.7171136121249
 20
724.8405999819704
 40
1.2083333333333179
 50
127.52351320610693
 51
52.47648680188081
  0
ARC
  8
_0-1_線色１__水色__
  6
CONTINUOUS
 62
    4
 10
1218.7498708694773
 20
726.75726665106936
 40
1.2083333333333581
 50
307.52351320333912
 51
232.47648680464988
  0
ARC
  8
_0-1_線色１__水色__
  6
CONTINUOUS
 62
    4
 10
1217.2779107252688
 20
724.8405999842646
 40
1.2083333333333179
 50
127.52351320610693
 51
52.47648680188081
  0
ARC
  8
_0-1_線色１__水色__
  6
CONTINUOUS
 62
    4
 10
1220.221831013954
 20
724.84059998446924
 40
1.2083333333333179
 50
127.52351320610693
 51
52.47648680188081
  0
ARC
  8
_0-1_線色１__水色__
  6
CONTINUOUS
 62
    4
 10
1215.8059505807944
 20
726.75726665086245
 40
1.2083333333333581
 50
307.52351320333912
 51
232.47648680464988
  0
ARC
  8
_0-1_線色１__水色__
  6
CONTINUOUS
 62
    4
 10
1212.8620302921342
 20
726.75726665063962
 40
1.2083333333333581
 50
307.52351320333912
 51
232.47648680464988
  0
ARC
  8
_0-1_線色１__水色__
  6
CONTINUOUS
 62
    4
 10
1209.9181100034514
 20
726.75726665043499
 40
1.2083333333333581
 50
307.52351320333912
 51
232.47648680464988
  0
ARC
  8
_0-1_線色１__水色__
  6
CONTINUOUS
 62
    4
 10
1211.3900701479258
 20
724.84059998383486
 40
1.2083333333333179
 50
127.52351320610693
 51
52.47648680188081
  0
ARC
  8
_0-1_線色１__水色__
  6
CONTINUOUS
 62
    4
 10
1214.3339904366087
 20
724.84059998404177
 40
1.2083333333333179
 50
127.52351320610693
 51
52.47648680188081
  0
ARC
  8
_0-1_線色１__水色__
  6
CONTINUOUS
 62
    4
 10
1221.6937911581601
 20
726.75726665127399
 40
1.2083333333333581
 50
307.52351320333912
 51
232.47648680464988
  0
ARC
  8
_0-1_線色１__水色__
  6
CONTINUOUS
 62
    4
 10
1202.5583092818749
 20
724.84059998322095
 40
1.2083333333333179
 50
127.52351320610693
 51
52.47648680188081
  0
ARC
  8
_0-1_線色１__水色__
  6
CONTINUOUS
 62
    4
 10
1201.0863491374005
 20
726.7572666498188
 40
1.2083333333333581
 50
307.52351320333912
 51
232.47648680464988
  0
ARC
  8
_0-1_線色１__水色__
  6
CONTINUOUS
 62
    4
 10
1206.9741897147662
 20
726.75726665023035
 40
1.2083333333333581
 50
307.52351320333912
 51
232.47648680464988
  0
ARC
  8
_0-1_線色１__水色__
  6
CONTINUOUS
 62
    4
 10
1205.5022295705601
 20
724.84059998342559
 40
1.2083333333333179
 50
127.52351320610693
 51
52.47648680188081
  0
ARC
  8
_0-1_線色１__水色__
  6
CONTINUOUS
 62
    4
 10
1208.446149859243
 20
724.84059998363023
 40
1.2083333333333179
 50
127.52351320610693
 51
52.47648680188081
  0
ARC
  8
_0-1_線色１__水色__
  6
CONTINUOUS
 62
    4
 10
1204.0302694260834
 20
726.75726665002571
 40
1.2083333333333581
 50
307.52351320333912
 51
232.47648680464988
  0
ARC
  8
_0-1_線色１__水色__
  6
CONTINUOUS
 62
    4
 10
1199.6143889931921
 20
724.84059998363023
 40
1.2083333333333179
 50
127.52351320610693
 51
52.47648680188081
  0
ARC
  8
_0-1_線色１__水色__
  6
CONTINUOUS
 62
    4
 10
1262.9086751997295
 20
726.75726665063962
 40
1.2083333333333581
 50
307.52351320333912
 51
232.47648680464988
  0
ARC
  8
_0-1_線色１__水色__
  6
CONTINUOUS
 62
    4
 10
1259.9647549110466
 20
726.75726665043499
 40
1.2083333333333581
 50
307.52351320333912
 51
232.47648680464988
  0
ARC
  8
_0-1_線色１__水色__
  6
CONTINUOUS
 62
    4
 10
1261.4367150555211
 20
724.84059998383486
 40
1.2083333333333179
 50
127.52351320610693
 51
52.47648680188081
  0
ARC
  8
_0-1_線色１__水色__
  6
CONTINUOUS
 62
    4
 10
1264.3806353442039
 20
724.84059998404177
 40
1.2083333333333179
 50
127.52351320610693
 51
52.47648680188081
  0
ARC
  8
_0-1_線色１__水色__
  6
CONTINUOUS
 62
    4
 10
1252.6049541894702
 20
724.84059998322095
 40
1.2083333333333179
 50
127.52351320610693
 51
52.47648680188081
  0
ARC
  8
_0-1_線色１__水色__
  6
CONTINUOUS
 62
    4
 10
1251.1329940449957
 20
726.7572666498188
 40
1.2083333333333581
 50
307.52351320333912
 51
232.47648680464988
  0
ARC
  8
_0-1_線色１__水色__
  6
CONTINUOUS
 62
    4
 10
1257.0208346223615
 20
726.75726665023035
 40
1.2083333333333581
 50
307.52351320333912
 51
232.47648680464988
  0
ARC
  8
_0-1_線色１__水色__
  6
CONTINUOUS
 62
    4
 10
1255.5488744781553
 20
724.84059998342559
 40
1.2083333333333179
 50
127.52351320610693
 51
52.47648680188081
  0
ARC
  8
_0-1_線色１__水色__
  6
CONTINUOUS
 62
    4
 10
1258.4927947668382
 20
724.84059998363023
 40
1.2083333333333179
 50
127.52351320610693
 51
52.47648680188081
  0
ARC
  8
_0-1_線色１__水色__
  6
CONTINUOUS
 62
    4
 10
1254.0769143336786
 20
726.75726665002571
 40
1.2083333333333581
 50
307.52351320333912
 51
232.47648680464988
  0
ARC
  8
_0-1_線色１__水色__
  6
CONTINUOUS
 62
    4
 10
1249.6610339007873
 20
724.84059998363023
 40
1.2083333333333179
 50
127.52351320610693
 51
52.47648680188081
  0
ARC
  8
_0-1_線色１__水色__
  6
CONTINUOUS
 62
    4
 10
1267.3245556328641
 20
724.8405999842646
 40
1.2083333333333179
 50
127.52351320610693
 51
247.78971164985913
  0
ARC
  8
_0-1_線色１__水色__
  6
CONTINUOUS
 62
    4
 10
1265.8525954883896
 20
726.75726665086245
 40
1.2083333333333581
 50
307.52351320333918
 51
327.15774566393463
  0
ARC
  8
_0-1_線色１__水色__
  6
CONTINUOUS
 62
    4
 10
1265.8525954883896
 20
726.75726665086245
 40
1.2083333333333581
 50
32.842254336065366
 51
232.47648680464988
  0
LINE
  8
_0-6_鋼板__アングル
  6
CONTINUOUS
 62
    2
 10
1303.0677971319744
 20
788.29918331331442
 11
1401.8677971319732
 21
788.29918331331442
  0
LINE
  8
_0-6_鋼板__アングル
  6
CONTINUOUS
 62
    2
 10
1301.8677971319732
 20
789.49918331331332
 11
1401.8677971319732
 21
789.49918331331332
  0
LINE
  8
_0-6_鋼板__アングル
  6
CONTINUOUS
 62
    2
 10
1401.8677971319732
 20
789.49918331331332
 11
1401.8677971319732
 21
788.29918331331442
  0
LINE
  8
_0-6_鋼板__アングル
  6
CONTINUOUS
 62
    2
 10
1259.3341346762406
 20
831.75033210024026
 11
1260.6632133269534
 21
816.55889360835658
  0
LINE
  8
_0-6_鋼板__アングル
  6
CONTINUOUS
 62
    2
 10
1260.6437048775126
 20
830.55033210022771
 11
1261.8677971319732
 21
816.55889360835658
  0
LINE
  8
_0-6_鋼板__アングル
  6
CONTINUOUS
 62
    2
 10
1260.6632133269534
 20
816.55889360835658
 11
1261.8677971319732
 21
816.55889360835658
  0
LINE
  8
_0-6_鋼板__アングル
  6
CONTINUOUS
 62
    2
 10
1326.187121522247
 20
831.25262967408958
 11
1323.5841346762425
 21
829.25033210024026
  0
LINE
  8
_0-6_鋼板__アングル
  6
CONTINUOUS
 62
    2
 10
1314.4811478302347
 20
831.25262967408958
 11
1317.0841346762415
 21
829.25033210024026
  0
LINE
  8
_0-6_鋼板__アングル
  6
CONTINUOUS
 62
    4
 10
1327.6504273482863
 20
831.75033210024026
 11
1313.0178420041955
 21
831.75033210024026
  0
LINE
  8
_0-6_鋼板__アングル
  6
CONTINUOUS
 62
    4
 10
1317.0841346762415
 20
829.25033210024026
 11
1323.5841346762425
 21
829.25033210024026
  0
LINE
  8
_0-6_鋼板__アングル
  6
CONTINUOUS
 62
    2
 10
1323.5841346762425
 20
829.25033210024026
 11
1324.3157875892609
 21
828.29918331331442
  0
LINE
  8
_0-6_鋼板__アングル
  6
CONTINUOUS
 62
    2
 10
1317.0841346762415
 20
829.25033210024026
 11
1316.3524817632208
 21
828.29918331331442
  0
LINE
  8
_0-6_鋼板__アングル
  6
CONTINUOUS
 62
    4
 10
1316.3524817632208
 20
828.29918331331442
 11
1324.3157875892609
 21
828.29918331331442
  0
LINE
  8
_0-6_鋼板__アングル
  6
CONTINUOUS
 62
    2
 10
1326.9187744352678
 20
830.30148088716373
 11
1324.3157875892609
 21
828.29918331331442
  0
LINE
  8
_0-6_鋼板__アングル
  6
CONTINUOUS
 62
    2
 10
1313.7494949172162
 20
830.30148088716373
 11
1316.3524817632208
 21
828.29918331331442
  0
LINE
  8
_0-6_鋼板__アングル
  6
CONTINUOUS
 62
    2
 10
1341.2763944584469
 20
830.19219694596927
 11
1343.5559749295214
 21
828.25033210023889
  0
ARC
  8
_0-6_鋼板__アングル
  6
CONTINUOUS
 62
    2
 10
1340.3036947750468
 20
829.05033210024044
 40
2.7000000000000002
 50
49.573921259901446
 51
90
  0
ARC
  8
_0-6_鋼板__アングル
  6
CONTINUOUS
 62
    2
 10
1340.3036947750468
 20
829.05033210023817
 40
1.5000000000000002
 50
49.573921259901446
 51
90
  0
LINE
  8
_0-6_鋼板__アングル
  6
CONTINUOUS
 62
    2
 10
1342.0545542051661
 20
831.10568882255279
 11
1344.3341346762406
 21
829.16382397682241
  0
LINE
  8
_0-6_鋼板__アングル
  6
CONTINUOUS
 62
    2
 10
1344.3341346762406
 20
829.16382397682241
 11
1343.5559749295214
 21
828.25033210023889
  0
LINE
  8
ADD_LINE
  6
DOT
 62
    4
 10
1320.334134676242
 20
843.30312080108683
 11
1320.334134676242
 21
809.11876461102452
  0
ARC
  8
_0-6_鋼板__アングル
  6
CONTINUOUS
 62
    2
 10
1327.6504273482863
 20
829.35033210024017
 40
1.2
 50
90
 51
127.56859202882507
  0
LINE
  8
_0-6_鋼板__アングル
  6
CONTINUOUS
 62
    2
 10
1327.6504273482863
 20
830.55033210022771
 11
1340.3036947750468
 21
830.55033210022771
  0
ARC
  8
_0-6_鋼板__アングル
  6
CONTINUOUS
 62
    2
 10
1327.6504273482863
 20
829.35033210024017
 40
2.3999999999999999
 50
90
 51
127.56859202882603
  0
LINE
  8
_0-6_鋼板__アングル
  6
CONTINUOUS
 62
    2
 10
1327.6504273482863
 20
831.75033210024026
 11
1340.3036947750468
 21
831.75033210024026
  0
ARC
  8
_0-6_鋼板__アングル
  6
CONTINUOUS
 62
    2
 10
1313.0178420041955
 20
829.35033210024017
 40
1.2
 50
52.431407971171978
 51
90
  0
ARC
  8
_0-6_鋼板__アングル
  6
CONTINUOUS
 62
    2
 10
1313.0178420041955
 20
829.35033210024017
 40
2.3999999999999999
 50
52.431407971173961
 51
90
  0
LINE
  8
_0-6_鋼板__アングル
  6
CONTINUOUS
 62
    2
 10
1260.6437048775126
 20
830.55033210022771
 11
1313.0178420041955
 21
830.55033210022771
  0
LINE
  8
_0-6_鋼板__アングル
  6
CONTINUOUS
 62
    2
 10
1259.3341346762406
 20
831.75033210024026
 11
1313.0178420041955
 21
831.75033210024026
  0
LINE
  8
_0-6_鋼板__アングル
  6
CONTINUOUS
 62
    2
 10
1303.0677971319744
 20
788.29918331331442
 11
1303.0677971319744
 21
688.29918331331442
  0
LINE
  8
_0-6_鋼板__アングル
  6
CONTINUOUS
 62
    2
 10
1301.8677971319732
 20
789.49918331331332
 11
1301.8677971319732
 21
689.49918331331332
  0
ARC
  8
_0-6_鋼板__アングル
  6
CONTINUOUS
 62
    2
 10
1248.4877492026283
 20
740.75008209850353
 40
10.199999999999999
 50
270
 51
349.99999999999994
  0
ARC
  8
_0-6_鋼板__アングル
  6
CONTINUOUS
 62
    2
 10
1248.4877492026283
 20
740.75008209850353
 40
9
 50
270
 51
349.99999999999994
  0
LINE
  8
_0-6_鋼板__アングル
  6
CONTINUOUS
 62
    2
 10
1259.6417083017138
 20
745.26786862583663
 11
1258.5327882833542
 21
738.97887068630212
  0
LINE
  8
_0-6_鋼板__アングル
  6
CONTINUOUS
 62
    2
 10
1258.4599389980997
 20
745.4762464390376
 11
1257.3510189797378
 21
739.18724849950081
  0
ARC
  8
_0-6_鋼板__アングル
  6
CONTINUOUS
 62
    2
 10
1264.0733431902675
 20
744.48645182633641
 40
5.700000000000002
 50
137.7263109939077
 51
169.99999999999977
  0
ARC
  8
_0-6_鋼板__アングル
  6
CONTINUOUS
 62
    2
 10
1264.0733431902675
 20
744.48645182633641
 40
4.5
 50
137.7263109939077
 51
169.99999999999997
  0
LINE
  8
_0-6_鋼板__アングル
  6
CONTINUOUS
 62
    2
 10
1260.7436128599863
 20
747.51347939931861
 11
1261.8677971319732
 21
748.75008209850307
  0
LINE
  8
_0-6_鋼板__アングル
  6
CONTINUOUS
 62
    2
 10
1260.9798690438981
 20
749.55728945129863
 11
1261.8677971319732
 21
748.75008209850307
  0
LINE
  8
_0-6_鋼板__アングル
  6
CONTINUOUS
 62
    2
 10
1259.8556847719112
 20
748.32068675211417
 11
1260.9798690438981
 21
749.55728945129863
  0
LINE
  8
_0-6_鋼板__アングル
  6
CONTINUOUS
 62
    2
 10
1206.6261459117129
 20
730.19194694423391
 11
1204.3465654406384
 21
728.25008209850353
  0
ARC
  8
_0-6_鋼板__アングル
  6
CONTINUOUS
 62
    2
 10
1207.5988455951108
 20
729.05008209850507
 40
2.7000000000000002
 50
90
 51
130.42607874009855
  0
ARC
  8
_0-6_鋼板__アングル
  6
CONTINUOUS
 62
    2
 10
1207.5988455951108
 20
729.0500820985028
 40
1.5000000000000002
 50
90
 51
130.42607874009855
  0
LINE
  8
_0-6_鋼板__アングル
  6
CONTINUOUS
 62
    2
 10
1205.8479861649914
 20
731.10543882081743
 11
1203.5684056939169
 21
729.16357397508705
  0
LINE
  8
_0-6_鋼板__アングル
  6
CONTINUOUS
 62
    2
 10
1203.5684056939169
 20
729.16357397508705
 11
1204.3465654406384
 21
728.25008209850353
  0
LINE
  8
ADD_LINE
  6
DOT
 62
    4
 10
1229.3465654406384
 20
697.57103809850491
 11
1229.3465654406384
 21
737.48522929850537
  0
LINE
  8
_0-6_鋼板__アングル
  6
CONTINUOUS
 62
    2
 10
1235.1995522866434
 20
731.25237967235421
 11
1232.5965654406366
 21
729.25008209850489
  0
ARC
  8
_0-6_鋼板__アングル
  6
CONTINUOUS
 62
    2
 10
1236.6628581126827
 20
729.3500820985048
 40
2.3999999999999999
 50
90
 51
127.56859202882603
  0
LINE
  8
_0-6_鋼板__アングル
  6
CONTINUOUS
 62
    2
 10
1223.4935785946311
 20
731.25237967235421
 11
1226.096565440638
 21
729.25008209850489
  0
ARC
  8
_0-6_鋼板__アングル
  6
CONTINUOUS
 62
    2
 10
1222.0302727685919
 20
729.3500820985048
 40
2.3999999999999999
 50
52.431407971173961
 51
90
  0
LINE
  8
_0-6_鋼板__アングル
  6
CONTINUOUS
 62
    4
 10
1236.6628581126827
 20
731.75008209850489
 11
1222.0302727685919
 21
731.75008209850489
  0
LINE
  8
_0-6_鋼板__アングル
  6
CONTINUOUS
 62
    4
 10
1226.096565440638
 20
729.25008209850489
 11
1232.5965654406366
 21
729.25008209850489
  0
LINE
  8
_0-6_鋼板__アングル
  6
CONTINUOUS
 62
    2
 10
1232.5965654406366
 20
729.25008209850489
 11
1233.3282183536573
 21
728.29893331157905
  0
LINE
  8
_0-6_鋼板__アングル
  6
CONTINUOUS
 62
    2
 10
1226.096565440638
 20
729.25008209850489
 11
1225.3649125276172
 21
728.29893331157905
  0
LINE
  8
_0-6_鋼板__アングル
  6
CONTINUOUS
 62
    4
 10
1225.3649125276172
 20
728.29893331157905
 11
1233.3282183536573
 21
728.29893331157905
  0
LINE
  8
_0-6_鋼板__アングル
  6
CONTINUOUS
 62
    2
 10
1235.9312051996642
 20
730.30123088542837
 11
1233.3282183536573
 21
728.29893331157905
  0
ARC
  8
_0-6_鋼板__アングル
  6
CONTINUOUS
 62
    2
 10
1236.6628581126827
 20
729.3500820985048
 40
1.2
 50
90
 51
127.56859202882507
  0
LINE
  8
_0-6_鋼板__アングル
  6
CONTINUOUS
 62
    2
 10
1222.7619256816104
 20
730.30123088542837
 11
1225.3649125276172
 21
728.29893331157905
  0
ARC
  8
_0-6_鋼板__アングル
  6
CONTINUOUS
 62
    2
 10
1222.0302727685919
 20
729.3500820985048
 40
1.2
 50
52.431407971171993
 51
90.000000000000057
  0
LINE
  8
_0-6_鋼板__アングル
  6
CONTINUOUS
 62
    2
 10
1248.4877492026283
 20
731.75008209850489
 11
1236.6628581126827
 21
731.75008209850489
  0
LINE
  8
_0-6_鋼板__アングル
  6
CONTINUOUS
 62
    2
 10
1222.0302727685919
 20
731.75008209850489
 11
1207.5988455951108
 21
731.75008209850489
  0
LINE
  8
_0-6_鋼板__アングル
  6
CONTINUOUS
 62
    2
 10
1248.4877492026283
 20
730.55008209850371
 11
1236.6628581126827
 21
730.55008209850371
  0
LINE
  8
_0-6_鋼板__アングル
  6
CONTINUOUS
 62
    2
 10
1222.0302727685919
 20
730.55008209850371
 11
1207.5988455951108
 21
730.55008209850371
  0
ARC
  8
_0-1_線色１__水色__
  6
CONTINUOUS
 62
    4
 10
1263.4094637928763
 20
786.50017970495014
 40
1.2083333333333581
 50
37.523513195350134
 51
322.47648679666082
  0
ARC
  8
_0-1_線色１__水色__
  6
CONTINUOUS
 62
    4
 10
1265.3261304594741
 20
785.02821956047569
 40
1.2083333333333177
 50
217.52351319811916
 51
142.47648679389312
  0
ARC
  8
_0-1_線色１__水色__
  6
CONTINUOUS
 62
    4
 10
1263.4094637930809
 20
789.44409999363529
 40
1.2083333333333581
 50
37.523513195350134
 51
322.47648679666082
  0
ARC
  8
_0-1_線色１__水色__
  6
CONTINUOUS
 62
    4
 10
1265.3261304596811
 20
787.97213984915857
 40
1.2083333333333177
 50
217.52351319811916
 51
142.47648679389312
  0
ARC
  8
_0-1_線色１__水色__
  6
CONTINUOUS
 62
    4
 10
1263.4094637928763
 20
760.00489710679972
 40
1.2083333333333581
 50
37.523513195350134
 51
322.47648679666082
  0
ARC
  8
_0-1_線色１__水色__
  6
CONTINUOUS
 62
    4
 10
1265.3261304594741
 20
758.53293696232527
 40
1.2083333333333177
 50
217.52351319811916
 51
142.47648679389312
  0
ARC
  8
_0-1_線色１__水色__
  6
CONTINUOUS
 62
    4
 10
1263.4094637930809
 20
762.94881739548487
 40
1.2083333333333581
 50
37.523513195350134
 51
322.47648679666082
  0
ARC
  8
_0-1_線色１__水色__
  6
CONTINUOUS
 62
    4
 10
1265.3261304596811
 20
761.47685725100814
 40
1.2083333333333177
 50
217.52351319811916
 51
142.47648679389312
  0
ARC
  8
_0-1_線色１__水色__
  6
CONTINUOUS
 62
    4
 10
1263.4094637932856
 20
765.89273768416774
 40
1.2083333333333581
 50
37.523513195350134
 51
322.47648679666082
  0
ARC
  8
_0-1_線色１__水色__
  6
CONTINUOUS
 62
    4
 10
1265.3261304598857
 20
764.42077753969102
 40
1.2083333333333177
 50
217.52351319811916
 51
142.47648679389312
  0
ARC
  8
_0-1_線色１__水色__
  6
CONTINUOUS
 62
    4
 10
1263.4094637934902
 20
768.83665797285062
 40
1.2083333333333581
 50
37.523513195350134
 51
322.47648679666082
  0
ARC
  8
_0-1_線色１__水色__
  6
CONTINUOUS
 62
    4
 10
1265.3261304600903
 20
767.36469782837617
 40
1.2083333333333177
 50
217.52351319811916
 51
142.47648679389312
  0
ARC
  8
_0-1_線色１__水色__
  6
CONTINUOUS
 62
    4
 10
1263.4094637936971
 20
771.78057826153349
 40
1.2083333333333581
 50
37.523513195350134
 51
322.47648679666082
  0
ARC
  8
_0-1_線色１__水色__
  6
CONTINUOUS
 62
    4
 10
1265.326130460295
 20
770.30861811705904
 40
1.2083333333333177
 50
217.52351319811916
 51
142.47648679389312
  0
ARC
  8
_0-1_線色１__水色__
  6
CONTINUOUS
 62
    4
 10
1263.4094637939018
 20
774.72449855021637
 40
1.2083333333333581
 50
37.523513195350134
 51
322.47648679666082
  0
ARC
  8
_0-1_線色１__水色__
  6
CONTINUOUS
 62
    4
 10
1265.3261304605019
 20
773.25253840574192
 40
1.2083333333333177
 50
217.52351319811916
 51
142.47648679389312
  0
ARC
  8
_0-1_線色１__水色__
  6
CONTINUOUS
 62
    4
 10
1263.409463794311
 20
780.61233912758439
 40
1.2083333333333581
 50
37.523513195350134
 51
322.47648679666082
  0
ARC
  8
_0-1_線色１__水色__
  6
CONTINUOUS
 62
    4
 10
1263.4094637941064
 20
777.66841883890152
 40
1.2083333333333581
 50
37.523513195350134
 51
322.47648679666082
  0
ARC
  8
_0-1_線色１__水色__
  6
CONTINUOUS
 62
    4
 10
1265.3261304609111
 20
779.14037898310767
 40
1.2083333333333177
 50
217.52351319811916
 51
142.47648679389312
  0
ARC
  8
_0-1_線色１__水色__
  6
CONTINUOUS
 62
    4
 10
1265.3261304607065
 20
776.19645869442479
 40
1.2083333333333177
 50
217.52351319811916
 51
142.47648679389312
  0
ARC
  8
_0-1_線色１__水色__
  6
CONTINUOUS
 62
    4
 10
1265.3261304611158
 20
782.08429927179282
 40
1.2083333333333177
 50
217.52351319811916
 51
142.47648679389312
  0
ARC
  8
_0-1_線色１__水色__
  6
CONTINUOUS
 62
    4
 10
1263.4094637945179
 20
783.55625941626727
 40
1.2083333333333581
 50
37.523513195350134
 51
322.47648679666082
  0
ARC
  8
_0-1_線色１__水色__
  6
CONTINUOUS
 62
    4
 10
1263.4094637928763
 20
733.50961450865157
 40
1.2083333333333581
 50
37.523513195350134
 51
322.47648679666082
  0
ARC
  8
_0-1_線色１__水色__
  6
CONTINUOUS
 62
    4
 10
1265.3261304594741
 20
732.03765436417484
 40
1.2083333333333177
 50
217.52351319811916
 51
142.47648679389312
  0
ARC
  8
_0-1_線色１__水色__
  6
CONTINUOUS
 62
    4
 10
1263.4094637930809
 20
736.45353479733444
 40
1.2083333333333581
 50
37.523513195350134
 51
322.47648679666082
  0
ARC
  8
_0-1_線色１__水色__
  6
CONTINUOUS
 62
    4
 10
1265.3261304596811
 20
734.98157465285772
 40
1.2083333333333177
 50
217.52351319811916
 51
142.47648679389312
  0
ARC
  8
_0-1_線色１__水色__
  6
CONTINUOUS
 62
    4
 10
1263.4094637932856
 20
739.39745508601732
 40
1.2083333333333581
 50
37.523513195350134
 51
322.47648679666082
  0
ARC
  8
_0-1_線色１__水色__
  6
CONTINUOUS
 62
    4
 10
1265.3261304598857
 20
737.92549494154287
 40
1.2083333333333177
 50
217.52351319811916
 51
142.47648679389312
  0
ARC
  8
_0-1_線色１__水色__
  6
CONTINUOUS
 62
    4
 10
1263.4094637934902
 20
742.34137537470019
 40
1.2083333333333581
 50
37.523513195350134
 51
322.47648679666082
  0
ARC
  8
_0-1_線色１__水色__
  6
CONTINUOUS
 62
    4
 10
1265.3261304600903
 20
740.86941523022574
 40
1.2083333333333177
 50
217.52351319811916
 51
142.47648679389312
  0
ARC
  8
_0-1_線色１__水色__
  6
CONTINUOUS
 62
    4
 10
1263.4094637936971
 20
745.28529566338307
 40
1.2083333333333581
 50
37.523513195350134
 51
322.47648679666082
  0
ARC
  8
_0-1_線色１__水色__
  6
CONTINUOUS
 62
    4
 10
1265.326130460295
 20
743.81333551890862
 40
1.2083333333333177
 50
217.52351319811916
 51
142.47648679389312
  0
ARC
  8
_0-1_線色１__水色__
  6
CONTINUOUS
 62
    4
 10
1263.4094637939018
 20
748.22921595206822
 40
1.2083333333333581
 50
37.523513195350134
 51
322.47648679666082
  0
ARC
  8
_0-1_線色１__水色__
  6
CONTINUOUS
 62
    4
 10
1265.3261304605019
 20
746.75725580759149
 40
1.2083333333333177
 50
217.52351319811916
 51
142.47648679389312
  0
ARC
  8
_0-1_線色１__水色__
  6
CONTINUOUS
 62
    4
 10
1263.409463794311
 20
754.11705652943397
 40
1.2083333333333581
 50
37.523513195350134
 51
322.47648679666082
  0
ARC
  8
_0-1_線色１__水色__
  6
CONTINUOUS
 62
    4
 10
1263.4094637941064
 20
751.17313624075109
 40
1.2083333333333581
 50
37.523513195350134
 51
322.47648679666082
  0
ARC
  8
_0-1_線色１__水色__
  6
CONTINUOUS
 62
    4
 10
1265.3261304609111
 20
752.64509638495952
 40
1.2083333333333177
 50
217.52351319811916
 51
142.47648679389312
  0
ARC
  8
_0-1_線色１__水色__
  6
CONTINUOUS
 62
    4
 10
1265.3261304607065
 20
749.70117609627437
 40
1.2083333333333177
 50
217.52351319811916
 51
142.47648679389312
  0
ARC
  8
_0-1_線色１__水色__
  6
CONTINUOUS
 62
    4
 10
1265.3261304611158
 20
755.58901667364239
 40
1.2083333333333177
 50
217.52351319811916
 51
142.47648679389312
  0
ARC
  8
_0-1_線色１__水色__
  6
CONTINUOUS
 62
    4
 10
1263.4094637945179
 20
757.06097681811684
 40
1.2083333333333581
 50
37.523513195350134
 51
322.47648679666082
  0
ARC
  8
_0-1_線色１__水色__
  6
CONTINUOUS
 62
    4
 10
1263.4094637932856
 20
730.56569421996642
 40
1.2083333333333581
 50
37.523513195350134
 51
322.47648679666082
  0
ARC
  8
_0-1_線色１__水色__
  6
CONTINUOUS
 62
    4
 10
1263.4094637920714
 20
801.21978114834405
 40
1.2083333333333581
 50
37.523513195350134
 51
322.47648679666082
  0
ARC
  8
_0-1_線色１__水色__
  6
CONTINUOUS
 62
    4
 10
1265.3261304586715
 20
799.7478210038696
 40
1.2083333333333177
 50
217.52351319811916
 51
142.47648679389312
  0
ARC
  8
_0-1_線色１__水色__
  6
CONTINUOUS
 62
    4
 10
1263.4094637922783
 20
804.16370143702693
 40
1.2083333333333581
 50
37.523513195350134
 51
322.47648679666082
  0
ARC
  8
_0-1_線色１__水色__
  6
CONTINUOUS
 62
    4
 10
1265.3261304588762
 20
802.69174129255248
 40
1.2083333333333177
 50
217.52351319811916
 51
142.47648679389312
  0
ARC
  8
_0-1_線色１__水色__
  6
CONTINUOUS
 62
    4
 10
1263.4094637935084
 20
795.3319405709783
 40
1.2083333333333581
 50
37.523513195350134
 51
322.47648679666082
  0
ARC
  8
_0-1_線色１__水色__
  6
CONTINUOUS
 62
    4
 10
1263.4094637933038
 20
792.38802028229316
 40
1.2083333333333581
 50
37.523513195350134
 51
322.47648679666082
  0
ARC
  8
_0-1_線色１__水色__
  6
CONTINUOUS
 62
    4
 10
1265.3261304601085
 20
793.85998042650158
 40
1.2083333333333177
 50
217.52351319811916
 51
142.47648679389312
  0
ARC
  8
_0-1_線色１__水色__
  6
CONTINUOUS
 62
    4
 10
1265.3261304603132
 20
796.80390071518673
 40
1.2083333333333177
 50
217.52351319811916
 51
142.47648679389312
  0
ARC
  8
_0-1_線色１__水色__
  6
CONTINUOUS
 62
    4
 10
1263.409463793713
 20
798.27586085966118
 40
1.2083333333333581
 50
37.523513195350134
 51
322.47648679666082
  0
ARC
  8
_0-1_線色１__水色__
  6
CONTINUOUS
 62
    4
 10
1265.3261304599039
 20
790.9160601378187
 40
1.2083333333333177
 50
217.52351319811916
 51
142.47648679389312
  0
ARC
  8
_0-1_線色１__水色__
  6
CONTINUOUS
 62
    4
 10
1263.4094637912688
 20
815.93938259173797
 40
1.2083333333333581
 50
37.523513195350134
 51
322.47648679666082
  0
ARC
  8
_0-1_線色１__水色__
  6
CONTINUOUS
 62
    4
 10
1265.3261304578689
 20
814.46742244726352
 40
1.2083333333333177
 50
217.52351319811916
 51
142.47648679389312
  0
ARC
  8
_0-1_線色１__水色__
  6
CONTINUOUS
 62
    4
 10
1263.4094637914757
 20
818.88330288042084
 40
1.2083333333333581
 50
37.523513195350134
 51
322.47648679666082
  0
ARC
  8
_0-1_線色１__水色__
  6
CONTINUOUS
 62
    4
 10
1265.3261304580735
 20
817.41134273594639
 40
1.2083333333333177
 50
217.52351319811916
 51
142.47648679389312
  0
ARC
  8
_0-1_線色１__水色__
  6
CONTINUOUS
 62
    4
 10
1263.4094637927058
 20
810.05154201437222
 40
1.2083333333333581
 50
37.523513195350134
 51
322.47648679666082
  0
ARC
  8
_0-1_線色１__水色__
  6
CONTINUOUS
 62
    4
 10
1263.4094637925011
 20
807.10762172568707
 40
1.2083333333333581
 50
37.523513195350134
 51
322.47648679666082
  0
ARC
  8
_0-1_線色１__水色__
  6
CONTINUOUS
 62
    4
 10
1265.3261304593059
 20
808.57958186989549
 40
1.2083333333333177
 50
217.52351319811916
 51
142.47648679389312
  0
ARC
  8
_0-1_線色１__水色__
  6
CONTINUOUS
 62
    4
 10
1265.3261304595105
 20
811.52350215857837
 40
1.2083333333333177
 50
217.52351319811916
 51
142.47648679389312
  0
ARC
  8
_0-1_線色１__水色__
  6
CONTINUOUS
 62
    4
 10
1263.4094637929104
 20
812.99546230305509
 40
1.2083333333333581
 50
37.523513195350134
 51
322.47648679666082
  0
ARC
  8
_0-1_線色１__水色__
  6
CONTINUOUS
 62
    4
 10
1265.3261304591013
 20
805.63566158121262
 40
1.2083333333333177
 50
217.52351319811916
 51
142.47648679389312
  0
ARC
  8
_0-1_線色１__水色__
  6
CONTINUOUS
 62
    4
 10
1263.4094637916803
 20
821.82722316910599
 40
1.2083333333333581
 50
37.523513195350134
 51
322.47648679666082
  0
ARC
  8
_0-1_線色１__水色__
  6
CONTINUOUS
 62
    4
 10
1265.3261304582804
 20
820.35526302462927
 40
1.2083333333333177
 50
217.52351319811916
 51
142.47648679389312
  0
ARC
  8
_0-1_線色１__水色__
  6
CONTINUOUS
 62
    4
 10
1265.3261304584851
 20
823.29918331331442
 40
1.2083333333333177
 50
217.52351319811916
 51
0
  0
ARC
  8
_0-1_線色１__水色__
  6
CONTINUOUS
 62
    4
 10
1265.3261304594741
 20
729.09373407549197
 40
1.2083333333333177
 50
318.8702716445635
 51
142.476486793893
  0
LINE
  8
_0-6_鋼板__アングル
  6
CONTINUOUS
 62
    2
 10
1303.0677971319744
 20
688.29918331331442
 11
1101.8677971319732
 21
688.29918331331442
  0
LINE
  8
_0-6_鋼板__アングル
  6
CONTINUOUS
 62
    2
 10
1301.8677971319732
 20
689.49918331331332
 11
1101.8677971319732
 21
689.49918331331332
  0
LINE
  8
_0-6_鋼板__アングル
  6
CONTINUOUS
 62
    2
 10
1101.8677971319732
 20
689.49918331331332
 11
1101.8677971319732
 21
688.29918331331442
  0
LINE
  8
_0-d_断熱__ハッチ
  6
CONTINUOUS
 62
    4
 10
1084.0828112019096
 20
723.29893331157677
 11
1117.8825612001754
 21
689.49918331331332
  0
LINE
  8
_0-d_断熱__ハッチ
  6
CONTINUOUS
 62
    4
 10
1197.2633919286216
 20
689.49918331331332
 11
1231.063141926885
 21
723.29893331157677
  0
LINE
  8
_0-d_断熱__ハッチ
  6
CONTINUOUS
 62
    4
 10
1168.979120681164
 20
689.49918331331332
 11
1202.7788706794274
 21
723.29893331157677
  0
LINE
  8
_0-d_断熱__ハッチ
  6
CONTINUOUS
 62
    4
 10
1140.6948494336973
 20
689.49918331331332
 11
1174.4945994319608
 21
723.29893331157677
  0
LINE
  8
_0-d_断熱__ハッチ
  6
CONTINUOUS
 62
    4
 10
1112.4105781862397
 20
689.49918331331332
 11
1146.2103281845032
 21
723.29893331157905
  0
LINE
  8
_0-d_断熱__ハッチ
  6
CONTINUOUS
 62
    4
 10
1112.3670824493786
 20
723.29893331157677
 11
1146.166832447642
 21
689.49918331331332
  0
LINE
  8
_0-d_断熱__ハッチ
  6
CONTINUOUS
 62
    4
 10
1140.6513536968339
 20
723.29893331157677
 11
1174.4511036950996
 21
689.49918331331332
  0
LINE
  8
_0-d_断熱__ハッチ
  6
CONTINUOUS
 62
    4
 10
1168.9356249443028
 20
723.29893331157677
 11
1202.7353749425663
 21
689.49918331331332
  0
LINE
  8
_0-5_金属
  6
CONTINUOUS
 62
    7
 10
1389.0677971319735
 20
688.29916331331219
 11
1453.0677971319744
 21
688.29916331331219
  0
LINE
  8
_0-5_金属
  6
CONTINUOUS
 62
    7
 10
1303.0677971319744
 20
688.29916331331219
 11
1367.0677971319731
 21
688.29916331331219
  0
ARC
  8
_0-5_金属
  6
CONTINUOUS
 62
    7
 10
1367.0677971319731
 20
680.29916331331265
 40
8
 50
0
 51
90
  0
ARC
  8
_0-5_金属
  6
CONTINUOUS
 62
    7
 10
1389.0677971319735
 20
680.29916331331265
 40
8
 50
90
 51
180
  0
LINE
  8
_0-5_金属
  6
CONTINUOUS
 62
    7
 10
1453.0677971319744
 20
697.2991633133131
 11
1303.0677971319744
 21
697.2991633133131
  0
LINE
  8
_0-5_金属
  6
CONTINUOUS
 62
    7
 10
1453.0677971319744
 20
688.29916331331219
 11
1453.0677971319744
 21
697.2991633133131
  0
LINE
  8
_0-d_断熱__ハッチ
  6
CONTINUOUS
 62
    4
 10
1018.0589918433759
 20
723.29893331157677
 11
1043.5634712001695
 21
697.79445395478547
  0
LINE
  8
_0-4_線色４__黄__
  6
CONTINUOUS
 62
    2
 10
873.00315798460701
 20
733.29893331157905
 11
1043.5634712001695
 21
733.29893331157905
  0
LINE
  8
_0-d_断熱__ハッチ
  6
CONTINUOUS
 62
    4
 10
1016.9022375785005
 20
688.29893331157677
 11
1043.5634712001695
 21
714.96016693324577
  0
LINE
  8
_0-2_線色２__白__
  6
CONTINUOUS
 62
    7
 10
815.81566546840008
 20
728.29893331157905
 11
1043.5634712001695
 21
728.29893331157905
  0
LINE
  8
_0-2_線色２__白__
  6
CONTINUOUS
 62
    7
 10
816.25310878603045
 20
723.29893331157905
 11
1043.5634712001695
 21
723.29893331157905
  0
LINE
  8
_0-4_線色４__黄__
  6
CONTINUOUS
 62
    2
 10
1055.8134712001686
 20
733.29893331157905
 11
1192.8743929776726
 21
733.29893331157905
  0
LINE
  8
_0-d_断熱__ハッチ
  6
CONTINUOUS
 62
    4
 10
1055.8134712001686
 20
689.47061882216644
 11
1089.6417856895789
 21
723.29893331157677
  0
LINE
  8
_0-d_断熱__ハッチ
  6
CONTINUOUS
 62
    4
 10
1055.8134712001686
 20
723.28400206586252
 11
1090.7985399544566
 21
688.2989333115745
  0
LINE
  8
_0-2_線色２__白__
  6
CONTINUOUS
 62
    7
 10
1055.8134712001686
 20
728.29893331157905
 11
1261.8677971319732
 21
728.29893331157905
  0
LINE
  8
_0-2_線色２__白__
  6
CONTINUOUS
 62
    7
 10
1055.8134712001686
 20
723.29893331157905
 11
1266.8677971319732
 21
723.29893331157905
  0
ARC
  8
_0-1_線色１__水色__
  6
CONTINUOUS
 62
    4
 10
1041.4911375510098
 20
726.75726664815897
 40
1.2083333333333581
 50
307.52351320333912
 51
232.47648680464988
  0
ARC
  8
_0-1_線色１__水色__
  6
CONTINUOUS
 62
    4
 10
1040.0191774068014
 20
724.84059998135422
 40
1.2083333333333179
 50
127.52351320610693
 51
52.47648680188081
  0
ARC
  8
_0-1_線色１__水色__
  6
CONTINUOUS
 62
    4
 10
1044.4350578396927
 20
726.75726664836588
 40
1.2083333333333581
 50
136.16299751083898
 51
223.83700248916102
  0
ARC
  8
_0-1_線色１__水色__
  6
CONTINUOUS
 62
    4
 10
1042.9630976954843
 20
724.84059998156113
 40
1.2083333333333179
 50
127.52351320610693
 51
299.79253069519973
  0
ARC
  8
_0-1_線色１__水色__
  6
CONTINUOUS
 62
    4
 10
1062.7220955693303
 20
726.7572666477497
 40
1.2083333333333581
 50
307.52351320333912
 51
232.47648680464988
  0
ARC
  8
_0-1_線色１__水色__
  6
CONTINUOUS
 62
    4
 10
1061.2501354251219
 20
724.84059998094494
 40
1.2083333333333179
 50
127.52351320610693
 51
52.47648680188081
  0
ARC
  8
_0-1_線色１__水色__
  6
CONTINUOUS
 62
    4
 10
1058.3062151364163
 20
724.84059998446924
 40
1.2083333333333179
 50
127.52351320610693
 51
52.47648680188081
  0
ARC
  8
_0-1_線色１__水色__
  6
CONTINUOUS
 62
    4
 10
1059.7781752806225
 20
726.75726665127399
 40
1.2083333333333581
 50
307.52351320333912
 51
232.47648680464988
  0
ARC
  8
_0-1_線色１__水色__
  6
CONTINUOUS
 62
    4
 10
1064.1940557138048
 20
724.84059998114958
 40
1.2083333333333179
 50
127.52351320610693
 51
52.47648680188081
  0
ARC
  8
_0-1_線色１__水色__
  6
CONTINUOUS
 62
    4
 10
1056.8342549919396
 20
726.75726665106936
 40
1.2083333333333581
 50
307.52351320333918
 51
147.64907757135833
  0
ARC
  8
_0-1_線色１__水色__
  6
CONTINUOUS
 62
    4
 10
1056.8342549919396
 20
726.75726665106936
 40
1.2083333333333581
 50
212.35092242864161
 51
232.47648680464988
  0
ARC
  8
_0-1_線色１__水色__
  6
CONTINUOUS
 62
    4
 10
1055.3622948477312
 20
724.8405999842646
 40
1.2083333333333179
 50
291.92467476689251
 51
52.476486801880853
  0
LINE
  8
_0-2_線色２__白__
  6
CONTINUOUS
 62
    7
 10
1266.8677971319732
 20
823.29918331331442
 11
1517.3326719584077
 21
823.29918331331442
  0
LINE
  8
_0-2_線色２__白__
  6
CONTINUOUS
 62
    7
 10
1261.8677971319732
 20
828.29918331331442
 11
1517.3326719584077
 21
828.29918331331442
  0
LINE
  8
_0-4_線色４__黄__
  6
CONTINUOUS
 62
    2
 10
1347.1900814773051
 20
833.29918331331442
 11
1517.3326719584077
 21
833.29918331331442
  0
ARC
  8
_0-1_線色１__水色__
  6
CONTINUOUS
 62
    4
 10
1514.6137330124782
 20
826.7575166552831
 40
1.2083333333333581
 50
307.52351320333912
 51
232.47648680464988
  0
ARC
  8
_0-1_線色１__水色__
  6
CONTINUOUS
 62
    4
 10
1511.6698127237953
 20
826.75751665507846
 40
1.2083333333333581
 50
307.52351320333912
 51
232.47648680464988
  0
ARC
  8
_0-1_線色１__水色__
  6
CONTINUOUS
 62
    4
 10
1513.1417728682698
 20
824.84084998847834
 40
1.2083333333333179
 50
127.52351320610693
 51
52.47648680188081
  0
ARC
  8
_0-1_線色１__水色__
  6
CONTINUOUS
 62
    4
 10
1508.7258924351124
 20
826.75751665487383
 40
1.2083333333333581
 50
307.52351320333912
 51
232.47648680464988
  0
ARC
  8
_0-1_線色１__水色__
  6
CONTINUOUS
 62
    4
 10
1507.253932290904
 20
824.84084998806907
 40
1.2083333333333179
 50
127.52351320610693
 51
52.47648680188081
  0
ARC
  8
_0-1_線色１__水色__
  6
CONTINUOUS
 62
    4
 10
1510.1978525795869
 20
824.8408499882737
 40
1.2083333333333179
 50
127.52351320610693
 51
52.47648680188081
  0
ARC
  8
_0-1_線色１__水色__
  6
CONTINUOUS
 62
    4
 10
1505.7819721464273
 20
826.75751665466919
 40
1.2083333333333581
 50
307.52351320333912
 51
232.47648680464988
  0
ARC
  8
_0-1_線色１__水色__
  6
CONTINUOUS
 62
    4
 10
1516.0856931569526
 20
824.84084998868525
 40
1.2083333333333179
 50
127.52351320610693
 51
52.47648680188081
  0
ARC
  8
_0-1_線色１__水色__
  6
CONTINUOUS
 62
    4
 10
1517.5576533011383
 20
826.7575166555082
 40
1.2083333333333581
 50
100.73060480615113
 51
232.47648680464988
  0
LINE
  8
_0-d_断熱__ハッチ
  6
CONTINUOUS
 62
    4
 10
1494.0532906608507
 20
788.29918331331442
 11
1517.3326719584077
 21
811.57856461087135
  0
LINE
  8
_0-d_断熱__ハッチ
  6
CONTINUOUS
 62
    4
 10
1493.1994436544835
 20
823.29918331331214
 11
1517.3326719584077
 21
799.16595500938797
  0
LINE
  8
_0-5_金属
  6
CONTINUOUS
 62
    7
 10
796.30914526836364
 20
522.99978354683731
 11
796.30914526836364
 21
980.37360483996849
  0
LINE
  8
_0-5_金属
  6
CONTINUOUS
 62
    7
 10
776.30914526836136
 20
738.29893231330857
 11
776.30914526836136
 21
522.99978354683731
  0
LINE
  8
_0-5_金属
  6
CONTINUOUS
 62
    7
 10
716.30914526836136
 20
738.29893231330857
 11
716.30914526836136
 21
522.99978354683731
  0
LINE
  8
_0-5_金属
  6
CONTINUOUS
 62
    7
 10
696.30914526836136
 20
522.99978354683731
 11
696.30914526836136
 21
980.37360483996849
  0
LINE
  8
_0-d_断熱__ハッチ
  6
CONTINUOUS
 62
    4
 10
687.55914526836136
 20
980.37360483996849
 11
687.55914526836136
 21
522.99978354683731
  0
LINE
  8
_0-d_断熱__ハッチ
  6
CONTINUOUS
 62
    4
 10
678.80914526836136
 20
980.37360483996849
 11
678.80914526836136
 21
522.99978354683731
  0
LINE
  8
_0-d_断熱__ハッチ
  6
CONTINUOUS
 62
    4
 10
670.05914526836136
 20
980.37360483996849
 11
670.05914526836136
 21
522.99978354683731
  0
LINE
  8
_0-3_線色３__緑__
  6
CONTINUOUS
 62
    3
 10
661.30914526836136
 20
522.99978354683731
 11
661.30914526836136
 21
980.37360483996849
  0
LINE
  8
_0-5_金属
  6
CONTINUOUS
 62
    7
 10
1303.0677971319744
 20
597.29891331157773
 11
1303.0677971319744
 21
522.99978354683731
  0
LINE
  8
_0-5_金属
  6
DASHED1
 62
    4
 10
1398.0677971319744
 20
784.29918331331351
 11
1358.0677971319744
 21
784.29918331331351
  0
LINE
  8
_0-5_金属
  6
CONTINUOUS
 62
    7
 10
1308.0677971319744
 20
788.29918331331442
 11
1308.0677971319744
 21
713.29918331331442
  0
LINE
  8
_0-5_金属
  6
CONTINUOUS
 62
    7
 10
1308.0677971319744
 20
788.29918331331442
 11
1517.3326719584077
 21
788.29918331331442
  0
LINE
  8
_0-5_金属
  6
DASHED1
 62
    4
 10
1308.0677971319744
 20
787.29918331331305
 11
1517.3326719584077
 21
787.29918331331305
  0
LINE
  8
_0-5_金属
  6
CONTINUOUS
 62
    7
 10
1308.0677971319744
 20
713.29918331331442
 11
1358.0677971319744
 21
713.29918331331442
  0
LINE
  8
_0-5_金属
  6
CONTINUOUS
 62
    7
 10
1398.0677971319744
 20
713.29918331331442
 11
1517.3326719584077
 21
713.29918331331442
  0
LINE
  8
_0-5_金属
  6
DASHED1
 62
    4
 10
1308.0677971319744
 20
714.29918331331351
 11
1358.0677971319744
 21
714.29918331331351
  0
LINE
  8
_0-5_金属
  6
DASHED1
 62
    4
 10
1398.0677971319744
 20
714.29918331331351
 11
1517.3326719584077
 21
714.29918331331351
  0
LINE
  8
_0-5_金属
  6
DASHED1
 62
    4
 10
1308.0677971319744
 20
715.2991833133126
 11
1358.0677971319744
 21
715.2991833133126
  0
LINE
  8
_0-5_金属
  6
DASHED1
 62
    4
 10
1398.0677971319744
 20
715.2991833133126
 11
1517.3326719584077
 21
715.2991833133126
  0
LINE
  8
_0-5_金属
  6
DASHED1
 62
    4
 10
1358.0677971319744
 20
700.29916331331265
 11
1398.0677971319744
 21
700.29916331331265
  0
LINE
  8
_0-5_金属
  6
CONTINUOUS
 62
    7
 10
1375.0677971319726
 20
680.29916331331265
 11
1375.0677971319726
 21
522.99978354683731
  0
LINE
  8
_0-5_金属
  6
CONTINUOUS
 62
    7
 10
1381.067797131974
 20
522.99978354683731
 11
1381.067797131974
 21
680.29916331331265
  0
LINE
  8
_0-5_金属
  6
CONTINUOUS
 62
    7
 10
1303.0677971319744
 20
597.29891331157773
 11
1055.8134712001686
 21
597.29891331157773
  0
LINE
  8
_0-5_金属
  6
CONTINUOUS
 62
    7
 10
1303.0677971319744
 20
588.2989133115791
 11
1055.8134712001686
 21
588.2989133115791
  0
LINE
  8
_0-5_金属
  6
CONTINUOUS
 62
    7
 10
1043.5634712001695
 20
588.2989133115791
 11
796.30914526836364
 21
588.2989133115791
  0
LINE
  8
_0-a_文字
  6
CONTINUOUS
 62
    7
 10
1290.1744968066771
 20
688.29918331331442
 11
1321.9289059506752
 21
633.29893331157905
  0
LINE
  8
_0-a_文字
  6
CONTINUOUS
 62
    7
 10
1321.9289059506752
 20
633.29893331157905
 11
1341.9289059506752
 21
633.29893331157905
  0
TEXT
  8
_0-a_文字
 62
    7
 10
1346.9289059506759
 20
605.79893331157893
 40
14.999999999999858
 41
1.0000000000000002
 50
0
  1
（別途工事）
  0
TEXT
  8
_0-a_文字
 62
    7
 10
1346.9289059506752
 20
625.79893331157916
 40
14.999999999999858
 41
1.0000000000000075
 50
0
  1
亜鉛めっき鋼板 t=1.2以上
  0
TEXT
  8
_0-a_文字
 62
    7
 10
953.60792138249826
 20
825.79893331157905
 40
14.999999999999858
 41
1.0000000000000153
 50
0
  1
プルーフシーラー
  0
LINE
  8
_0-a_文字
  6
CONTINUOUS
 62
    7
 10
928.60792138249849
 20
833.29893331157905
 11
948.60792138249849
 21
833.29893331157905
  0
LINE
  8
_0-a_文字
  6
CONTINUOUS
 62
    7
 10
874.89607155062345
 20
740.2672804342626
 11
928.60792138249849
 21
833.29893331157905
  0
TEXT
  8
_0-a_文字
 62
    7
 10
874.30914526836932
 20
950.79893331157905
 40
14.999999999999858
 41
1.0000000000000182
 50
0
  1
塩ビシート接着工法
  0
LINE
  8
_0-a_文字
  6
CONTINUOUS
 62
    7
 10
849.30914526836773
 20
958.29893331157905
 11
869.30914526836773
 21
958.29893331157905
  0
LINE
  8
_0-a_文字
  6
CONTINUOUS
 62
    7
 10
834.87538853862702
 20
933.29893331157905
 11
869.30914526836773
 21
933.29893331157905
  0
LINE
  8
_0-a_文字
  6
CONTINUOUS
 62
    7
 10
806.01908162744735
 20
883.31834362261475
 11
849.30914526836773
 21
958.29893331157905
  0
TEXT
  8
_0-a_文字
 62
    7
 10
874.30914526836773
 20
925.79893331157905
 40
14.99999999999968
 41
1.0000000000000215
 50
0
  1
硬質木片セメント板（別途工事）
  0
LINE
  8
_0-a_文字
  6
CONTINUOUS
 62
    7
 10
1217.8798764829696
 20
758.29893331157905
 11
1197.8798764829696
 21
758.29893331157905
  0
LINE
  8
_0-a_文字
  6
CONTINUOUS
 62
    7
 10
1233.2078628775128
 20
731.75008209850489
 11
1217.8798764829696
 21
758.29893331157905
  0
TEXT
  8
_0-a_文字
 62
    7
 10
1102.8798764829676
 20
750.79893331157905
 40
14.999999999999858
 41
1.0000000000000033
 50
0
  1
ＢＰ－Ｈ３Ｎ
  0
LINE
  8
_0-a_文字
  6
CONTINUOUS
 62
    7
 10
1300.3120694471193
 20
883.29893331157905
 11
1320.3120694471193
 21
883.29893331157905
  0
TEXT
  8
_0-a_文字
 62
    7
 10
1325.3120694471199
 20
875.79893331157677
 40
15.000000000000213
 41
0.9999999999999736
 50
0
  1
特注塩ビ鋼板
  0
LINE
  8
_0-a_文字
  6
CONTINUOUS
 62
    7
 10
1270.5504706614045
 20
831.75033210024026
 11
1300.3120694471193
 21
883.29893331157905
  0
LINE
  8
_0-a_文字
  6
CONTINUOUS
 62
    7
 10
957.62135399029034
 20
808.29893331157905
 11
977.62135399029034
 21
808.29893331157905
  0
LINE
  8
_0-a_文字
  6
CONTINUOUS
 62
    7
 10
928.75384053080893
 20
758.29893331157905
 11
977.62135399029034
 21
758.29893331157905
  0
LINE
  8
_0-a_文字
  6
CONTINUOUS
 62
    7
 10
943.18759726054964
 20
783.29893331157905
 11
977.62135399029034
 21
783.29893331157905
  0
TEXT
  8
_0-a_文字
 62
    7
 10
982.62135399029012
 20
750.79893331157893
 40
15.000000000000213
 41
0.9999999999999963
 50
0
  1
断熱材
  0
TEXT
  8
_0-a_文字
 62
    7
 10
982.62135399029057
 20
775.79893331157905
 40
14.999999999999858
 41
1.0000000000000115
 50
0
  1
ラジアルシートＬ６００
  0
TEXT
  8
_0-a_文字
 62
    7
 10
982.62135399029057
 20
800.79893331157677
 40
14.999999999999858
 41
1.000000000000006
 50
0
  1
塩ビシート機械的固定工法
  0
LINE
  8
_0-a_文字
  6
CONTINUOUS
 62
    7
 10
898.44295139835481
 20
705.79893331157905
 11
957.62135399029034
 21
808.29893331157905
  0
LINE
  8
_0-a_文字
  6
CONTINUOUS
 62
    7
 10
911.37215858187005
 20
858.29893331157905
 11
931.37215858187005
 21
858.29893331157905
  0
TEXT
  8
_0-a_文字
 62
    7
 10
936.37215858187051
 20
850.79893331157905
 40
14.999999999999858
 41
0.9999999999999995
 50
0
  1
ＢＰ－Ｈ１５
  0
LINE
  8
_0-a_文字
  6
CONTINUOUS
 62
    7
 10
838.30914526836409
 20
731.75008209850262
 11
911.37215858187005
 21
858.29893331157905
  0
LINE
  8
_0-2_線色２__白__
  6
CONTINUOUS
 62
    7
 10
1049.9502570064021
 20
677.63479029558539
 11
1043.5634712001695
 21
677.63479029558539
  0
LINE
  8
_0-2_線色２__白__
  6
CONTINUOUS
 62
    7
 10
1055.8134712001686
 20
655.51031526867519
 11
1049.4266853939359
 21
655.51031526867519
  0
LINE
  8
_0-2_線色２__白__
  6
CONTINUOUS
 62
    7
 10
1049.4266853939359
 20
655.51031526867519
 11
1062.2002570064012
 21
677.63479029558539
  0
LINE
  8
_0-2_線色２__白__
  6
CONTINUOUS
 62
    7
 10
1062.2002570064012
 20
677.63479029558539
 11
1055.8134712001709
 21
677.63479029558539
  0
LINE
  8
_0-2_線色２__白__
  6
CONTINUOUS
 62
    7
 10
1037.1766853939369
 20
655.51031526867519
 11
1049.9502570064021
 21
677.63479029558539
  0
LINE
  8
_0-2_線色２__白__
  6
CONTINUOUS
 62
    7
 10
1043.5634712001695
 20
655.51031526867519
 11
1037.1766853939369
 21
655.51031526867519
  0
LINE
  8
_0-2_線色２__白__
  6
CONTINUOUS
 62
    7
 10
1043.5634712001695
 20
677.63479029558539
 11
1043.5634712001695
 21
763.29893331157905
  0
LINE
  8
_0-2_線色２__白__
  6
CONTINUOUS
 62
    7
 10
1055.8134712001686
 20
677.63479029558539
 11
1055.8134712001686
 21
763.29893331157905
  0
LINE
  8
_0-2_線色２__白__
  6
CONTINUOUS
 62
    7
 10
1043.5634712001695
 20
569.84617225268153
 11
1043.5634712001695
 21
655.51031526867519
  0
LINE
  8
_0-2_線色２__白__
  6
CONTINUOUS
 62
    7
 10
1055.8134712001686
 20
569.84617225268153
 11
1055.8134712001686
 21
655.51031526867519
  0
LINE
  8
ADD_LINE
  6
DOT
 62
    4
 10
838.30914526836409
 20
648.63071743655269
 11
838.30914526836409
 21
738.24743717916931
  0
LINE
  8
_0-7_ビス
  6
CONTINUOUS
 62
    7
 10
844.30914526836318
 20
731.36546671388828
 11
844.30914526836318
 21
731.75008209850489
  0
LINE
  8
_0-7_ビス
  6
DASHED3
 62
    7
 10
839.77661338461871
 20
729.20071256767642
 11
840.85916110451421
 21
731.75008209850489
  0
LINE
  8
_0-7_ビス
  6
CONTINUOUS
 62
    7
 10
832.309145268365
 20
731.36546671388828
 11
832.309145268365
 21
731.75008209850489
  0
LINE
  8
_0-7_ビス
  6
DASHED3
 62
    7
 10
836.84167715210947
 20
729.20071256767642
 11
835.75912943221624
 21
731.75008209850489
  0
LINE
  8
_0-7_ビス
  6
CONTINUOUS
 62
    7
 10
844.30914526836318
 20
731.36546671388828
 11
832.309145268365
 21
731.36546671388828
  0
LINE
  8
_0-7_ビス
  6
CONTINUOUS
 62
    7
 10
844.30914526836318
 20
731.75008209850489
 11
832.309145268365
 21
731.75008209850489
  0
ARC
  8
_0-7_ビス
  6
DASHED3
 62
    7
 10
838.30914526836409
 20
730.31125566594369
 40
1.8403175392666382
 50
217.11750793457031
 51
322.88247680664062
  0
LINE
  8
_0-7_ビス
  6
CONTINUOUS
 62
    7
 10
842.39493170599076
 20
729.45125315151586
 11
844.30914526836318
 21
731.36546671388828
  0
ARC
  8
_0-7_ビス
  6
CONTINUOUS
 62
    7
 10
843.80914526836364
 20
728.03703958914298
 40
2
 50
135.00000000000153
 51
180.00000000000003
  0
LINE
  8
_0-7_ビス
  6
CONTINUOUS
 62
    7
 10
834.22335883073742
 20
729.45125315151586
 11
832.309145268365
 21
731.36546671388828
  0
ARC
  8
_0-7_ビス
  6
CONTINUOUS
 62
    7
 10
832.80914526836455
 20
728.03703958914298
 40
2
 50
0
 51
44.999999999998501
  0
LINE
  8
_0-7_ビス
  6
CONTINUOUS
 62
    7
 10
841.80914526836318
 20
727.75008209850398
 11
834.809145268365
 21
727.75008209850398
  0
LINE
  8
_0-7_ビス
  6
CONTINUOUS
 62
    7
 10
834.809145268365
 20
658.77080804066622
 11
838.30914526836409
 21
656.75008209850489
  0
LINE
  8
_0-7_ビス
  6
CONTINUOUS
 62
    7
 10
834.809145268365
 20
728.03703958914298
 11
834.809145268365
 21
658.77080804066622
  0
LINE
  8
_0-7_ビス
  6
CONTINUOUS
 62
    7
 10
841.80914526836318
 20
662.25008209850444
 11
834.809145268365
 21
662.25008209850444
  0
LINE
  8
_0-7_ビス
  6
CONTINUOUS
 62
    7
 10
841.80914526836318
 20
658.7708080406685
 11
838.30914526836409
 21
656.75008209850489
  0
LINE
  8
_0-7_ビス
  6
CONTINUOUS
 62
    7
 10
841.80914526836318
 20
728.03703958914298
 11
841.80914526836318
 21
658.7708080406685
  0
LINE
  8
_0-7_ビス
  6
CONTINUOUS
 62
    7
 10
841.80914526836318
 20
716.75008209850489
 11
834.809145268365
 21
716.75008209850489
  0
LINE
  8
_0-7_ビス
  6
CONTINUOUS
 62
    4
 10
834.809145268365
 20
715.55027873910944
 11
839.28672571030461
 21
716.75008209850489
  0
LINE
  8
_0-7_ビス
  6
CONTINUOUS
 62
    4
 10
834.809145268365
 20
703.24405820973311
 11
841.80914526836318
 21
705.11976398982256
  0
LINE
  8
_0-7_ビス
  6
CONTINUOUS
 62
    4
 10
834.809145268365
 20
705.24405820973357
 11
841.80914526836318
 21
707.11976398982074
  0
LINE
  8
_0-7_ビス
  6
CONTINUOUS
 62
    4
 10
834.809145268365
 20
707.24405820973402
 11
841.80914526836318
 21
709.11976398982119
  0
LINE
  8
_0-7_ビス
  6
CONTINUOUS
 62
    4
 10
834.809145268365
 20
709.2440582097322
 11
841.80914526836318
 21
711.11976398982165
  0
LINE
  8
_0-7_ビス
  6
CONTINUOUS
 62
    4
 10
834.809145268365
 20
711.24405820973266
 11
841.80914526836318
 21
713.1197639898221
  0
LINE
  8
_0-7_ビス
  6
CONTINUOUS
 62
    4
 10
834.809145268365
 20
713.24405820973311
 11
841.80914526836318
 21
715.11976398982256
  0
LINE
  8
_0-7_ビス
  6
CONTINUOUS
 62
    4
 10
834.809145268365
 20
690.93783768035678
 11
841.80914526836318
 21
692.81354346044395
  0
LINE
  8
_0-7_ビス
  6
CONTINUOUS
 62
    4
 10
834.809145268365
 20
692.93783768035723
 11
841.80914526836318
 21
694.81354346044441
  0
LINE
  8
_0-7_ビス
  6
CONTINUOUS
 62
    4
 10
834.809145268365
 20
694.93783768035541
 11
841.80914526836318
 21
696.81354346044486
  0
LINE
  8
_0-7_ビス
  6
CONTINUOUS
 62
    4
 10
834.809145268365
 20
696.93783768035587
 11
841.80914526836318
 21
698.81354346044532
  0
LINE
  8
_0-7_ビス
  6
CONTINUOUS
 62
    4
 10
834.809145268365
 20
698.93783768035632
 11
841.80914526836318
 21
700.81354346044463
  0
LINE
  8
_0-7_ビス
  6
CONTINUOUS
 62
    4
 10
834.809145268365
 20
700.93783768035678
 11
841.80914526836318
 21
702.81354346044509
  0
LINE
  8
_0-7_ビス
  6
CONTINUOUS
 62
    4
 10
834.809145268365
 20
678.63161715097817
 11
841.80914526836318
 21
680.50732293106762
  0
LINE
  8
_0-7_ビス
  6
CONTINUOUS
 62
    4
 10
834.809145268365
 20
680.63161715097863
 11
841.80914526836318
 21
682.50732293106807
  0
LINE
  8
_0-7_ビス
  6
CONTINUOUS
 62
    4
 10
834.809145268365
 20
682.63161715097908
 11
841.80914526836318
 21
684.50732293106853
  0
LINE
  8
_0-7_ビス
  6
CONTINUOUS
 62
    4
 10
834.809145268365
 20
684.63161715097954
 11
841.80914526836318
 21
686.50732293106898
  0
LINE
  8
_0-7_ビス
  6
CONTINUOUS
 62
    4
 10
834.809145268365
 20
686.63161715097999
 11
841.80914526836318
 21
688.50732293106716
  0
LINE
  8
_0-7_ビス
  6
CONTINUOUS
 62
    4
 10
834.809145268365
 20
688.63161715098045
 11
841.80914526836318
 21
690.50732293106762
  0
LINE
  8
_0-7_ビス
  6
CONTINUOUS
 62
    4
 10
834.809145268365
 20
666.32539662160184
 11
841.80914526836318
 21
668.20110240169129
  0
LINE
  8
_0-7_ビス
  6
CONTINUOUS
 62
    4
 10
834.809145268365
 20
668.32539662160229
 11
841.80914526836318
 21
670.20110240169174
  0
LINE
  8
_0-7_ビス
  6
CONTINUOUS
 62
    4
 10
834.809145268365
 20
670.32539662160275
 11
841.80914526836318
 21
672.20110240168992
  0
LINE
  8
_0-7_ビス
  6
CONTINUOUS
 62
    4
 10
834.809145268365
 20
672.3253966216032
 11
841.80914526836318
 21
674.20110240169038
  0
LINE
  8
_0-7_ビス
  6
CONTINUOUS
 62
    4
 10
834.809145268365
 20
674.32539662160139
 11
841.80914526836318
 21
676.20110240169083
  0
LINE
  8
_0-7_ビス
  6
CONTINUOUS
 62
    4
 10
834.809145268365
 20
676.32539662160184
 11
841.80914526836318
 21
678.20110240169129
  0
LINE
  8
_0-7_ビス
  6
CONTINUOUS
 62
    4
 10
834.809145268365
 20
664.01917609222551
 11
841.80914526836318
 21
665.89488187231495
  0
LINE
  8
_0-7_ビス
  6
CONTINUOUS
 62
    4
 10
835.67086999145545
 20
662.25008209850444
 11
841.80914526836318
 21
663.8948818723145
  0
LINE
  8
ADD_LINE
  6
DOT
 62
    4
 10
1229.3465654406384
 20
648.63071743655269
 11
1229.3465654406384
 21
738.24743717916931
  0
LINE
  8
_0-7_ビス
  6
CONTINUOUS
 62
    7
 10
1235.3465654406386
 20
731.36546671388828
 11
1235.3465654406386
 21
731.75008209850489
  0
LINE
  8
_0-7_ビス
  6
DASHED3
 62
    7
 10
1230.814033556893
 20
729.20071256767642
 11
1231.8965812767874
 21
731.75008209850489
  0
LINE
  8
_0-7_ビス
  6
CONTINUOUS
 62
    7
 10
1223.3465654406393
 20
731.36546671388828
 11
1223.3465654406393
 21
731.75008209850489
  0
LINE
  8
_0-7_ビス
  6
DASHED3
 62
    7
 10
1227.8790973243838
 20
729.20071256767642
 11
1226.7965496044906
 21
731.75008209850489
  0
LINE
  8
_0-7_ビス
  6
CONTINUOUS
 62
    7
 10
1235.3465654406386
 20
731.36546671388828
 11
1223.3465654406393
 21
731.36546671388828
  0
LINE
  8
_0-7_ビス
  6
CONTINUOUS
 62
    7
 10
1235.3465654406386
 20
731.75008209850489
 11
1223.3465654406393
 21
731.75008209850489
  0
ARC
  8
_0-7_ビス
  6
DASHED3
 62
    7
 10
1229.3465654406384
 20
730.31125566594369
 40
1.8403175392666382
 50
217.11750793457031
 51
322.88247680664062
  0
LINE
  8
_0-7_ビス
  6
CONTINUOUS
 62
    7
 10
1233.4323518782651
 20
729.45125315151586
 11
1235.3465654406386
 21
731.36546671388828
  0
ARC
  8
_0-7_ビス
  6
CONTINUOUS
 62
    7
 10
1234.846565440638
 20
728.03703958914298
 40
2
 50
135.00000000000153
 51
180.00000000000003
  0
LINE
  8
_0-7_ビス
  6
CONTINUOUS
 62
    7
 10
1225.2607790030117
 20
729.45125315151586
 11
1223.3465654406382
 21
731.36546671388828
  0
ARC
  8
_0-7_ビス
  6
CONTINUOUS
 62
    7
 10
1223.8465654406389
 20
728.03703958914298
 40
2
 50
0
 51
44.999999999998501
  0
LINE
  8
_0-7_ビス
  6
CONTINUOUS
 62
    7
 10
1232.8465654406386
 20
727.75008209850398
 11
1225.8465654406382
 21
727.75008209850398
  0
LINE
  8
_0-7_ビス
  6
CONTINUOUS
 62
    7
 10
1225.8465654406382
 20
658.77080804066622
 11
1229.3465654406384
 21
656.75008209850489
  0
LINE
  8
_0-7_ビス
  6
CONTINUOUS
 62
    7
 10
1225.8465654406382
 20
728.03703958914298
 11
1225.8465654406382
 21
658.77080804066622
  0
LINE
  8
_0-7_ビス
  6
CONTINUOUS
 62
    7
 10
1232.8465654406386
 20
662.25008209850444
 11
1225.8465654406382
 21
662.25008209850444
  0
LINE
  8
_0-7_ビス
  6
CONTINUOUS
 62
    7
 10
1232.8465654406386
 20
658.7708080406685
 11
1229.3465654406384
 21
656.75008209850489
  0
LINE
  8
_0-7_ビス
  6
CONTINUOUS
 62
    7
 10
1232.8465654406386
 20
728.03703958914298
 11
1232.8465654406386
 21
658.7708080406685
  0
LINE
  8
_0-7_ビス
  6
CONTINUOUS
 62
    7
 10
1232.8465654406386
 20
716.75008209850489
 11
1225.8465654406382
 21
716.75008209850489
  0
LINE
  8
_0-7_ビス
  6
CONTINUOUS
 62
    4
 10
1225.8465654406382
 20
715.55027873910944
 11
1230.3241458825789
 21
716.75008209850489
  0
LINE
  8
_0-7_ビス
  6
CONTINUOUS
 62
    4
 10
1225.8465654406382
 20
703.24405820973311
 11
1232.8465654406386
 21
705.11976398982256
  0
LINE
  8
_0-7_ビス
  6
CONTINUOUS
 62
    4
 10
1225.8465654406382
 20
705.24405820973357
 11
1232.8465654406386
 21
707.11976398982074
  0
LINE
  8
_0-7_ビス
  6
CONTINUOUS
 62
    4
 10
1225.8465654406382
 20
707.24405820973402
 11
1232.8465654406386
 21
709.11976398982119
  0
LINE
  8
_0-7_ビス
  6
CONTINUOUS
 62
    4
 10
1225.8465654406382
 20
709.2440582097322
 11
1232.8465654406386
 21
711.11976398982165
  0
LINE
  8
_0-7_ビス
  6
CONTINUOUS
 62
    4
 10
1225.8465654406382
 20
711.24405820973266
 11
1232.8465654406386
 21
713.1197639898221
  0
LINE
  8
_0-7_ビス
  6
CONTINUOUS
 62
    4
 10
1225.8465654406382
 20
713.24405820973311
 11
1232.8465654406386
 21
715.11976398982256
  0
LINE
  8
_0-7_ビス
  6
CONTINUOUS
 62
    4
 10
1225.8465654406382
 20
690.93783768035678
 11
1232.8465654406386
 21
692.81354346044395
  0
LINE
  8
_0-7_ビス
  6
CONTINUOUS
 62
    4
 10
1225.8465654406382
 20
692.93783768035723
 11
1232.8465654406386
 21
694.81354346044441
  0
LINE
  8
_0-7_ビス
  6
CONTINUOUS
 62
    4
 10
1225.8465654406382
 20
694.93783768035541
 11
1232.8465654406386
 21
696.81354346044486
  0
LINE
  8
_0-7_ビス
  6
CONTINUOUS
 62
    4
 10
1225.8465654406382
 20
696.93783768035587
 11
1232.8465654406386
 21
698.81354346044532
  0
LINE
  8
_0-7_ビス
  6
CONTINUOUS
 62
    4
 10
1225.8465654406382
 20
698.93783768035632
 11
1232.8465654406386
 21
700.81354346044463
  0
LINE
  8
_0-7_ビス
  6
CONTINUOUS
 62
    4
 10
1225.8465654406382
 20
700.93783768035678
 11
1232.8465654406386
 21
702.81354346044509
  0
LINE
  8
_0-7_ビス
  6
CONTINUOUS
 62
    4
 10
1225.8465654406382
 20
678.63161715097817
 11
1232.8465654406386
 21
680.50732293106762
  0
LINE
  8
_0-7_ビス
  6
CONTINUOUS
 62
    4
 10
1225.8465654406382
 20
680.63161715097863
 11
1232.8465654406386
 21
682.50732293106807
  0
LINE
  8
_0-7_ビス
  6
CONTINUOUS
 62
    4
 10
1225.8465654406382
 20
682.63161715097908
 11
1232.8465654406386
 21
684.50732293106853
  0
LINE
  8
_0-7_ビス
  6
CONTINUOUS
 62
    4
 10
1225.8465654406382
 20
684.63161715097954
 11
1232.8465654406386
 21
686.50732293106898
  0
LINE
  8
_0-7_ビス
  6
CONTINUOUS
 62
    4
 10
1225.8465654406382
 20
686.63161715097999
 11
1232.8465654406386
 21
688.50732293106716
  0
LINE
  8
_0-7_ビス
  6
CONTINUOUS
 62
    4
 10
1225.8465654406382
 20
688.63161715098045
 11
1232.8465654406386
 21
690.50732293106762
  0
LINE
  8
_0-7_ビス
  6
CONTINUOUS
 62
    4
 10
1225.8465654406382
 20
666.32539662160184
 11
1232.8465654406386
 21
668.20110240169129
  0
LINE
  8
_0-7_ビス
  6
CONTINUOUS
 62
    4
 10
1225.8465654406382
 20
668.32539662160229
 11
1232.8465654406386
 21
670.20110240169174
  0
LINE
  8
_0-7_ビス
  6
CONTINUOUS
 62
    4
 10
1225.8465654406382
 20
670.32539662160275
 11
1232.8465654406386
 21
672.20110240168992
  0
LINE
  8
_0-7_ビス
  6
CONTINUOUS
 62
    4
 10
1225.8465654406382
 20
672.3253966216032
 11
1232.8465654406386
 21
674.20110240169038
  0
LINE
  8
_0-7_ビス
  6
CONTINUOUS
 62
    4
 10
1225.8465654406382
 20
674.32539662160139
 11
1232.8465654406386
 21
676.20110240169083
  0
LINE
  8
_0-7_ビス
  6
CONTINUOUS
 62
    4
 10
1225.8465654406382
 20
676.32539662160184
 11
1232.8465654406386
 21
678.20110240169129
  0
LINE
  8
_0-7_ビス
  6
CONTINUOUS
 62
    4
 10
1225.8465654406382
 20
664.01917609222551
 11
1232.8465654406386
 21
665.89488187231495
  0
LINE
  8
_0-7_ビス
  6
CONTINUOUS
 62
    4
 10
1226.7082901637309
 20
662.25008209850444
 11
1232.8465654406386
 21
663.8948818723145
  0
LINE
  8
ADD_LINE
  6
DOT
 62
    4
 10
1320.334134676242
 20
748.63096743828805
 11
1320.334134676242
 21
838.24768718090468
  0
LINE
  8
_0-7_ビス
  6
CONTINUOUS
 62
    7
 10
1326.3341346762422
 20
831.36571671562365
 11
1326.3341346762422
 21
831.75033210024026
  0
LINE
  8
_0-7_ビス
  6
DASHED3
 62
    7
 10
1321.8016027924966
 20
829.20096256941179
 11
1322.884150512391
 21
831.75033210024026
  0
LINE
  8
_0-7_ビス
  6
CONTINUOUS
 62
    7
 10
1314.3341346762429
 20
831.36571671562365
 11
1314.3341346762429
 21
831.75033210024026
  0
LINE
  8
_0-7_ビス
  6
DASHED3
 62
    7
 10
1318.8666665599874
 20
829.20096256941179
 11
1317.7841188400942
 21
831.75033210024026
  0
LINE
  8
_0-7_ビス
  6
CONTINUOUS
 62
    7
 10
1326.3341346762422
 20
831.36571671562365
 11
1314.3341346762429
 21
831.36571671562365
  0
LINE
  8
_0-7_ビス
  6
CONTINUOUS
 62
    7
 10
1326.3341346762422
 20
831.75033210024026
 11
1314.3341346762429
 21
831.75033210024026
  0
ARC
  8
_0-7_ビス
  6
DASHED3
 62
    7
 10
1320.334134676242
 20
830.31150566767906
 40
1.8403175392666382
 50
217.11750793457031
 51
322.88247680664062
  0
LINE
  8
_0-7_ビス
  6
CONTINUOUS
 62
    7
 10
1324.4199211138687
 20
829.45150315325122
 11
1326.3341346762422
 21
831.36571671562365
  0
ARC
  8
_0-7_ビス
  6
CONTINUOUS
 62
    7
 10
1325.8341346762415
 20
828.03728959087834
 40
2
 50
135.00000000000153
 51
180.00000000000003
  0
LINE
  8
_0-7_ビス
  6
CONTINUOUS
 62
    7
 10
1316.2483482386153
 20
829.45150315325122
 11
1314.3341346762418
 21
831.36571671562365
  0
ARC
  8
_0-7_ビス
  6
CONTINUOUS
 62
    7
 10
1314.8341346762425
 20
828.03728959087834
 40
2
 50
0
 51
44.999999999998501
  0
LINE
  8
_0-7_ビス
  6
CONTINUOUS
 62
    7
 10
1323.8341346762422
 20
827.75033210023935
 11
1316.8341346762418
 21
827.75033210023935
  0
LINE
  8
_0-7_ビス
  6
CONTINUOUS
 62
    7
 10
1316.8341346762418
 20
758.77105804240159
 11
1320.334134676242
 21
756.75033210024026
  0
LINE
  8
_0-7_ビス
  6
CONTINUOUS
 62
    7
 10
1316.8341346762418
 20
828.03728959087834
 11
1316.8341346762418
 21
758.77105804240159
  0
LINE
  8
_0-7_ビス
  6
CONTINUOUS
 62
    7
 10
1323.8341346762422
 20
762.2503321002398
 11
1316.8341346762418
 21
762.2503321002398
  0
LINE
  8
_0-7_ビス
  6
CONTINUOUS
 62
    7
 10
1323.8341346762422
 20
758.77105804240387
 11
1320.334134676242
 21
756.75033210024026
  0
LINE
  8
_0-7_ビス
  6
CONTINUOUS
 62
    7
 10
1323.8341346762422
 20
828.03728959087834
 11
1323.8341346762422
 21
758.77105804240387
  0
LINE
  8
_0-7_ビス
  6
CONTINUOUS
 62
    7
 10
1323.8341346762422
 20
816.75033210024026
 11
1316.8341346762418
 21
816.75033210024026
  0
LINE
  8
_0-7_ビス
  6
CONTINUOUS
 62
    4
 10
1316.8341346762418
 20
815.55052874084481
 11
1321.3117151181825
 21
816.75033210024026
  0
LINE
  8
_0-7_ビス
  6
CONTINUOUS
 62
    4
 10
1316.8341346762418
 20
803.24430821146848
 11
1323.8341346762422
 21
805.12001399155793
  0
LINE
  8
_0-7_ビス
  6
CONTINUOUS
 62
    4
 10
1316.8341346762418
 20
805.24430821146893
 11
1323.8341346762422
 21
807.12001399155611
  0
LINE
  8
_0-7_ビス
  6
CONTINUOUS
 62
    4
 10
1316.8341346762418
 20
807.24430821146939
 11
1323.8341346762422
 21
809.12001399155656
  0
LINE
  8
_0-7_ビス
  6
CONTINUOUS
 62
    4
 10
1316.8341346762418
 20
809.24430821146757
 11
1323.8341346762422
 21
811.12001399155702
  0
LINE
  8
_0-7_ビス
  6
CONTINUOUS
 62
    4
 10
1316.8341346762418
 20
811.24430821146802
 11
1323.8341346762422
 21
813.12001399155747
  0
LINE
  8
_0-7_ビス
  6
CONTINUOUS
 62
    4
 10
1316.8341346762418
 20
813.24430821146848
 11
1323.8341346762422
 21
815.12001399155793
  0
LINE
  8
_0-7_ビス
  6
CONTINUOUS
 62
    4
 10
1316.8341346762418
 20
790.93808768209215
 11
1323.8341346762422
 21
792.81379346217932
  0
LINE
  8
_0-7_ビス
  6
CONTINUOUS
 62
    4
 10
1316.8341346762418
 20
792.9380876820926
 11
1323.8341346762422
 21
794.81379346217977
  0
LINE
  8
_0-7_ビス
  6
CONTINUOUS
 62
    4
 10
1316.8341346762418
 20
794.93808768209078
 11
1323.8341346762422
 21
796.81379346218023
  0
LINE
  8
_0-7_ビス
  6
CONTINUOUS
 62
    4
 10
1316.8341346762418
 20
796.93808768209124
 11
1323.8341346762422
 21
798.81379346218068
  0
LINE
  8
_0-7_ビス
  6
CONTINUOUS
 62
    4
 10
1316.8341346762418
 20
798.93808768209169
 11
1323.8341346762422
 21
800.81379346218
  0
LINE
  8
_0-7_ビス
  6
CONTINUOUS
 62
    4
 10
1316.8341346762418
 20
800.93808768209215
 11
1323.8341346762422
 21
802.81379346218046
  0
LINE
  8
_0-7_ビス
  6
CONTINUOUS
 62
    4
 10
1316.8341346762418
 20
778.63186715271354
 11
1323.8341346762422
 21
780.50757293280299
  0
LINE
  8
_0-7_ビス
  6
CONTINUOUS
 62
    4
 10
1316.8341346762418
 20
780.63186715271399
 11
1323.8341346762422
 21
782.50757293280344
  0
LINE
  8
_0-7_ビス
  6
CONTINUOUS
 62
    4
 10
1316.8341346762418
 20
782.63186715271445
 11
1323.8341346762422
 21
784.5075729328039
  0
LINE
  8
_0-7_ビス
  6
CONTINUOUS
 62
    4
 10
1316.8341346762418
 20
784.6318671527149
 11
1323.8341346762422
 21
786.50757293280435
  0
LINE
  8
_0-7_ビス
  6
CONTINUOUS
 62
    4
 10
1316.8341346762418
 20
786.63186715271536
 11
1323.8341346762422
 21
788.50757293280253
  0
LINE
  8
_0-7_ビス
  6
CONTINUOUS
 62
    4
 10
1316.8341346762418
 20
788.63186715271581
 11
1323.8341346762422
 21
790.50757293280299
  0
LINE
  8
_0-7_ビス
  6
CONTINUOUS
 62
    4
 10
1316.8341346762418
 20
766.32564662333721
 11
1323.8341346762422
 21
768.20135240342665
  0
LINE
  8
_0-7_ビス
  6
CONTINUOUS
 62
    4
 10
1316.8341346762418
 20
768.32564662333766
 11
1323.8341346762422
 21
770.20135240342711
  0
LINE
  8
_0-7_ビス
  6
CONTINUOUS
 62
    4
 10
1316.8341346762418
 20
770.32564662333812
 11
1323.8341346762422
 21
772.20135240342529
  0
LINE
  8
_0-7_ビス
  6
CONTINUOUS
 62
    4
 10
1316.8341346762418
 20
772.32564662333857
 11
1323.8341346762422
 21
774.20135240342574
  0
LINE
  8
_0-7_ビス
  6
CONTINUOUS
 62
    4
 10
1316.8341346762418
 20
774.32564662333675
 11
1323.8341346762422
 21
776.2013524034262
  0
LINE
  8
_0-7_ビス
  6
CONTINUOUS
 62
    4
 10
1316.8341346762418
 20
776.32564662333721
 11
1323.8341346762422
 21
778.20135240342665
  0
LINE
  8
_0-7_ビス
  6
CONTINUOUS
 62
    4
 10
1316.8341346762418
 20
764.01942609396087
 11
1323.8341346762422
 21
765.89513187405032
  0
LINE
  8
_0-7_ビス
  6
CONTINUOUS
 62
    4
 10
1317.6958593993345
 20
762.2503321002398
 11
1323.8341346762422
 21
763.89513187404987
  0
LINE
  8
_0-5_金属
  6
DASHED1
 62
    4
 10
1358.0677971319744
 20
713.29918331331442
 11
1398.0677971319744
 21
713.29918331331442
  0
LINE
  8
_0-5_金属
  6
CONTINUOUS
 62
    7
 10
806.30914526836364
 20
600.29893331157723
 11
846.30908608307323
 21
600.29893331157723
  0
ARC
  8
_0-5_金属
  6
CONTINUOUS
 62
    7
 10
864.6461660830721
 20
684.53533331157928
 40
2.9999997999999999
 50
90
 51
167.90458000000001
  0
ARC
  8
_0-5_金属
  6
CONTINUOUS
 62
    7
 10
846.30908608307323
 20
600.29900331157819
 40
2.9999997999999999
 50
270
 51
347.90458000000001
  0
LINE
  8
_0-5_金属
  6
CONTINUOUS
 62
    7
 10
846.30908608307323
 20
600.29893331157723
 11
861.71276630947091
 21
685.16395447589616
  0
LINE
  8
_0-5_金属
  6
CONTINUOUS
 62
    7
 10
864.63451608307309
 20
684.49894331157907
 11
849.24248585667669
 21
599.67038214726131
  0
ARC
  8
_0-5_金属
  6
CONTINUOUS
 62
    7
 10
987.94597618307193
 20
684.49036331157799
 40
2.9999997999999999
 50
12.095412999999999
 51
90.000000000000028
  0
LINE
  8
_0-5_金属
  6
CONTINUOUS
 62
    7
 10
987.98366618307341
 20
684.49894331157907
 11
864.63451608307309
 21
684.49894331157907
  0
ARC
  8
_0-5_金属
  6
CONTINUOUS
 62
    7
 10
1006.3091561830731
 20
600.29900331157819
 40
2.9999997999999999
 50
192.09540999999999
 51
270
  0
LINE
  8
_0-5_金属
  6
CONTINUOUS
 62
    7
 10
1003.375756299755
 20
599.67038265923406
 11
987.98366618307341
 21
684.49894331157907
  0
LINE
  8
_0-5_金属
  6
CONTINUOUS
 62
    7
 10
990.87937603347541
 20
685.11898411751304
 11
1006.3091616768099
 21
600.29884311157844
  0
LINE
  8
_0-5_金属
  6
CONTINUOUS
 62
    7
 10
806.30914526836364
 20
600.29893331157723
 11
806.30914526836364
 21
597.29891331157773
  0
LINE
  8
_0-5_金属
  6
CONTINUOUS
 62
    7
 10
1043.5634712001695
 20
597.29891331157773
 11
796.30914526836364
 21
597.29891331157773
  0
LINE
  8
_0-5_金属
  6
CONTINUOUS
 62
    7
 10
1006.3091616768099
 20
600.29884311157844
 11
1043.5634712001695
 21
600.29884311157844
  0
LINE
  8
_0-5_金属
  6
CONTINUOUS
 62
    7
 10
1006.3091561830731
 20
597.29897331157758
 11
1043.5634712001695
 21
597.29897331157758
  0
LINE
  8
_0-5_金属
  6
CONTINUOUS
 62
    7
 10
1293.0677971319744
 20
600.29893331157723
 11
1253.0678563172648
 21
600.29893331157723
  0
ARC
  8
_0-5_金属
  6
CONTINUOUS
 62
    7
 10
1234.7307763172637
 20
684.53533331157928
 40
2.9999997999999999
 50
12.095419999999992
 51
90
  0
ARC
  8
_0-5_金属
  6
CONTINUOUS
 62
    7
 10
1253.0678563172648
 20
600.29900331157819
 40
2.9999997999999999
 50
192.09541999999999
 51
270
  0
LINE
  8
_0-5_金属
  6
CONTINUOUS
 62
    7
 10
1253.0678563172648
 20
600.29893331157723
 11
1237.6641760908672
 21
685.16395447589616
  0
LINE
  8
_0-5_金属
  6
CONTINUOUS
 62
    7
 10
1234.742426317265
 20
684.49894331157907
 11
1250.1344565436614
 21
599.67038214726131
  0
ARC
  8
_0-5_金属
  6
CONTINUOUS
 62
    7
 10
1111.4309662172639
 20
684.49036331157799
 40
2.9999997999999999
 50
89.999999999999972
 51
167.90458699999999
  0
LINE
  8
_0-5_金属
  6
CONTINUOUS
 62
    7
 10
1111.3932762172647
 20
684.49894331157907
 11
1234.742426317265
 21
684.49894331157907
  0
ARC
  8
_0-5_金属
  6
CONTINUOUS
 62
    7
 10
1093.0677862172649
 20
600.29900331157819
 40
2.9999997999999999
 50
270
 51
347.90459000000004
  0
LINE
  8
_0-5_金属
  6
CONTINUOUS
 62
    7
 10
1096.001186100583
 20
599.67038265923406
 11
1111.3932762172647
 21
684.49894331157907
  0
LINE
  8
_0-5_金属
  6
CONTINUOUS
 62
    7
 10
1108.4975663668627
 20
685.11898411751304
 11
1093.0677807235281
 21
600.29884311157844
  0
LINE
  8
_0-5_金属
  6
CONTINUOUS
 62
    7
 10
1293.0677971319744
 20
600.29893331157723
 11
1293.0677971319744
 21
597.29891331157773
  0
LINE
  8
_0-5_金属
  6
CONTINUOUS
 62
    7
 10
1093.0677807235281
 20
600.29884311157844
 11
1055.8134712001686
 21
600.29884311157844
  0
LINE
  8
_0-5_金属
  6
CONTINUOUS
 62
    7
 10
1093.0677862172649
 20
597.29897331157758
 11
1055.8134712001686
 21
597.29897331157758
  0
ARC
  8
_0-5_金属
  6
CONTINUOUS
 62
    7
 10
812.35910608307336
 20
614.34888331157822
 40
1.0499997999999999
 50
90
 51
270
  0
ARC
  8
_0-5_金属
  6
CONTINUOUS
 62
    7
 10
812.35910608307336
 20
614.34888331157822
 40
0.2499999
 50
90
 51
270
  0
ARC
  8
_0-5_金属
  6
CONTINUOUS
 62
    7
 10
840.25918608307279
 20
614.34888331157822
 40
1.0499997999999999
 50
270
 51
90
  0
ARC
  8
_0-5_金属
  6
CONTINUOUS
 62
    7
 10
840.25918608307279
 20
614.34888331157822
 40
0.2499999
 50
270
 51
90
  0
ARC
  8
_0-5_金属
  6
CONTINUOUS
 62
    7
 10
824.70919608307327
 20
616.19893331157868
 40
0.7999998999999997
 50
270
 51
0
  0
ARC
  8
_0-5_金属
  6
CONTINUOUS
 62
    7
 10
824.70919608307327
 20
616.19893331157868
 40
1.5999999
 50
270
 51
0
  0
ARC
  8
_0-5_金属
  6
CONTINUOUS
 62
    7
 10
827.90909608307288
 20
616.19893331157868
 40
0.7999998999999997
 50
180
 51
270
  0
ARC
  8
_0-5_金属
  6
CONTINUOUS
 62
    7
 10
827.90909608307288
 20
616.19893331157868
 40
1.5999999
 50
180
 51
270
  0
ARC
  8
_0-5_金属
  6
CONTINUOUS
 62
    7
 10
824.70919608307327
 20
685.89895331157891
 40
0.7999998999999997
 50
0
 51
90
  0
ARC
  8
_0-5_金属
  6
CONTINUOUS
 62
    7
 10
824.70919608307327
 20
685.89895331157891
 40
1.5999999
 50
0
 51
90
  0
ARC
  8
_0-5_金属
  6
CONTINUOUS
 62
    7
 10
827.90909608307288
 20
686.69893331157823
 40
0.7999998999999997
 50
90
 51
180
  0
ARC
  8
_0-5_金属
  6
CONTINUOUS
 62
    7
 10
827.90909608307288
 20
686.69893331157823
 40
1.5999999
 50
90
 51
180
  0
LINE
  8
_0-5_金属
  6
CONTINUOUS
 62
    7
 10
826.30914608307307
 20
683.44781331157833
 11
826.30914608307307
 21
673.00697331157721
  0
LINE
  8
_0-5_金属
  6
CONTINUOUS
 62
    7
 10
824.74408608307272
 20
674.57196331157888
 11
826.30914608307307
 21
673.00697331157721
  0
LINE
  8
_0-5_金属
  6
CONTINUOUS
 62
    7
 10
826.30914608307307
 20
683.44781331157833
 11
824.74408608307272
 21
674.57196331157888
  0
LINE
  8
_0-5_金属
  6
CONTINUOUS
 62
    7
 10
826.30914608307307
 20
673.00697331157721
 11
826.30914608307307
 21
616.19893331157868
  0
LINE
  8
_0-5_金属
  6
CONTINUOUS
 62
    7
 10
823.88392608307299
 20
674.30077331157804
 11
825.50917608307259
 21
672.67552331157844
  0
LINE
  8
_0-5_金属
  6
CONTINUOUS
 62
    7
 10
825.50917608307259
 20
672.67552331157844
 11
825.50917608307259
 21
616.19893331157868
  0
LINE
  8
_0-5_金属
  6
CONTINUOUS
 62
    7
 10
825.50917608307259
 20
683.51796331157743
 11
823.88392608307299
 21
674.30077331157804
  0
LINE
  8
_0-5_金属
  6
CONTINUOUS
 62
    7
 10
826.30914608307307
 20
686.69893331157823
 11
826.30914608307307
 21
683.44781331157833
  0
LINE
  8
_0-5_金属
  6
CONTINUOUS
 62
    7
 10
825.50917608307259
 20
685.89895331157891
 11
825.50917608307259
 21
683.51796331157743
  0
LINE
  8
_0-5_金属
  6
CONTINUOUS
 62
    7
 10
811.30915608307419
 20
686.69899331157808
 11
824.70919608307327
 21
686.69899331157808
  0
LINE
  8
_0-5_金属
  6
CONTINUOUS
 62
    7
 10
827.10911608307356
 20
686.69893331157823
 11
827.10911608307356
 21
616.19893331157868
  0
LINE
  8
_0-5_金属
  6
CONTINUOUS
 62
    7
 10
812.35910608307336
 20
614.59892331157903
 11
824.70919608307327
 21
614.59892331157903
  0
LINE
  8
_0-5_金属
  6
CONTINUOUS
 62
    7
 10
812.35910608307336
 20
614.09885331157852
 11
840.25918608307279
 21
614.09885331157852
  0
LINE
  8
_0-5_金属
  6
CONTINUOUS
 62
    7
 10
812.35910608307336
 20
615.39883331157739
 11
824.70919608307327
 21
615.39883331157739
  0
LINE
  8
_0-5_金属
  6
CONTINUOUS
 62
    7
 10
827.90909608307288
 20
615.39883331157739
 11
840.25918608307279
 21
615.39883331157739
  0
LINE
  8
_0-5_金属
  6
CONTINUOUS
 62
    7
 10
827.90909608307288
 20
614.59892331157903
 11
840.25918608307279
 21
614.59892331157903
  0
LINE
  8
_0-5_金属
  6
CONTINUOUS
 62
    7
 10
812.35910608307336
 20
613.2988835115782
 11
840.25918608307279
 21
613.2988835115782
  0
LINE
  8
_0-5_金属
  6
CONTINUOUS
 62
    7
 10
1024.7091461830735
 20
688.29893331157905
 11
827.7597260830737
 21
688.29893331157905
  0
ARC
  8
_0-5_金属
  6
CONTINUOUS
 62
    7
 10
1040.259136183073
 20
614.34888331157822
 40
1.0499997999999999
 50
270
 51
90
  0
ARC
  8
_0-5_金属
  6
CONTINUOUS
 62
    7
 10
1040.259136183073
 20
614.34888331157822
 40
0.2499999
 50
270
 51
90
  0
ARC
  8
_0-5_金属
  6
CONTINUOUS
 62
    7
 10
1012.3590561830736
 20
614.34888331157822
 40
1.0499997999999999
 50
90
 51
270
  0
ARC
  8
_0-5_金属
  6
CONTINUOUS
 62
    7
 10
1012.3590561830736
 20
614.34888331157822
 40
0.2499999
 50
90
 51
270
  0
ARC
  8
_0-5_金属
  6
CONTINUOUS
 62
    7
 10
1027.9090461830731
 20
616.19893331157868
 40
0.7999998999999997
 50
180
 51
270
  0
ARC
  8
_0-5_金属
  6
CONTINUOUS
 62
    7
 10
1027.9090461830731
 20
616.19893331157868
 40
1.5999999
 50
180
 51
270
  0
ARC
  8
_0-5_金属
  6
CONTINUOUS
 62
    7
 10
1024.7091461830735
 20
616.19893331157868
 40
0.7999998999999997
 50
270
 51
0
  0
ARC
  8
_0-5_金属
  6
CONTINUOUS
 62
    7
 10
1024.7091461830735
 20
616.19893331157868
 40
1.5999999
 50
270
 51
0
  0
ARC
  8
_0-5_金属
  6
CONTINUOUS
 62
    7
 10
1027.9090461830731
 20
686.69893331157823
 40
0.7999998999999997
 50
90
 51
180
  0
ARC
  8
_0-5_金属
  6
CONTINUOUS
 62
    7
 10
1027.9090461830731
 20
686.69893331157823
 40
1.5999999
 50
90
 51
180
  0
ARC
  8
_0-5_金属
  6
CONTINUOUS
 62
    7
 10
1024.7091461830735
 20
686.69893331157823
 40
0.7999998999999997
 50
0
 51
90
  0
ARC
  8
_0-5_金属
  6
CONTINUOUS
 62
    7
 10
1024.7091461830735
 20
686.69893331157823
 40
1.5999999
 50
0
 51
90
  0
LINE
  8
_0-5_金属
  6
CONTINUOUS
 62
    7
 10
1027.1090661830738
 20
686.69893331157823
 11
1027.1090661830738
 21
616.19893331157868
  0
LINE
  8
_0-5_金属
  6
CONTINUOUS
 62
    7
 10
1025.5091261830728
 20
686.69893331157823
 11
1025.5091261830728
 21
616.19893331157868
  0
LINE
  8
_0-5_金属
  6
CONTINUOUS
 62
    7
 10
1026.3090961830733
 20
686.69893331157823
 11
1026.3090961830733
 21
616.19893331157868
  0
LINE
  8
_0-5_金属
  6
CONTINUOUS
 62
    7
 10
1040.259136183073
 20
614.59892331157903
 11
1027.9090461830731
 21
614.59892331157903
  0
LINE
  8
_0-5_金属
  6
CONTINUOUS
 62
    7
 10
1040.259136183073
 20
614.09885331157852
 11
1012.3590561830736
 21
614.09885331157852
  0
LINE
  8
_0-5_金属
  6
CONTINUOUS
 62
    7
 10
1040.259136183073
 20
615.39883331157739
 11
1027.9090461830731
 21
615.39883331157739
  0
LINE
  8
_0-5_金属
  6
CONTINUOUS
 62
    7
 10
1024.7091461830735
 20
615.39883331157739
 11
1012.3590561830736
 21
615.39883331157739
  0
LINE
  8
_0-5_金属
  6
CONTINUOUS
 62
    7
 10
1024.7091461830735
 20
614.59892331157903
 11
1012.3590561830736
 21
614.59892331157903
  0
LINE
  8
_0-5_金属
  6
CONTINUOUS
 62
    7
 10
1012.3590561830736
 20
613.2988835115782
 11
1040.259136183073
 21
613.2988835115782
  0
LINE
  8
_0-5_金属
  6
CONTINUOUS
 62
    7
 10
1024.7091461830735
 20
687.49896331157856
 11
827.90909608307288
 21
687.49896331157856
  0
LINE
  8
_0-5_金属
  6
CONTINUOUS
 62
    7
 10
811.30915608307419
 20
687.49896331157856
 11
811.30915608307419
 21
686.69899331157808
  0
LINE
  8
_0-5_金属
  6
CONTINUOUS
 62
    7
 10
811.30915608307419
 20
687.49896331157856
 11
824.70919608307327
 21
687.49896331157856
  0
LINE
  8
_0-5_金属
  6
CONTINUOUS
 62
    7
 10
1043.5634712001695
 20
687.49896331157856
 11
1027.7692461830736
 21
687.49896331157856
  0
LINE
  8
_0-5_金属
  6
CONTINUOUS
 62
    7
 10
1027.9090461830731
 20
688.29893331157905
 11
1043.5634712001695
 21
688.29893331157905
  0
ARC
  8
_0-5_金属
  6
CONTINUOUS
 62
    7
 10
1287.0178363172647
 20
614.34888331157822
 40
1.0499997999999999
 50
270
 51
90
  0
ARC
  8
_0-5_金属
  6
CONTINUOUS
 62
    7
 10
1287.0178363172647
 20
614.34888331157822
 40
0.2499999
 50
270
 51
90
  0
ARC
  8
_0-5_金属
  6
CONTINUOUS
 62
    7
 10
1259.1177563172653
 20
614.34888331157822
 40
1.0499997999999999
 50
90
 51
270
  0
ARC
  8
_0-5_金属
  6
CONTINUOUS
 62
    7
 10
1259.1177563172653
 20
614.34888331157822
 40
0.2499999
 50
90
 51
270
  0
ARC
  8
_0-5_金属
  6
CONTINUOUS
 62
    7
 10
1274.6677463172648
 20
616.19893331157868
 40
0.7999998999999997
 50
180
 51
270
  0
ARC
  8
_0-5_金属
  6
CONTINUOUS
 62
    7
 10
1274.6677463172648
 20
616.19893331157868
 40
1.5999999
 50
180
 51
270
  0
ARC
  8
_0-5_金属
  6
CONTINUOUS
 62
    7
 10
1271.4678463172652
 20
616.19893331157868
 40
0.7999998999999997
 50
270
 51
0
  0
ARC
  8
_0-5_金属
  6
CONTINUOUS
 62
    7
 10
1271.4678463172652
 20
616.19893331157868
 40
1.5999999
 50
270
 51
0
  0
ARC
  8
_0-5_金属
  6
CONTINUOUS
 62
    7
 10
1274.6677463172648
 20
685.89895331157891
 40
0.7999998999999997
 50
90
 51
180
  0
ARC
  8
_0-5_金属
  6
CONTINUOUS
 62
    7
 10
1274.6677463172648
 20
685.89895331157891
 40
1.5999999
 50
90
 51
180
  0
ARC
  8
_0-5_金属
  6
CONTINUOUS
 62
    7
 10
1271.4678463172652
 20
686.69893331157823
 40
0.7999998999999997
 50
0
 51
90
  0
ARC
  8
_0-5_金属
  6
CONTINUOUS
 62
    7
 10
1271.4678463172652
 20
686.69893331157823
 40
1.5999999
 50
0
 51
90
  0
LINE
  8
_0-5_金属
  6
CONTINUOUS
 62
    7
 10
1273.067796317265
 20
683.44781331157833
 11
1273.067796317265
 21
673.00697331157721
  0
LINE
  8
_0-5_金属
  6
CONTINUOUS
 62
    7
 10
1274.6328563172654
 20
674.57196331157888
 11
1273.067796317265
 21
673.00697331157721
  0
LINE
  8
_0-5_金属
  6
CONTINUOUS
 62
    7
 10
1273.067796317265
 20
683.44781331157833
 11
1274.6328563172654
 21
674.57196331157888
  0
LINE
  8
_0-5_金属
  6
CONTINUOUS
 62
    7
 10
1273.067796317265
 20
673.00697331157721
 11
1273.067796317265
 21
616.19893331157868
  0
LINE
  8
_0-5_金属
  6
CONTINUOUS
 62
    7
 10
1275.4930163172651
 20
674.30077331157804
 11
1273.8677663172655
 21
672.67552331157844
  0
LINE
  8
_0-5_金属
  6
CONTINUOUS
 62
    7
 10
1273.8677663172655
 20
672.67552331157844
 11
1273.8677663172655
 21
616.19893331157868
  0
LINE
  8
_0-5_金属
  6
CONTINUOUS
 62
    7
 10
1273.8677663172655
 20
683.51796331157743
 11
1275.4930163172651
 21
674.30077331157804
  0
LINE
  8
_0-5_金属
  6
CONTINUOUS
 62
    7
 10
1273.067796317265
 20
686.69893331157823
 11
1273.067796317265
 21
683.44781331157833
  0
LINE
  8
_0-5_金属
  6
CONTINUOUS
 62
    7
 10
1273.8677663172655
 20
685.89895331157891
 11
1273.8677663172655
 21
683.51796331157743
  0
LINE
  8
_0-5_金属
  6
CONTINUOUS
 62
    7
 10
1288.0677863172639
 20
686.69899331157808
 11
1274.6677463172648
 21
686.69899331157808
  0
LINE
  8
_0-5_金属
  6
CONTINUOUS
 62
    7
 10
1272.2678263172645
 20
686.69893331157823
 11
1272.2678263172645
 21
616.19893331157868
  0
LINE
  8
_0-5_金属
  6
CONTINUOUS
 62
    7
 10
1287.0178363172647
 20
614.59892331157903
 11
1274.6677463172648
 21
614.59892331157903
  0
LINE
  8
_0-5_金属
  6
CONTINUOUS
 62
    7
 10
1287.0178363172647
 20
614.09885331157852
 11
1259.1177563172653
 21
614.09885331157852
  0
LINE
  8
_0-5_金属
  6
CONTINUOUS
 62
    7
 10
1287.0178363172647
 20
615.39883331157739
 11
1274.6677463172648
 21
615.39883331157739
  0
LINE
  8
_0-5_金属
  6
CONTINUOUS
 62
    7
 10
1271.4678463172652
 20
615.39883331157739
 11
1259.1177563172653
 21
615.39883331157739
  0
LINE
  8
_0-5_金属
  6
CONTINUOUS
 62
    7
 10
1271.4678463172652
 20
614.59892331157903
 11
1259.1177563172653
 21
614.59892331157903
  0
LINE
  8
_0-5_金属
  6
CONTINUOUS
 62
    7
 10
1287.0178363172647
 20
613.2988835115782
 11
1259.1177563172653
 21
613.2988835115782
  0
LINE
  8
_0-5_金属
  6
CONTINUOUS
 62
    7
 10
1074.6677962172646
 20
688.29893331157905
 11
1271.6172163172644
 21
688.29893331157905
  0
ARC
  8
_0-5_金属
  6
CONTINUOUS
 62
    7
 10
1059.1178062172651
 20
614.34888331157822
 40
1.0499997999999999
 50
90
 51
270
  0
ARC
  8
_0-5_金属
  6
CONTINUOUS
 62
    7
 10
1059.1178062172651
 20
614.34888331157822
 40
0.2499999
 50
90
 51
270
  0
ARC
  8
_0-5_金属
  6
CONTINUOUS
 62
    7
 10
1087.0178862172645
 20
614.34888331157822
 40
1.0499997999999999
 50
270
 51
90
  0
ARC
  8
_0-5_金属
  6
CONTINUOUS
 62
    7
 10
1087.0178862172645
 20
614.34888331157822
 40
0.2499999
 50
270
 51
90
  0
ARC
  8
_0-5_金属
  6
CONTINUOUS
 62
    7
 10
1071.467896217265
 20
616.19893331157868
 40
0.7999998999999997
 50
270
 51
0
  0
ARC
  8
_0-5_金属
  6
CONTINUOUS
 62
    7
 10
1071.467896217265
 20
616.19893331157868
 40
1.5999999
 50
270
 51
0
  0
ARC
  8
_0-5_金属
  6
CONTINUOUS
 62
    7
 10
1074.6677962172646
 20
616.19893331157868
 40
0.7999998999999997
 50
180
 51
270
  0
ARC
  8
_0-5_金属
  6
CONTINUOUS
 62
    7
 10
1074.6677962172646
 20
616.19893331157868
 40
1.5999999
 50
180
 51
270
  0
ARC
  8
_0-5_金属
  6
CONTINUOUS
 62
    7
 10
1071.467896217265
 20
686.69893331157823
 40
0.7999998999999997
 50
0
 51
90
  0
ARC
  8
_0-5_金属
  6
CONTINUOUS
 62
    7
 10
1071.467896217265
 20
686.69893331157823
 40
1.5999999
 50
0
 51
90
  0
ARC
  8
_0-5_金属
  6
CONTINUOUS
 62
    7
 10
1074.6677962172646
 20
686.69893331157823
 40
0.7999998999999997
 50
90
 51
180
  0
ARC
  8
_0-5_金属
  6
CONTINUOUS
 62
    7
 10
1074.6677962172646
 20
686.69893331157823
 40
1.5999999
 50
90
 51
180
  0
LINE
  8
_0-5_金属
  6
CONTINUOUS
 62
    7
 10
1072.2678762172643
 20
686.69893331157823
 11
1072.2678762172643
 21
616.19893331157868
  0
LINE
  8
_0-5_金属
  6
CONTINUOUS
 62
    7
 10
1073.8678162172653
 20
686.69893331157823
 11
1073.8678162172653
 21
616.19893331157868
  0
LINE
  8
_0-5_金属
  6
CONTINUOUS
 62
    7
 10
1073.0678462172648
 20
686.69893331157823
 11
1073.0678462172648
 21
616.19893331157868
  0
LINE
  8
_0-5_金属
  6
CONTINUOUS
 62
    7
 10
1059.1178062172651
 20
614.59892331157903
 11
1071.467896217265
 21
614.59892331157903
  0
LINE
  8
_0-5_金属
  6
CONTINUOUS
 62
    7
 10
1059.1178062172651
 20
614.09885331157852
 11
1087.0178862172645
 21
614.09885331157852
  0
LINE
  8
_0-5_金属
  6
CONTINUOUS
 62
    7
 10
1059.1178062172651
 20
615.39883331157739
 11
1071.467896217265
 21
615.39883331157739
  0
LINE
  8
_0-5_金属
  6
CONTINUOUS
 62
    7
 10
1074.6677962172646
 20
615.39883331157739
 11
1087.0178862172645
 21
615.39883331157739
  0
LINE
  8
_0-5_金属
  6
CONTINUOUS
 62
    7
 10
1074.6677962172646
 20
614.59892331157903
 11
1087.0178862172645
 21
614.59892331157903
  0
LINE
  8
_0-5_金属
  6
CONTINUOUS
 62
    7
 10
1087.0178862172645
 20
613.2988835115782
 11
1059.1178062172651
 21
613.2988835115782
  0
LINE
  8
_0-5_金属
  6
CONTINUOUS
 62
    7
 10
1074.6677962172646
 20
687.49896331157856
 11
1271.4678463172652
 21
687.49896331157856
  0
LINE
  8
_0-5_金属
  6
CONTINUOUS
 62
    7
 10
1288.0677863172639
 20
687.49896331157856
 11
1288.0677863172639
 21
686.69899331157808
  0
LINE
  8
_0-5_金属
  6
CONTINUOUS
 62
    7
 10
1288.0677863172639
 20
687.49896331157856
 11
1274.6677463172648
 21
687.49896331157856
  0
LINE
  8
_0-5_金属
  6
CONTINUOUS
 62
    7
 10
1055.8134712001686
 20
687.49896331157856
 11
1071.6076962172644
 21
687.49896331157856
  0
LINE
  8
_0-5_金属
  6
CONTINUOUS
 62
    7
 10
1071.467896217265
 20
688.29893331157905
 11
1055.8134712001686
 21
688.29893331157905
  0
LINE
  8
_0-5_金属
  6
CONTINUOUS
 62
    7
 10
1398.0677971319744
 20
787.29918331331305
 11
1358.0677971319744
 21
787.29918331331305
  0
LINE
  8
_0-5_金属
  6
CONTINUOUS
 62
    7
 10
1398.0677971319744
 20
697.2991633133131
 11
1398.0677971319744
 21
787.29918331331305
  0
LINE
  8
_0-5_金属
  6
CONTINUOUS
 62
    7
 10
1358.0677971319744
 20
787.29918331331305
 11
1358.0677971319744
 21
697.2991633133131
  0
TEXT
  8
_0-a_文字
 62
    7
 10
941.48363596889408
 20
480.79893331157905
 40
14.999999999999858
 41
1.0000000000000073
 50
0
  1
亜鉛めっき鋼板 t=1.2以上
  0
TEXT
  8
_0-a_文字
 62
    7
 10
941.48363596889442
 20
460.79893331157905
 40
14.999999999999858
 41
1.0000000000000113
 50
0
  1
（別途工事）
  0
TEXT
  8
_0-a_文字
 62
    7
 10
1033.6562547665642
 20
505.79893331157905
 40
14.999999999999858
 41
1.0000000000000033
 50
0
  1
タイトフレーム（別途工事）
  0
LINE
  8
_0-a_文字
  6
CONTINUOUS
 62
    7
 10
982.67549265303046
 20
558.29893331157905
 11
1028.6562547665653
 21
558.29893331157905
  0
LINE
  8
_0-a_文字
  6
CONTINUOUS
 62
    7
 10
800.73843292591505
 20
688.77550571439201
 11
916.48363596888998
 21
488.29893331157905
  0
LINE
  8
_0-a_文字
  6
CONTINUOUS
 62
    7
 10
916.48363596888998
 20
488.29893331157905
 11
936.48363596889453
 21
488.29893331157905
  0
LINE
  8
_0-a_文字
  6
CONTINUOUS
 62
    7
 10
908.19730792756104
 20
687.29893331157768
 11
1008.6562547665642
 21
513.29893331157905
  0
LINE
  8
_0-a_文字
  6
CONTINUOUS
 62
    7
 10
1008.6562547665642
 20
513.29893331157905
 11
1028.6562547665653
 21
513.29893331157905
  0
TEXT
  8
_0-a_文字
 62
    7
 10
1033.6562547665631
 20
550.79893331157905
 40
14.999999999999858
 41
1.0000000000000073
 50
0
  1
デッキプレート フラットタイプ H=75
  0
TEXT
  8
_0-a_文字
 62
    7
 10
1033.6562547665628
 20
530.79893331157905
 40
14.999999999999858
 41
1.0000000000000084
 50
0
  1
t=1.0 または t=1.2（別途工事）
  0
TEXT
  8
_f-0_
 62
    7
 10
405.30228976001894
 20
1163.75
 40
17.499999999999993
 41
1.000000000000002
 50
0
  1
ＳＤ－Ｆ仕様 側溝 立上り接着工法
  0
ENDSEC
  0
EOF
