  0
SECTION
  2
HEADER
  9
$ACADVER
  1
AC1009
  9
$INSBASE
 10
0
 20
0
 30
0
  9
$EXTMIN
 10
0
 20
0
  9
$EXTMAX
 10
2100
 20
1485
  9
$LIMMIN
 10
0
 20
0
  9
$LIMMAX
 10
2100
 20
1485
  9
$LTSCALE
 40
5
  0
ENDSEC
  0
SECTION
  2
TABLES
  0
TABLE
  2
LTYPE
 70
     9
  0
LTYPE
  2
CONTINUOUS
 70
    64
  3
実線
 72
    65
 73
     0
 40
0.0
  0
LTYPE
  2
DASHED1
 70
    64
  3
--  --  --  --  --  --  --  --  
 72
    65
 73
     2
 40
2.5
 49
1.25
 49
-1.25
  0
LTYPE
  2
DASHED2
 70
    64
  3
----    ----    ----    ----    
 72
    65
 73
     2
 40
5.0
 49
2.5
 49
-2.5
  0
LTYPE
  2
DASHED3
 70
    64
  3
------  ------  ------  ------  
 72
    65
 73
     2
 40
5.0
 49
3.75
 49
-1.25
  0
LTYPE
  2
CENTER1
 70
    64
  3
----- - ----- - ----- - ----- - 
 72
    65
 73
     4
 40
10.0
 49
6.25
 49
-1.25
 49
1.25
 49
-1.25
  0
LTYPE
  2
CENTER2
 70
    64
  3
----------  --  ----------  --  
 72
    65
 73
     4
 40
20.0
 49
12.5
 49
-2.5
 49
2.5
 49
-2.5
  0
LTYPE
  2
PHANTOM1
 70
    64
  3
--- - - --- - - --- - - --- - - 
 72
    65
 73
     6
 40
10.0
 49
3.25
 49
-1.25
 49
1.25
 49
-1.25
 49
1.25
 49
-1.25
  0
LTYPE
  2
PHANTOM2
 70
    64
  3
--------  -  -  --------  -  -  
 72
    65
 73
     6
 40
20.0
 49
10.0
 49
-2.5
 49
1.25
 49
-2.5
 49
1.25
 49
-2.5
  0
LTYPE
  2
DOT
 70
    64
  3
-   -   -   -   -   -   -   -   
 72
    65
 73
     2
 40
2.5
 49
0.625
 49
-1.875
  0
LTYPE
  2
DUMMY
 70
    64
  3
ダミー
 72
    65
 73
     0
 40
0.0
  0
LTYPE
  2
RAND1
 70
    64
  3
ランダム線1
 72
    65
 73
     4
 40
10.0
 49
1.0
 49
-2.0
 49
3.0
 49
-4.0
  0
LTYPE
  2
RAND2
 70
    64
  3
ランダム線2
 72
    65
 73
     4
 40
14.0
 49
2.0
 49
-3.0
 49
4.0
 49
-5.0
  0
LTYPE
  2
RAND3
 70
    64
  3
ランダム線3
 72
    65
 73
     4
 40
18.0
 49
3.0
 49
-4.0
 49
5.0
 49
-6.0
  0
LTYPE
  2
RAND4
 70
    64
  3
ランダム線4
 72
    65
 73
     4
 40
22.0
 49
4.0
 49
-5.0
 49
6.0
 49
-7.0
  0
LTYPE
  2
RAND5
 70
    64
  3
ランダム線5
 72
    65
 73
     4
 40
26.0
 49
5.0
 49
-6.0
 49
7.0
 49
-8.0
  0
LTYPE
  2
LONG1
 70
    64
  3
----------  --  ----------  --  
 72
    65
 73
     4
 40
40.0
 49
32.5
 49
-2.5
 49
2.5
 49
-2.5
  0
LTYPE
  2
LONG2
 70
    64
  3
--------  -  -  --------  -  -  
 72
    65
 73
     6
 40
40.0
 49
30.0
 49
-2.5
 49
1.25
 49
-2.5
 49
1.25
 49
-2.5
  0
LTYPE
  2
LONG3
 70
    64
  3
+++++++++++++++..+++++++++++++++
 72
    65
 73
     2
 40
40.0
 49
37.5
 49
-2.5
  0
LTYPE
  2
LONG4
 70
    64
  3
+++++++++++++++..+++++++++++++++
 72
    65
 73
     2
 40
80.0
 49
75.0
 49
-5.0
  0
LTYPE
  2
LONG5
 70
    64
  3
----------  --  ----------  --  
 72
    65
 73
     4
 40
60.0
 49
37.5
 49
-7.5
 49
7.5
 49
-7.5
  0
LTYPE
  2
dashed
 70
   64
  3
-------   -------------   ------
 72
   65
 73
    2
 40
7.5
 49
6
 49
-1.5
  0
LTYPE
  2
dashed_spaced
 70
   64
  3
----        --------        ----
 72
   65
 73
    2
 40
12
 49
6
 49
-6
  0
LTYPE
  2
long_dashed_dotted
 70
   64
  3
------------- --- --------------
 72
   65
 73
    4
 40
15.25
 49
12
 49
-1.5
 49
0.25
 49
-1.5
  0
LTYPE
  2
long_dashed_double-dotted
 70
   64
  3
----------- --- --- ------------
 72
   65
 73
    6
 40
17
 49
12
 49
-1.5
 49
0.25
 49
-1.5
 49
0.25
 49
-1.5
  0
LTYPE
  2
long_dashed_triplicate-dotted
 70
   64
  3
--------- --- --- --- ----------
 72
   65
 73
    8
 40
18.75
 49
12
 49
-1.5
 49
0.25
 49
-1.5
 49
0.25
 49
-1.5
 49
0.25
 49
-1.5
  0
LTYPE
  2
dotted
 70
   64
  3
   -       -       -       -    
 72
   65
 73
    2
 40
1.75
 49
0.25
 49
-1.5
  0
LTYPE
  2
chain
 70
   64
  3
-------------- -- --------------
 72
   65
 73
    4
 40
18.5
 49
12
 49
-1.5
 49
3.5
 49
-1.5
  0
LTYPE
  2
chain_double_dash
 70
   64
  3
------------ -- -- -------------
 72
   65
 73
    6
 40
23.5
 49
12
 49
-1.5
 49
3.5
 49
-1.5
 49
3.5
 49
-1.5
  0
LTYPE
  2
dashed_dotted
 70
   64
  3
-----------     -     ----------
 72
   65
 73
    4
 40
9.25
 49
6
 49
-1.5
 49
0.25
 49
-1.5
  0
LTYPE
  2
double-dashed_dotted
 70
   64
  3
------   -----------   -   -----
 72
   65
 73
    6
 40
16.75
 49
6
 49
-1.5
 49
6
 49
-1.5
 49
0.25
 49
-1.5
  0
LTYPE
  2
dashed_double-dotted
 70
   64
  3
---------    -    -    ---------
 72
   65
 73
    6
 40
11
 49
6
 49
-1.5
 49
0.25
 49
-1.5
 49
0.25
 49
-1.5
  0
LTYPE
  2
double-dashed_double-dotted
 70
   64
  3
-----   ---------   -   -   ----
 72
   65
 73
    8
 40
18.5
 49
6
 49
-1.5
 49
6
 49
-1.5
 49
0.25
 49
-1.5
 49
0.25
 49
-1.5
  0
LTYPE
  2
dashed_triplicate-dotted
 70
   64
  3
-------    -    -    -    ------
 72
   65
 73
    8
 40
12.75
 49
6
 49
-1.5
 49
0.25
 49
-1.5
 49
0.25
 49
-1.5
 49
0.25
 49
-1.5
  0
LTYPE
  2
double-dashed_triplicate-dotted
 70
   64
  3
-----  ---------  -  -  -  -----
 72
   65
 73
   10
 40
20.25
 49
6
 49
-1.5
 49
6
 49
-1.5
 49
0.25
 49
-1.5
 49
0.25
 49
-1.5
 49
0.25
 49
-1.5
  0
LTYPE
  2
undefined
 70
   64
  3
--------------------------------
 72
   65
 73
    0
 40
0
  0
ENDTAB
  0
TABLE
  2
STYLE
  5
3
100
AcDbSymbolTable
 70
     1
  0
STYLE
  5
10
100
AcDbSymbolTableRecord
100
AcDbTextStyleTableRecord
  2
STANDARD
 70
     0
 40
0.0
 41
1.0
 50
0.0
 71
     0
 42
0.2
  3
txt
  4
bigfont.shx
  0
STYLE
  5
26
100
AcDbSymbolTableRecord
100
AcDbTextStyleTableRecord
  2
TATEGAKI
 70
    68
 40
0.0
 41
1.0
 50
0.0
 71
     0
 42
1.0
  3
txt
  4
bigfont.shx
  0
ENDTAB
  0
TABLE
  2
LAYER
 70
   12
  0
LAYER
  2
_0-1_線色１__水色__
 70
   64
 62
    7
  6
CONTINUOUS
  0
LAYER
  2
_0-2_線色２__白__
 70
   64
 62
    7
  6
CONTINUOUS
  0
LAYER
  2
_0-3_線色３__緑__
 70
   64
 62
    7
  6
CONTINUOUS
  0
LAYER
  2
_0-4_線色４__黄__
 70
   64
 62
    7
  6
CONTINUOUS
  0
LAYER
  2
_0-5_金属
 70
   64
 62
    7
  6
CONTINUOUS
  0
LAYER
  2
_0-6_鋼板__アングル
 70
   64
 62
    7
  6
CONTINUOUS
  0
LAYER
  2
_0-7_ビス
 70
   64
 62
    7
  6
CONTINUOUS
  0
LAYER
  2
_0-a_文字
 70
   64
 62
    7
  6
CONTINUOUS
  0
LAYER
  2
_0-d_断熱__ハッチ
 70
   64
 62
    7
  6
CONTINUOUS
  0
LAYER
  2
_f-0_
 70
   64
 62
    7
  6
CONTINUOUS
  0
LAYER
  2
_f-f_
 70
   64
 62
    7
  6
CONTINUOUS
  0
LAYER
  2
ADD_LINE
 70
   64
 62
    7
  6
CONTINUOUS
  0
ENDTAB
  0
ENDSEC
  0
SECTION
  2
BLOCKS
  0
ENDSEC
  0
SECTION
  2
ENTITIES
  0
LINE
  8
_f-0_
  6
CONTINUOUS
 62
  136
 10
1714.9999999999989
 20
1192.5
 11
385
 21
1192.5
  0
LINE
  8
_f-0_
  6
CONTINUOUS
 62
  136
 10
385
 20
277.50000000000341
 11
1714.9999999999989
 21
277.50000000000341
  0
LINE
  8
_f-0_
  6
CONTINUOUS
 62
  136
 10
385
 20
1192.5
 11
385
 21
277.50000000000341
  0
LINE
  8
_f-0_
  6
CONTINUOUS
 62
  136
 10
1714.9999999999989
 20
1192.5
 11
1714.9999999999989
 21
277.50000000000341
  0
LINE
  8
_f-0_
  6
CONTINUOUS
 62
    6
 10
1714.9999999999989
 20
1152.5
 11
385
 21
1152.5
  0
LINE
  8
_f-f_
  6
CONTINUOUS
 62
    9
 10
310
 20
217.5
 11
310
 21
1267.5
  0
LINE
  8
_f-f_
  6
CONTINUOUS
 62
    9
 10
1790
 20
217.5
 11
310
 21
217.5
  0
LINE
  8
_f-f_
  6
CONTINUOUS
 62
    9
 10
1790
 20
1267.5
 11
310
 21
1267.5
  0
LINE
  8
_f-f_
  6
CONTINUOUS
 62
    9
 10
1790
 20
1267.5
 11
1790
 21
217.5
  0
LINE
  8
ADD_LINE
  6
DOT
 62
  136
 10
1764.9999999999989
 20
1242.5
 11
335
 21
1242.5
  0
LINE
  8
ADD_LINE
  6
DOT
 62
  136
 10
335
 20
242.50000000000227
 11
335
 21
1242.5
  0
LINE
  8
ADD_LINE
  6
DOT
 62
  136
 10
1765
 20
1242.5
 11
1765
 21
242.5
  0
LINE
  8
ADD_LINE
  6
DOT
 62
  136
 10
1765
 20
242.5
 11
335.00000000000114
 21
242.5
  0
TEXT
  8
_0-a_文字
 62
    7
 10
405
 20
287.50000000000313
 40
15.000000000000568
 41
0.9999999999999666
 50
0
  1
※ 本図面は防水納まりの参考図であり、下地等の構造を保証するものではありません
  0
TEXT
  8
_0-a_文字
 62
    7
 10
405
 20
307.50000000000313
 40
15.000000000000568
 41
0.9999999999999666
 50
0
  1
※ ラジアルシートＬ６００は、断熱材の種類がポリスチレンフォームの場合のみ使用
  0
LINE
  8
_0-a_文字
  6
CONTINUOUS
 62
    7
 10
776.27456121898831
 20
817.49623267557922
 11
796.27456121898831
 21
817.49623267557922
  0
LINE
  8
_0-a_文字
  6
CONTINUOUS
 62
    7
 10
761.8408044892476
 20
792.49623267557922
 11
796.27456121898831
 21
792.49623267557922
  0
LINE
  8
_0-a_文字
  6
CONTINUOUS
 62
    7
 10
747.4070477595069
 20
767.49623267557922
 11
796.27456121898831
 21
767.49623267557922
  0
TEXT
  8
_0-a_文字
 62
    7
 10
801.27456121898717
 20
784.99623267557865
 40
15.000000000000213
 41
1.0000000000000122
 50
0
  1
ラジアルシートＬ６００
  0
TEXT
  8
_0-a_文字
 62
    7
 10
801.27456121898899
 20
759.99623267557865
 40
15.000000000000213
 41
0.9999999999999521
 50
0
  1
断熱材
  0
LINE
  8
_0-a_文字
  6
CONTINUOUS
 62
    7
 10
705.56459067596734
 20
695.0229710933661
 11
776.27456121898831
 21
817.49623267557922
  0
LINE
  8
_0-d_断熱__ハッチ
  6
CONTINUOUS
 62
    4
 10
641.4823996643463
 20
702.45287154065977
 11
666.41230011164225
 21
677.52297109336382
  0
LINE
  8
_0-d_断熱__ハッチ
  6
CONTINUOUS
 62
    4
 10
1441.4554335684102
 20
677.5229710933661
 11
1458.517600335656
 21
694.58513786061189
  0
ARC
  8
_0-1_線色１__水色__
  6
CONTINUOUS
 62
    4
 10
656.73571649551377
 20
714.06463772913753
 40
1.2083333333333179
 50
127.52351320610693
 51
52.47648680188081
  0
ARC
  8
_0-1_線色１__水色__
  6
CONTINUOUS
 62
    4
 10
646.43199548498842
 20
715.98130439512147
 40
1.2083333333333581
 50
307.52351320333912
 51
232.47648680464988
  0
ARC
  8
_0-1_線色１__水色__
  6
CONTINUOUS
 62
    4
 10
650.84787591814347
 20
714.06463772872598
 40
1.2083333333333179
 50
127.52351320610693
 51
52.47648680188081
  0
ARC
  8
_0-1_線色１__水色__
  6
CONTINUOUS
 62
    4
 10
647.90395562946287
 20
714.06463772852135
 40
1.2083333333333179
 50
127.52351320610693
 51
52.47648680188081
  0
ARC
  8
_0-1_線色１__水色__
  6
CONTINUOUS
 62
    4
 10
649.3759157736713
 20
715.98130439532611
 40
1.2083333333333581
 50
307.52351320333912
 51
232.47648680464988
  0
ARC
  8
_0-1_線色１__水色__
  6
CONTINUOUS
 62
    4
 10
653.79179620682862
 20
714.06463772893062
 40
1.2083333333333179
 50
127.52351320610693
 51
52.47648680188081
  0
ARC
  8
_0-1_線色１__水色__
  6
CONTINUOUS
 62
    4
 10
652.3198360623519
 20
715.98130439553074
 40
1.2083333333333581
 50
307.52351320333912
 51
232.47648680464988
  0
ARC
  8
_0-1_線色１__水色__
  6
CONTINUOUS
 62
    4
 10
655.26375635103705
 20
715.98130439573538
 40
1.2083333333333581
 50
307.52351320333912
 51
232.47648680464988
  0
ARC
  8
_0-1_線色１__水色__
  6
CONTINUOUS
 62
    4
 10
643.488075196301
 20
715.98130439491456
 40
1.2083333333333581
 50
307.52351320333912
 51
232.47648680464988
  0
ARC
  8
_0-1_線色１__水色__
  6
CONTINUOUS
 62
    4
 10
644.96003534078
 20
714.06463772831671
 40
1.2083333333333179
 50
127.52351320610693
 51
52.47648680188081
  0
ARC
  8
_0-1_線色１__水色__
  6
CONTINUOUS
 62
    4
 10
684.70295923784761
 20
715.98130439719057
 40
1.2083333333333581
 50
307.52351320333912
 51
232.47648680464988
  0
ARC
  8
_0-1_線色１__水色__
  6
CONTINUOUS
 62
    4
 10
708.25432154731516
 20
715.98130439821603
 40
1.2083333333333581
 50
307.52351320333912
 51
232.47648680464988
  0
ARC
  8
_0-1_線色１__水色__
  6
CONTINUOUS
 62
    4
 10
709.72628169178961
 20
714.0646377316159
 40
1.2083333333333179
 50
127.52351320610693
 51
52.47648680188081
  0
ARC
  8
_0-1_線色１__水色__
  6
CONTINUOUS
 62
    4
 10
689.11883967100721
 20
714.06463773079736
 40
1.2083333333333179
 50
127.52351320610693
 51
52.47648680188081
  0
ARC
  8
_0-1_線色１__水色__
  6
CONTINUOUS
 62
    4
 10
686.17491938232433
 20
714.06463773059045
 40
1.2083333333333179
 50
127.52351320610693
 51
52.47648680188081
  0
ARC
  8
_0-1_線色１__水色__
  6
CONTINUOUS
 62
    4
 10
687.64687952652821
 20
715.98130439739521
 40
1.2083333333333581
 50
307.52351320333912
 51
232.47648680464988
  0
ARC
  8
_0-1_線色１__水色__
  6
CONTINUOUS
 62
    4
 10
692.06275995969008
 20
714.06463773100199
 40
1.2083333333333179
 50
127.52351320610693
 51
52.47648680188081
  0
ARC
  8
_0-1_線色１__水色__
  6
CONTINUOUS
 62
    4
 10
690.59079981521563
 20
715.98130439760212
 40
1.2083333333333581
 50
307.52351320333912
 51
232.47648680464988
  0
ARC
  8
_0-1_線色１__水色__
  6
CONTINUOUS
 62
    4
 10
695.00668024837069
 20
714.06463773120663
 40
1.2083333333333179
 50
127.52351320610693
 51
52.47648680188081
  0
ARC
  8
_0-1_線色１__水色__
  6
CONTINUOUS
 62
    4
 10
693.53472010389851
 20
715.98130439780675
 40
1.2083333333333581
 50
307.52351320333912
 51
232.47648680464988
  0
ARC
  8
_0-1_線色１__水色__
  6
CONTINUOUS
 62
    4
 10
697.95060053705583
 20
714.06463773141127
 40
1.2083333333333179
 50
127.52351320610693
 51
52.47648680188081
  0
ARC
  8
_0-1_線色１__水色__
  6
CONTINUOUS
 62
    4
 10
696.47864039257911
 20
715.98130439801139
 40
1.2083333333333581
 50
307.52351320333912
 51
232.47648680464988
  0
ARC
  8
_0-1_線色１__水色__
  6
CONTINUOUS
 62
    4
 10
700.89452082574098
 20
714.0646377316159
 40
1.2083333333333179
 50
127.52351320610693
 51
52.47648680188081
  0
ARC
  8
_0-1_線色１__水色__
  6
CONTINUOUS
 62
    4
 10
699.42256068126426
 20
715.98130439821603
 40
1.2083333333333581
 50
307.52351320333912
 51
232.47648680464988
  0
ARC
  8
_0-1_線色１__水色__
  6
CONTINUOUS
 62
    4
 10
703.83844111442158
 20
714.06463773182281
 40
1.2083333333333179
 50
127.52351320610693
 51
52.47648680188081
  0
ARC
  8
_0-1_線色１__水色__
  6
CONTINUOUS
 62
    4
 10
702.36648096994713
 20
715.98130439842294
 40
1.2083333333333581
 50
307.52351320333912
 51
232.47648680464988
  0
ARC
  8
_0-1_線色１__水色__
  6
CONTINUOUS
 62
    4
 10
706.78236140310673
 20
714.06463773202745
 40
1.2083333333333179
 50
127.52351320610693
 51
52.47648680188081
  0
ARC
  8
_0-1_線色１__水色__
  6
CONTINUOUS
 62
    4
 10
705.31040125863001
 20
715.98130439862757
 40
1.2083333333333581
 50
307.52351320333912
 51
232.47648680464988
  0
ARC
  8
_0-1_線色１__水色__
  6
CONTINUOUS
 62
    4
 10
658.20767663969491
 20
715.98130439596048
 40
1.2083333333333581
 50
307.52351320333912
 51
232.47648680464988
  0
ARC
  8
_0-1_線色１__水色__
  6
CONTINUOUS
 62
    4
 10
681.75903894916473
 20
715.98130439698593
 40
1.2083333333333581
 50
307.52351320333912
 51
232.47648680464988
  0
ARC
  8
_0-1_線色１__水色__
  6
CONTINUOUS
 62
    4
 10
683.23099909363918
 20
714.06463773038581
 40
1.2083333333333179
 50
127.52351320610693
 51
52.47648680188081
  0
ARC
  8
_0-1_線色１__水色__
  6
CONTINUOUS
 62
    4
 10
662.62355707285678
 20
714.06463772956499
 40
1.2083333333333179
 50
127.52351320610693
 51
52.47648680188081
  0
ARC
  8
_0-1_線色１__水色__
  6
CONTINUOUS
 62
    4
 10
659.67963678417391
 20
714.06463772936036
 40
1.2083333333333179
 50
127.52351320610693
 51
52.47648680188081
  0
ARC
  8
_0-1_線色１__水色__
  6
CONTINUOUS
 62
    4
 10
661.15159692838233
 20
715.98130439616511
 40
1.2083333333333581
 50
307.52351320333912
 51
232.47648680464988
  0
ARC
  8
_0-1_線色１__水色__
  6
CONTINUOUS
 62
    4
 10
665.56747736153739
 20
714.06463772976963
 40
1.2083333333333179
 50
127.52351320610693
 51
52.47648680188081
  0
ARC
  8
_0-1_線色１__水色__
  6
CONTINUOUS
 62
    4
 10
664.09551721706521
 20
715.98130439636975
 40
1.2083333333333581
 50
307.52351320333912
 51
232.47648680464988
  0
ARC
  8
_0-1_線色１__水色__
  6
CONTINUOUS
 62
    4
 10
668.51139765022253
 20
714.06463772997654
 40
1.2083333333333179
 50
127.52351320610693
 51
52.47648680188081
  0
ARC
  8
_0-1_線色１__水色__
  6
CONTINUOUS
 62
    4
 10
667.03943750574581
 20
715.98130439657439
 40
1.2083333333333581
 50
307.52351320333912
 51
232.47648680464988
  0
ARC
  8
_0-1_線色１__水色__
  6
CONTINUOUS
 62
    4
 10
671.45531793890768
 20
714.06463773018118
 40
1.2083333333333179
 50
127.52351320610693
 51
52.47648680188081
  0
ARC
  8
_0-1_線色１__水色__
  6
CONTINUOUS
 62
    4
 10
669.98335779443096
 20
715.9813043967813
 40
1.2083333333333581
 50
307.52351320333912
 51
232.47648680464988
  0
ARC
  8
_0-1_線色１__水色__
  6
CONTINUOUS
 62
    4
 10
674.39923822758828
 20
714.06463773038581
 40
1.2083333333333179
 50
127.52351320610693
 51
52.47648680188081
  0
ARC
  8
_0-1_線色１__水色__
  6
CONTINUOUS
 62
    4
 10
672.92727808311611
 20
715.98130439698593
 40
1.2083333333333581
 50
307.52351320333912
 51
232.47648680464988
  0
ARC
  8
_0-1_線色１__水色__
  6
CONTINUOUS
 62
    4
 10
677.34315851627343
 20
714.06463773059045
 40
1.2083333333333179
 50
127.52351320610693
 51
52.47648680188081
  0
ARC
  8
_0-1_線色１__水色__
  6
CONTINUOUS
 62
    4
 10
675.87119837179671
 20
715.98130439719057
 40
1.2083333333333581
 50
307.52351320333912
 51
232.47648680464988
  0
ARC
  8
_0-1_線色１__水色__
  6
CONTINUOUS
 62
    4
 10
680.28707880495631
 20
714.06463773079736
 40
1.2083333333333179
 50
127.52351320610693
 51
52.47648680188081
  0
ARC
  8
_0-1_線色１__水色__
  6
CONTINUOUS
 62
    4
 10
678.81511866048186
 20
715.98130439739521
 40
1.2083333333333581
 50
307.52351320333912
 51
232.47648680464988
  0
ARC
  8
_0-1_線色１__水色__
  6
CONTINUOUS
 62
    4
 10
724.44588313518352
 20
714.06463773266182
 40
1.2083333333333179
 50
127.52351320610693
 51
52.47648680188081
  0
ARC
  8
_0-1_線色１__水色__
  6
CONTINUOUS
 62
    4
 10
714.14216212465817
 20
715.98130439864576
 40
1.2083333333333581
 50
307.52351320333912
 51
232.47648680464988
  0
ARC
  8
_0-1_線色１__水色__
  6
CONTINUOUS
 62
    4
 10
718.5580425578155
 20
714.06463773225028
 40
1.2083333333333179
 50
127.52351320610693
 51
52.47648680188081
  0
ARC
  8
_0-1_線色１__水色__
  6
CONTINUOUS
 62
    4
 10
715.61412226913262
 20
714.06463773204564
 40
1.2083333333333179
 50
127.52351320610693
 51
52.47648680188081
  0
ARC
  8
_0-1_線色１__水色__
  6
CONTINUOUS
 62
    4
 10
717.08608241334105
 20
715.9813043988504
 40
1.2083333333333581
 50
307.52351320333912
 51
232.47648680464988
  0
ARC
  8
_0-1_線色１__水色__
  6
CONTINUOUS
 62
    4
 10
721.50196284650065
 20
714.06463773245491
 40
1.2083333333333179
 50
127.52351320610693
 51
52.47648680188081
  0
ARC
  8
_0-1_線色１__水色__
  6
CONTINUOUS
 62
    4
 10
720.03000270202392
 20
715.98130439905503
 40
1.2083333333333581
 50
307.52351320333912
 51
232.47648680464988
  0
ARC
  8
_0-1_線色１__水色__
  6
CONTINUOUS
 62
    4
 10
722.97392299070907
 20
715.98130439925967
 40
1.2083333333333581
 50
307.52351320333912
 51
232.47648680464988
  0
ARC
  8
_0-1_線色１__水色__
  6
CONTINUOUS
 62
    4
 10
711.19824183597302
 20
715.98130439843885
 40
1.2083333333333581
 50
307.52351320333912
 51
232.47648680464988
  0
ARC
  8
_0-1_線色１__水色__
  6
CONTINUOUS
 62
    4
 10
712.67020198044975
 20
714.064637731841
 40
1.2083333333333179
 50
127.52351320610693
 51
52.47648680188081
  0
ARC
  8
_0-1_線色１__水色__
  6
CONTINUOUS
 62
    4
 10
752.41312587751963
 20
715.98130440071486
 40
1.2083333333333581
 50
307.52351320333912
 51
232.47648680464988
  0
ARC
  8
_0-1_線色１__水色__
  6
CONTINUOUS
 62
    4
 10
775.96448818698263
 20
715.98130440174032
 40
1.2083333333333581
 50
307.52351320333912
 51
232.47648680464988
  0
ARC
  8
_0-1_線色１__水色__
  6
CONTINUOUS
 62
    4
 10
777.43644833146163
 20
714.0646377351402
 40
1.2083333333333179
 50
127.52351320610693
 51
52.47648680188081
  0
ARC
  8
_0-1_線色１__水色__
  6
CONTINUOUS
 62
    4
 10
756.82900631067696
 20
714.06463773431938
 40
1.2083333333333179
 50
127.52351320610693
 51
52.47648680188081
  0
ARC
  8
_0-1_線色１__水色__
  6
CONTINUOUS
 62
    4
 10
753.88508602199181
 20
714.06463773411474
 40
1.2083333333333179
 50
127.52351320610693
 51
52.47648680188081
  0
ARC
  8
_0-1_線色１__水色__
  6
CONTINUOUS
 62
    4
 10
755.35704616620023
 20
715.9813044009195
 40
1.2083333333333581
 50
307.52351320333912
 51
232.47648680464988
  0
ARC
  8
_0-1_線色１__水色__
  6
CONTINUOUS
 62
    4
 10
759.77292659935983
 20
714.06463773452629
 40
1.2083333333333179
 50
127.52351320610693
 51
52.47648680188081
  0
ARC
  8
_0-1_線色１__水色__
  6
CONTINUOUS
 62
    4
 10
758.30096645488538
 20
715.98130440112413
 40
1.2083333333333581
 50
307.52351320333912
 51
232.47648680464988
  0
ARC
  8
_0-1_線色１__水色__
  6
CONTINUOUS
 62
    4
 10
762.71684688804271
 20
714.06463773473092
 40
1.2083333333333179
 50
127.52351320610693
 51
52.47648680188081
  0
ARC
  8
_0-1_線色１__水色__
  6
CONTINUOUS
 62
    4
 10
761.24488674356826
 20
715.98130440133104
 40
1.2083333333333581
 50
307.52351320333912
 51
232.47648680464988
  0
ARC
  8
_0-1_線色１__水色__
  6
CONTINUOUS
 62
    4
 10
765.66076717672786
 20
714.06463773493556
 40
1.2083333333333179
 50
127.52351320610693
 51
52.47648680188081
  0
ARC
  8
_0-1_線色１__水色__
  6
CONTINUOUS
 62
    4
 10
764.18880703225113
 20
715.98130440153568
 40
1.2083333333333581
 50
307.52351320333912
 51
232.47648680464988
  0
ARC
  8
_0-1_線色１__水色__
  6
CONTINUOUS
 62
    4
 10
768.60468746541073
 20
714.0646377351402
 40
1.2083333333333179
 50
127.52351320610693
 51
52.47648680188081
  0
ARC
  8
_0-1_線色１__水色__
  6
CONTINUOUS
 62
    4
 10
767.13272732093628
 20
715.98130440174032
 40
1.2083333333333581
 50
307.52351320333912
 51
232.47648680464988
  0
ARC
  8
_0-1_線色１__水色__
  6
CONTINUOUS
 62
    4
 10
771.54860775409361
 20
714.06463773534483
 40
1.2083333333333179
 50
127.52351320610693
 51
52.47648680188081
  0
ARC
  8
_0-1_線色１__水色__
  6
CONTINUOUS
 62
    4
 10
770.07664760961916
 20
715.98130440194495
 40
1.2083333333333581
 50
307.52351320333912
 51
232.47648680464988
  0
ARC
  8
_0-1_線色１__水色__
  6
CONTINUOUS
 62
    4
 10
774.49252804277421
 20
714.06463773555174
 40
1.2083333333333179
 50
127.52351320610693
 51
52.47648680188081
  0
ARC
  8
_0-1_線色１__水色__
  6
CONTINUOUS
 62
    4
 10
773.02056789830203
 20
715.98130440215186
 40
1.2083333333333581
 50
307.52351320333912
 51
232.47648680464988
  0
ARC
  8
_0-1_線色１__水色__
  6
CONTINUOUS
 62
    4
 10
725.91784327936693
 20
715.9813043994825
 40
1.2083333333333581
 50
307.52351320333912
 51
232.47648680464988
  0
ARC
  8
_0-1_線色１__水色__
  6
CONTINUOUS
 62
    4
 10
749.46920558883448
 20
715.98130440051023
 40
1.2083333333333581
 50
307.52351320333912
 51
232.47648680464988
  0
ARC
  8
_0-1_線色１__水色__
  6
CONTINUOUS
 62
    4
 10
750.94116573331121
 20
714.0646377339101
 40
1.2083333333333179
 50
127.52351320610693
 51
52.47648680188081
  0
ARC
  8
_0-1_線色１__水色__
  6
CONTINUOUS
 62
    4
 10
730.33372371252653
 20
714.06463773308928
 40
1.2083333333333179
 50
127.52351320610693
 51
52.47648680188081
  0
ARC
  8
_0-1_線色１__水色__
  6
CONTINUOUS
 62
    4
 10
727.38980342384366
 20
714.06463773288465
 40
1.2083333333333179
 50
127.52351320610693
 51
52.47648680188081
  0
ARC
  8
_0-1_線色１__水色__
  6
CONTINUOUS
 62
    4
 10
728.86176356805208
 20
715.98130439968941
 40
1.2083333333333581
 50
307.52351320333912
 51
232.47648680464988
  0
ARC
  8
_0-1_線色１__水色__
  6
CONTINUOUS
 62
    4
 10
733.27764400120941
 20
714.06463773329392
 40
1.2083333333333179
 50
127.52351320610693
 51
52.47648680188081
  0
ARC
  8
_0-1_線色１__水色__
  6
CONTINUOUS
 62
    4
 10
731.80568385673496
 20
715.98130439989404
 40
1.2083333333333581
 50
307.52351320333912
 51
232.47648680464988
  0
ARC
  8
_0-1_線色１__水色__
  6
CONTINUOUS
 62
    4
 10
736.22156428989456
 20
714.06463773349856
 40
1.2083333333333179
 50
127.52351320610693
 51
52.47648680188081
  0
ARC
  8
_0-1_線色１__水色__
  6
CONTINUOUS
 62
    4
 10
734.74960414541783
 20
715.98130440009868
 40
1.2083333333333581
 50
307.52351320333912
 51
232.47648680464988
  0
ARC
  8
_0-1_線色１__水色__
  6
CONTINUOUS
 62
    4
 10
739.16548457857743
 20
714.06463773370547
 40
1.2083333333333179
 50
127.52351320610693
 51
52.47648680188081
  0
ARC
  8
_0-1_線色１__水色__
  6
CONTINUOUS
 62
    4
 10
737.69352443410298
 20
715.98130440030332
 40
1.2083333333333581
 50
307.52351320333912
 51
232.47648680464988
  0
ARC
  8
_0-1_線色１__水色__
  6
CONTINUOUS
 62
    4
 10
742.10940486726031
 20
714.0646377339101
 40
1.2083333333333179
 50
127.52351320610693
 51
52.47648680188081
  0
ARC
  8
_0-1_線色１__水色__
  6
CONTINUOUS
 62
    4
 10
740.63744472278586
 20
715.98130440051023
 40
1.2083333333333581
 50
307.52351320333912
 51
232.47648680464988
  0
ARC
  8
_0-1_線色１__水色__
  6
CONTINUOUS
 62
    4
 10
745.05332515594091
 20
714.06463773411474
 40
1.2083333333333179
 50
127.52351320610693
 51
52.47648680188081
  0
ARC
  8
_0-1_線色１__水色__
  6
CONTINUOUS
 62
    4
 10
743.58136501146873
 20
715.98130440071486
 40
1.2083333333333581
 50
307.52351320333912
 51
232.47648680464988
  0
ARC
  8
_0-1_線色１__水色__
  6
CONTINUOUS
 62
    4
 10
747.99724544462833
 20
714.06463773431938
 40
1.2083333333333179
 50
127.52351320610693
 51
52.47648680188081
  0
ARC
  8
_0-1_線色１__水色__
  6
CONTINUOUS
 62
    4
 10
746.52528530014933
 20
715.9813044009195
 40
1.2083333333333581
 50
307.52351320333912
 51
232.47648680464988
  0
ARC
  8
_0-1_線色１__水色__
  6
CONTINUOUS
 62
    4
 10
792.15604977485327
 20
714.06463773618384
 40
1.2083333333333179
 50
127.52351320610693
 51
52.47648680188081
  0
ARC
  8
_0-1_線色１__水色__
  6
CONTINUOUS
 62
    4
 10
781.85232876432565
 20
715.98130440216778
 40
1.2083333333333581
 50
307.52351320333912
 51
232.47648680464988
  0
ARC
  8
_0-1_線色１__水色__
  6
CONTINUOUS
 62
    4
 10
786.26820919748752
 20
714.06463773577457
 40
1.2083333333333179
 50
127.52351320610693
 51
52.47648680188081
  0
ARC
  8
_0-1_線色１__水色__
  6
CONTINUOUS
 62
    4
 10
783.32428890880465
 20
714.06463773556993
 40
1.2083333333333179
 50
127.52351320610693
 51
52.47648680188081
  0
ARC
  8
_0-1_線色１__水色__
  6
CONTINUOUS
 62
    4
 10
784.79624905301307
 20
715.98130440237469
 40
1.2083333333333581
 50
307.52351320333912
 51
232.47648680464988
  0
ARC
  8
_0-1_線色１__水色__
  6
CONTINUOUS
 62
    4
 10
789.21212948616812
 20
714.0646377359792
 40
1.2083333333333179
 50
127.52351320610693
 51
52.47648680188081
  0
ARC
  8
_0-1_線色１__水色__
  6
CONTINUOUS
 62
    4
 10
787.74016934169595
 20
715.98130440257933
 40
1.2083333333333581
 50
307.52351320333912
 51
232.47648680464988
  0
ARC
  8
_0-1_線色１__水色__
  6
CONTINUOUS
 62
    4
 10
790.68408963037655
 20
715.98130440278396
 40
1.2083333333333581
 50
307.52351320333912
 51
232.47648680464988
  0
ARC
  8
_0-1_線色１__水色__
  6
CONTINUOUS
 62
    4
 10
778.90840847564505
 20
715.98130440196314
 40
1.2083333333333581
 50
307.52351320333912
 51
232.47648680464988
  0
ARC
  8
_0-1_線色１__水色__
  6
CONTINUOUS
 62
    4
 10
780.38036862011722
 20
714.06463773536302
 40
1.2083333333333179
 50
127.52351320610693
 51
52.47648680188081
  0
ARC
  8
_0-1_線色１__水色__
  6
CONTINUOUS
 62
    4
 10
820.12329251718938
 20
715.98130440423915
 40
1.2083333333333581
 50
307.52351320333912
 51
232.47648680464988
  0
ARC
  8
_0-1_線色１__水色__
  6
CONTINUOUS
 62
    4
 10
843.67465482665466
 20
715.98130440526461
 40
1.2083333333333581
 50
307.52351320333912
 51
232.47648680464988
  0
ARC
  8
_0-1_線色１__水色__
  6
CONTINUOUS
 62
    4
 10
845.14661497113138
 20
714.06463773866449
 40
1.2083333333333179
 50
127.52351320610693
 51
52.47648680188081
  0
ARC
  8
_0-1_線色１__水色__
  6
CONTINUOUS
 62
    4
 10
824.53917295034898
 20
714.06463773784367
 40
1.2083333333333179
 50
127.52351320610693
 51
52.47648680188081
  0
ARC
  8
_0-1_線色１__水色__
  6
CONTINUOUS
 62
    4
 10
821.59525266166384
 20
714.06463773763903
 40
1.2083333333333179
 50
127.52351320610693
 51
52.47648680188081
  0
ARC
  8
_0-1_線色１__水色__
  6
CONTINUOUS
 62
    4
 10
823.06721280587226
 20
715.98130440444379
 40
1.2083333333333581
 50
307.52351320333912
 51
232.47648680464988
  0
ARC
  8
_0-1_線色１__水色__
  6
CONTINUOUS
 62
    4
 10
827.48309323903186
 20
714.0646377380483
 40
1.2083333333333179
 50
127.52351320610693
 51
52.47648680188081
  0
ARC
  8
_0-1_線色１__水色__
  6
CONTINUOUS
 62
    4
 10
826.01113309455286
 20
715.98130440464843
 40
1.2083333333333581
 50
307.52351320333912
 51
232.47648680464988
  0
ARC
  8
_0-1_線色１__水色__
  6
CONTINUOUS
 62
    4
 10
830.42701352771473
 20
714.06463773825521
 40
1.2083333333333179
 50
127.52351320610693
 51
52.47648680188081
  0
ARC
  8
_0-1_線色１__水色__
  6
CONTINUOUS
 62
    4
 10
828.95505338324028
 20
715.98130440485306
 40
1.2083333333333581
 50
307.52351320333912
 51
232.47648680464988
  0
ARC
  8
_0-1_線色１__水色__
  6
CONTINUOUS
 62
    4
 10
833.37093381639534
 20
714.06463773845985
 40
1.2083333333333179
 50
127.52351320610693
 51
52.47648680188081
  0
ARC
  8
_0-1_線色１__水色__
  6
CONTINUOUS
 62
    4
 10
831.89897367192316
 20
715.98130440505997
 40
1.2083333333333581
 50
307.52351320333912
 51
232.47648680464988
  0
ARC
  8
_0-1_線色１__水色__
  6
CONTINUOUS
 62
    4
 10
836.31485410508049
 20
714.06463773866449
 40
1.2083333333333179
 50
127.52351320610693
 51
52.47648680188081
  0
ARC
  8
_0-1_線色１__水色__
  6
CONTINUOUS
 62
    4
 10
834.84289396060376
 20
715.98130440526461
 40
1.2083333333333581
 50
307.52351320333912
 51
232.47648680464988
  0
ARC
  8
_0-1_線色１__水色__
  6
CONTINUOUS
 62
    4
 10
839.25877439376563
 20
714.06463773886912
 40
1.2083333333333179
 50
127.52351320610693
 51
52.47648680188081
  0
ARC
  8
_0-1_線色１__水色__
  6
CONTINUOUS
 62
    4
 10
837.78681424928891
 20
715.98130440546925
 40
1.2083333333333581
 50
307.52351320333912
 51
232.47648680464988
  0
ARC
  8
_0-1_線色１__水色__
  6
CONTINUOUS
 62
    4
 10
842.20269468244624
 20
714.06463773907376
 40
1.2083333333333179
 50
127.52351320610693
 51
52.47648680188081
  0
ARC
  8
_0-1_線色１__水色__
  6
CONTINUOUS
 62
    4
 10
840.73073453797178
 20
715.98130440567388
 40
1.2083333333333581
 50
307.52351320333912
 51
232.47648680464988
  0
ARC
  8
_0-1_線色１__水色__
  6
CONTINUOUS
 62
    4
 10
793.62800991903896
 20
715.98130440300679
 40
1.2083333333333581
 50
307.52351320333912
 51
232.47648680464988
  0
ARC
  8
_0-1_線色１__水色__
  6
CONTINUOUS
 62
    4
 10
817.17937222850651
 20
715.98130440403224
 40
1.2083333333333581
 50
307.52351320333912
 51
232.47648680464988
  0
ARC
  8
_0-1_線色１__水色__
  6
CONTINUOUS
 62
    4
 10
818.65133237298096
 20
714.0646377374344
 40
1.2083333333333179
 50
127.52351320610693
 51
52.47648680188081
  0
ARC
  8
_0-1_線色１__水色__
  6
CONTINUOUS
 62
    4
 10
798.04389035219856
 20
714.06463773661358
 40
1.2083333333333179
 50
127.52351320610693
 51
52.47648680188081
  0
ARC
  8
_0-1_線色１__水色__
  6
CONTINUOUS
 62
    4
 10
795.09997006351568
 20
714.06463773640667
 40
1.2083333333333179
 50
127.52351320610693
 51
52.47648680188081
  0
ARC
  8
_0-1_線色１__水色__
  6
CONTINUOUS
 62
    4
 10
796.57193020771956
 20
715.98130440321142
 40
1.2083333333333581
 50
307.52351320333912
 51
232.47648680464988
  0
ARC
  8
_0-1_線色１__水色__
  6
CONTINUOUS
 62
    4
 10
800.98781064088143
 20
714.06463773681821
 40
1.2083333333333179
 50
127.52351320610693
 51
52.47648680188081
  0
ARC
  8
_0-1_線色１__水色__
  6
CONTINUOUS
 62
    4
 10
799.51585049640698
 20
715.98130440341833
 40
1.2083333333333581
 50
307.52351320333912
 51
232.47648680464988
  0
ARC
  8
_0-1_線色１__水色__
  6
CONTINUOUS
 62
    4
 10
803.93173092956204
 20
714.06463773702285
 40
1.2083333333333179
 50
127.52351320610693
 51
52.47648680188081
  0
ARC
  8
_0-1_線色１__水色__
  6
CONTINUOUS
 62
    4
 10
802.45977078508986
 20
715.98130440362297
 40
1.2083333333333581
 50
307.52351320333912
 51
232.47648680464988
  0
ARC
  8
_0-1_線色１__水色__
  6
CONTINUOUS
 62
    4
 10
806.87565121824719
 20
714.06463773722749
 40
1.2083333333333179
 50
127.52351320610693
 51
52.47648680188081
  0
ARC
  8
_0-1_線色１__水色__
  6
CONTINUOUS
 62
    4
 10
805.40369107377046
 20
715.98130440382761
 40
1.2083333333333581
 50
307.52351320333912
 51
232.47648680464988
  0
ARC
  8
_0-1_線色１__水色__
  6
CONTINUOUS
 62
    4
 10
809.81957150693233
 20
714.0646377374344
 40
1.2083333333333179
 50
127.52351320610693
 51
52.47648680188081
  0
ARC
  8
_0-1_線色１__水色__
  6
CONTINUOUS
 62
    4
 10
808.34761136245561
 20
715.98130440403224
 40
1.2083333333333581
 50
307.52351320333912
 51
232.47648680464988
  0
ARC
  8
_0-1_線色１__水色__
  6
CONTINUOUS
 62
    4
 10
812.76349179561294
 20
714.06463773763903
 40
1.2083333333333179
 50
127.52351320610693
 51
52.47648680188081
  0
ARC
  8
_0-1_線色１__水色__
  6
CONTINUOUS
 62
    4
 10
811.29153165113848
 20
715.98130440423915
 40
1.2083333333333581
 50
307.52351320333912
 51
232.47648680464988
  0
ARC
  8
_0-1_線色１__水色__
  6
CONTINUOUS
 62
    4
 10
815.70741208429808
 20
714.06463773784367
 40
1.2083333333333179
 50
127.52351320610693
 51
52.47648680188081
  0
ARC
  8
_0-1_線色１__水色__
  6
CONTINUOUS
 62
    4
 10
814.23545193982136
 20
715.98130440444379
 40
1.2083333333333581
 50
307.52351320333912
 51
232.47648680464988
  0
ARC
  8
_0-1_線色１__水色__
  6
CONTINUOUS
 62
    4
 10
859.8662164145253
 20
714.06463773970813
 40
1.2083333333333179
 50
127.52351320610693
 51
52.47648680188081
  0
ARC
  8
_0-1_線色１__水色__
  6
CONTINUOUS
 62
    4
 10
849.56249540399767
 20
715.98130440569207
 40
1.2083333333333581
 50
307.52351320333912
 51
232.47648680464988
  0
ARC
  8
_0-1_線色１__水色__
  6
CONTINUOUS
 62
    4
 10
853.97837583715727
 20
714.06463773929886
 40
1.2083333333333179
 50
127.52351320610693
 51
52.47648680188081
  0
ARC
  8
_0-1_線色１__水色__
  6
CONTINUOUS
 62
    4
 10
851.0344555484744
 20
714.06463773909195
 40
1.2083333333333179
 50
127.52351320610693
 51
52.47648680188081
  0
ARC
  8
_0-1_線色１__水色__
  6
CONTINUOUS
 62
    4
 10
852.50641569268282
 20
715.98130440589671
 40
1.2083333333333581
 50
307.52351320333912
 51
232.47648680464988
  0
ARC
  8
_0-1_線色１__水色__
  6
CONTINUOUS
 62
    4
 10
856.92229612584015
 20
714.0646377395035
 40
1.2083333333333179
 50
127.52351320610693
 51
52.47648680188081
  0
ARC
  8
_0-1_線色１__水色__
  6
CONTINUOUS
 62
    4
 10
855.4503359813657
 20
715.98130440610362
 40
1.2083333333333581
 50
307.52351320333912
 51
232.47648680464988
  0
ARC
  8
_0-1_線色１__水色__
  6
CONTINUOUS
 62
    4
 10
858.39425627004857
 20
715.98130440630825
 40
1.2083333333333581
 50
307.52351320333912
 51
232.47648680464988
  0
ARC
  8
_0-1_線色１__水色__
  6
CONTINUOUS
 62
    4
 10
846.61857511531707
 20
715.98130440548744
 40
1.2083333333333581
 50
307.52351320333912
 51
232.47648680464988
  0
ARC
  8
_0-1_線色１__水色__
  6
CONTINUOUS
 62
    4
 10
848.09053525978925
 20
714.06463773888731
 40
1.2083333333333179
 50
127.52351320610693
 51
52.47648680188081
  0
ARC
  8
_0-1_線色１__水色__
  6
CONTINUOUS
 62
    4
 10
887.83345915685913
 20
715.98130440776117
 40
1.2083333333333581
 50
307.52351320333912
 51
232.47648680464988
  0
ARC
  8
_0-1_線色１__水色__
  6
CONTINUOUS
 62
    4
 10
911.38482146632668
 20
715.9813044087889
 40
1.2083333333333581
 50
307.52351320333912
 51
232.47648680464988
  0
ARC
  8
_0-1_線色１__水色__
  6
CONTINUOUS
 62
    4
 10
912.85678161080341
 20
714.06463774218878
 40
1.2083333333333179
 50
127.52351320610693
 51
52.47648680188081
  0
ARC
  8
_0-1_線色１__水色__
  6
CONTINUOUS
 62
    4
 10
892.24933959002101
 20
714.06463774136796
 40
1.2083333333333179
 50
127.52351320610693
 51
52.47648680188081
  0
ARC
  8
_0-1_線色１__水色__
  6
CONTINUOUS
 62
    4
 10
889.30541930133586
 20
714.06463774116332
 40
1.2083333333333179
 50
127.52351320610693
 51
52.47648680188081
  0
ARC
  8
_0-1_線色１__水色__
  6
CONTINUOUS
 62
    4
 10
890.77737944554428
 20
715.98130440796808
 40
1.2083333333333581
 50
307.52351320333912
 51
232.47648680464988
  0
ARC
  8
_0-1_線色１__水色__
  6
CONTINUOUS
 62
    4
 10
895.19325987870161
 20
714.0646377415726
 40
1.2083333333333179
 50
127.52351320610693
 51
52.47648680188081
  0
ARC
  8
_0-1_線色１__水色__
  6
CONTINUOUS
 62
    4
 10
893.72129973422943
 20
715.98130440817272
 40
1.2083333333333581
 50
307.52351320333912
 51
232.47648680464988
  0
ARC
  8
_0-1_線色１__水色__
  6
CONTINUOUS
 62
    4
 10
898.13718016738676
 20
714.06463774177723
 40
1.2083333333333179
 50
127.52351320610693
 51
52.47648680188081
  0
ARC
  8
_0-1_線色１__水色__
  6
CONTINUOUS
 62
    4
 10
896.66522002291003
 20
715.98130440837735
 40
1.2083333333333581
 50
307.52351320333912
 51
232.47648680464988
  0
ARC
  8
_0-1_線色１__水色__
  6
CONTINUOUS
 62
    4
 10
901.08110045607191
 20
714.06463774198187
 40
1.2083333333333179
 50
127.52351320610693
 51
52.47648680188081
  0
ARC
  8
_0-1_線色１__水色__
  6
CONTINUOUS
 62
    4
 10
899.60914031159518
 20
715.98130440858199
 40
1.2083333333333581
 50
307.52351320333912
 51
232.47648680464988
  0
ARC
  8
_0-1_線色１__水色__
  6
CONTINUOUS
 62
    4
 10
904.02502074475251
 20
714.06463774218878
 40
1.2083333333333179
 50
127.52351320610693
 51
52.47648680188081
  0
ARC
  8
_0-1_線色１__水色__
  6
CONTINUOUS
 62
    4
 10
902.55306060027578
 20
715.9813044087889
 40
1.2083333333333581
 50
307.52351320333912
 51
232.47648680464988
  0
ARC
  8
_0-1_線色１__水色__
  6
CONTINUOUS
 62
    4
 10
906.96894103343766
 20
714.06463774239342
 40
1.2083333333333179
 50
127.52351320610693
 51
52.47648680188081
  0
ARC
  8
_0-1_線色１__水色__
  6
CONTINUOUS
 62
    4
 10
905.49698088896093
 20
715.98130440899354
 40
1.2083333333333581
 50
307.52351320333912
 51
232.47648680464988
  0
ARC
  8
_0-1_線色１__水色__
  6
CONTINUOUS
 62
    4
 10
909.91286132211826
 20
714.06463774259805
 40
1.2083333333333179
 50
127.52351320610693
 51
52.47648680188081
  0
ARC
  8
_0-1_線色１__水色__
  6
CONTINUOUS
 62
    4
 10
908.44090117764608
 20
715.98130440919817
 40
1.2083333333333581
 50
307.52351320333912
 51
232.47648680464988
  0
ARC
  8
_0-1_線色１__水色__
  6
CONTINUOUS
 62
    4
 10
861.33817655870871
 20
715.98130440653108
 40
1.2083333333333581
 50
307.52351320333912
 51
232.47648680464988
  0
ARC
  8
_0-1_線色１__水色__
  6
CONTINUOUS
 62
    4
 10
884.88953886817853
 20
715.98130440755654
 40
1.2083333333333581
 50
307.52351320333912
 51
232.47648680464988
  0
ARC
  8
_0-1_線色１__水色__
  6
CONTINUOUS
 62
    4
 10
886.36149901265071
 20
714.06463774095641
 40
1.2083333333333179
 50
127.52351320610693
 51
52.47648680188081
  0
ARC
  8
_0-1_線色１__水色__
  6
CONTINUOUS
 62
    4
 10
865.75405699186831
 20
714.06463774013559
 40
1.2083333333333179
 50
127.52351320610693
 51
52.47648680188081
  0
ARC
  8
_0-1_線色１__水色__
  6
CONTINUOUS
 62
    4
 10
862.81013670318316
 20
714.06463773993096
 40
1.2083333333333179
 50
127.52351320610693
 51
52.47648680188081
  0
ARC
  8
_0-1_線色１__水色__
  6
CONTINUOUS
 62
    4
 10
864.28209684739159
 20
715.98130440673572
 40
1.2083333333333581
 50
307.52351320333912
 51
232.47648680464988
  0
ARC
  8
_0-1_線色１__水色__
  6
CONTINUOUS
 62
    4
 10
868.69797728055119
 20
714.0646377403425
 40
1.2083333333333179
 50
127.52351320610693
 51
52.47648680188081
  0
ARC
  8
_0-1_線色１__水色__
  6
CONTINUOUS
 62
    4
 10
867.22601713607673
 20
715.98130440694035
 40
1.2083333333333581
 50
307.52351320333912
 51
232.47648680464988
  0
ARC
  8
_0-1_線色１__水色__
  6
CONTINUOUS
 62
    4
 10
871.64189756923406
 20
714.06463774054714
 40
1.2083333333333179
 50
127.52351320610693
 51
52.47648680188081
  0
ARC
  8
_0-1_線色１__水色__
  6
CONTINUOUS
 62
    4
 10
870.16993742475961
 20
715.98130440714726
 40
1.2083333333333581
 50
307.52351320333912
 51
232.47648680464988
  0
ARC
  8
_0-1_線色１__水色__
  6
CONTINUOUS
 62
    4
 10
874.58581785791921
 20
714.06463774075178
 40
1.2083333333333179
 50
127.52351320610693
 51
52.47648680188081
  0
ARC
  8
_0-1_線色１__水色__
  6
CONTINUOUS
 62
    4
 10
873.11385771344248
 20
715.9813044073519
 40
1.2083333333333581
 50
307.52351320333912
 51
232.47648680464988
  0
ARC
  8
_0-1_線色１__水色__
  6
CONTINUOUS
 62
    4
 10
877.52973814660209
 20
714.06463774095641
 40
1.2083333333333179
 50
127.52351320610693
 51
52.47648680188081
  0
ARC
  8
_0-1_線色１__水色__
  6
CONTINUOUS
 62
    4
 10
876.05777800212763
 20
715.98130440755654
 40
1.2083333333333581
 50
307.52351320333912
 51
232.47648680464988
  0
ARC
  8
_0-1_線色１__水色__
  6
CONTINUOUS
 62
    4
 10
880.47365843528496
 20
714.06463774116332
 40
1.2083333333333179
 50
127.52351320610693
 51
52.47648680188081
  0
ARC
  8
_0-1_線色１__水色__
  6
CONTINUOUS
 62
    4
 10
879.00169829081051
 20
715.98130440776117
 40
1.2083333333333581
 50
307.52351320333912
 51
232.47648680464988
  0
ARC
  8
_0-1_線色１__水色__
  6
CONTINUOUS
 62
    4
 10
883.41757872397011
 20
714.06463774136796
 40
1.2083333333333179
 50
127.52351320610693
 51
52.47648680188081
  0
ARC
  8
_0-1_線色１__水色__
  6
CONTINUOUS
 62
    4
 10
881.94561857949338
 20
715.98130440796808
 40
1.2083333333333581
 50
307.52351320333912
 51
232.47648680464988
  0
ARC
  8
_0-1_線色１__水色__
  6
CONTINUOUS
 62
    4
 10
927.57638305419732
 20
714.06463774323242
 40
1.2083333333333179
 50
127.52351320610693
 51
52.47648680188081
  0
ARC
  8
_0-1_線色１__水色__
  6
CONTINUOUS
 62
    4
 10
917.2726620436697
 20
715.98130440921636
 40
1.2083333333333581
 50
307.52351320333912
 51
232.47648680464988
  0
ARC
  8
_0-1_線色１__水色__
  6
CONTINUOUS
 62
    4
 10
921.68854247683157
 20
714.06463774282088
 40
1.2083333333333179
 50
127.52351320610693
 51
52.47648680188081
  0
ARC
  8
_0-1_線色１__水色__
  6
CONTINUOUS
 62
    4
 10
918.74462218814642
 20
714.06463774261624
 40
1.2083333333333179
 50
127.52351320610693
 51
52.47648680188081
  0
ARC
  8
_0-1_線色１__水色__
  6
CONTINUOUS
 62
    4
 10
920.21658233235485
 20
715.981304409421
 40
1.2083333333333581
 50
307.52351320333912
 51
232.47648680464988
  0
ARC
  8
_0-1_線色１__水色__
  6
CONTINUOUS
 62
    4
 10
924.63246276551217
 20
714.06463774302779
 40
1.2083333333333179
 50
127.52351320610693
 51
52.47648680188081
  0
ARC
  8
_0-1_線色１__水色__
  6
CONTINUOUS
 62
    4
 10
923.16050262103772
 20
715.98130440962564
 40
1.2083333333333581
 50
307.52351320333912
 51
232.47648680464988
  0
ARC
  8
_0-1_線色１__水色__
  6
CONTINUOUS
 62
    4
 10
926.1044229097206
 20
715.98130440983255
 40
1.2083333333333581
 50
307.52351320333912
 51
232.47648680464988
  0
ARC
  8
_0-1_線色１__水色__
  6
CONTINUOUS
 62
    4
 10
914.3287417549891
 20
715.98130440901173
 40
1.2083333333333581
 50
307.52351320333912
 51
232.47648680464988
  0
ARC
  8
_0-1_線色１__水色__
  6
CONTINUOUS
 62
    4
 10
915.80070189946127
 20
714.06463774241161
 40
1.2083333333333179
 50
127.52351320610693
 51
52.47648680188081
  0
ARC
  8
_0-1_線色１__水色__
  6
CONTINUOUS
 62
    4
 10
955.54362579653343
 20
715.98130441128546
 40
1.2083333333333581
 50
307.52351320333912
 51
232.47648680464988
  0
ARC
  8
_0-1_線色１__水色__
  6
CONTINUOUS
 62
    4
 10
979.09498810599871
 20
715.98130441231092
 40
1.2083333333333581
 50
307.52351320333912
 51
232.47648680464988
  0
ARC
  8
_0-1_線色１__水色__
  6
CONTINUOUS
 62
    4
 10
980.56694825047543
 20
714.0646377457108
 40
1.2083333333333179
 50
127.52351320610693
 51
52.47648680188081
  0
ARC
  8
_0-1_線色１__水色__
  6
CONTINUOUS
 62
    4
 10
959.95950622968849
 20
714.06463774489225
 40
1.2083333333333179
 50
127.52351320610693
 51
52.47648680188081
  0
ARC
  8
_0-1_線色１__水色__
  6
CONTINUOUS
 62
    4
 10
957.01558594100788
 20
714.06463774468534
 40
1.2083333333333179
 50
127.52351320610693
 51
52.47648680188081
  0
ARC
  8
_0-1_線色１__水色__
  6
CONTINUOUS
 62
    4
 10
958.48754608521631
 20
715.9813044114901
 40
1.2083333333333581
 50
307.52351320333912
 51
232.47648680464988
  0
ARC
  8
_0-1_線色１__水色__
  6
CONTINUOUS
 62
    4
 10
962.90342651837364
 20
714.06463774509689
 40
1.2083333333333179
 50
127.52351320610693
 51
52.47648680188081
  0
ARC
  8
_0-1_線色１__水色__
  6
CONTINUOUS
 62
    4
 10
961.43146637389691
 20
715.98130441169701
 40
1.2083333333333581
 50
307.52351320333912
 51
232.47648680464988
  0
ARC
  8
_0-1_線色１__水色__
  6
CONTINUOUS
 62
    4
 10
965.84734680705878
 20
714.06463774530152
 40
1.2083333333333179
 50
127.52351320610693
 51
52.47648680188081
  0
ARC
  8
_0-1_線色１__水色__
  6
CONTINUOUS
 62
    4
 10
964.37538666258206
 20
715.98130441190165
 40
1.2083333333333581
 50
307.52351320333912
 51
232.47648680464988
  0
ARC
  8
_0-1_線色１__水色__
  6
CONTINUOUS
 62
    4
 10
968.79126709573939
 20
714.06463774550616
 40
1.2083333333333179
 50
127.52351320610693
 51
52.47648680188081
  0
ARC
  8
_0-1_線色１__水色__
  6
CONTINUOUS
 62
    4
 10
967.31930695126721
 20
715.98130441210628
 40
1.2083333333333581
 50
307.52351320333912
 51
232.47648680464988
  0
ARC
  8
_0-1_線色１__水色__
  6
CONTINUOUS
 62
    4
 10
971.73518738442453
 20
714.0646377457108
 40
1.2083333333333179
 50
127.52351320610693
 51
52.47648680188081
  0
ARC
  8
_0-1_線色１__水色__
  6
CONTINUOUS
 62
    4
 10
970.26322723994781
 20
715.98130441231092
 40
1.2083333333333581
 50
307.52351320333912
 51
232.47648680464988
  0
ARC
  8
_0-1_線色１__水色__
  6
CONTINUOUS
 62
    4
 10
974.67910767310741
 20
714.06463774591771
 40
1.2083333333333179
 50
127.52351320610693
 51
52.47648680188081
  0
ARC
  8
_0-1_線色１__水色__
  6
CONTINUOUS
 62
    4
 10
973.20714752863296
 20
715.98130441251783
 40
1.2083333333333581
 50
307.52351320333912
 51
232.47648680464988
  0
ARC
  8
_0-1_線色１__水色__
  6
CONTINUOUS
 62
    4
 10
977.62302796179029
 20
714.06463774612234
 40
1.2083333333333179
 50
127.52351320610693
 51
52.47648680188081
  0
ARC
  8
_0-1_線色１__水色__
  6
CONTINUOUS
 62
    4
 10
976.15106781731583
 20
715.98130441272247
 40
1.2083333333333581
 50
307.52351320333912
 51
232.47648680464988
  0
ARC
  8
_0-1_線色１__水色__
  6
CONTINUOUS
 62
    4
 10
929.04834319838301
 20
715.98130441005537
 40
1.2083333333333581
 50
307.52351320333912
 51
232.47648680464988
  0
ARC
  8
_0-1_線色１__水色__
  6
CONTINUOUS
 62
    4
 10
952.59970550785056
 20
715.98130441108083
 40
1.2083333333333581
 50
307.52351320333912
 51
232.47648680464988
  0
ARC
  8
_0-1_線色１__水色__
  6
CONTINUOUS
 62
    4
 10
954.07166565232501
 20
714.06463774448071
 40
1.2083333333333179
 50
127.52351320610693
 51
52.47648680188081
  0
ARC
  8
_0-1_線色１__水色__
  6
CONTINUOUS
 62
    4
 10
933.46422363154261
 20
714.06463774365989
 40
1.2083333333333179
 50
127.52351320610693
 51
52.47648680188081
  0
ARC
  8
_0-1_線色１__水色__
  6
CONTINUOUS
 62
    4
 10
930.52030334285519
 20
714.06463774345525
 40
1.2083333333333179
 50
127.52351320610693
 51
52.47648680188081
  0
ARC
  8
_0-1_線色１__水色__
  6
CONTINUOUS
 62
    4
 10
931.99226348706361
 20
715.98130441026001
 40
1.2083333333333581
 50
307.52351320333912
 51
232.47648680464988
  0
ARC
  8
_0-1_線色１__水色__
  6
CONTINUOUS
 62
    4
 10
936.40814392022548
 20
714.06463774386452
 40
1.2083333333333179
 50
127.52351320610693
 51
52.47648680188081
  0
ARC
  8
_0-1_線色１__水色__
  6
CONTINUOUS
 62
    4
 10
934.93618377574876
 20
715.98130441046465
 40
1.2083333333333581
 50
307.52351320333912
 51
232.47648680464988
  0
ARC
  8
_0-1_線色１__水色__
  6
CONTINUOUS
 62
    4
 10
939.35206420890609
 20
714.06463774407143
 40
1.2083333333333179
 50
127.52351320610693
 51
52.47648680188081
  0
ARC
  8
_0-1_線色１__水色__
  6
CONTINUOUS
 62
    4
 10
937.88010406443391
 20
715.98130441066928
 40
1.2083333333333581
 50
307.52351320333912
 51
232.47648680464988
  0
ARC
  8
_0-1_線色１__水色__
  6
CONTINUOUS
 62
    4
 10
942.29598449759123
 20
714.06463774427607
 40
1.2083333333333179
 50
127.52351320610693
 51
52.47648680188081
  0
ARC
  8
_0-1_線色１__水色__
  6
CONTINUOUS
 62
    4
 10
940.82402435311451
 20
715.98130441087619
 40
1.2083333333333581
 50
307.52351320333912
 51
232.47648680464988
  0
ARC
  8
_0-1_線色１__水色__
  6
CONTINUOUS
 62
    4
 10
945.23990478627411
 20
714.06463774448071
 40
1.2083333333333179
 50
127.52351320610693
 51
52.47648680188081
  0
ARC
  8
_0-1_線色１__水色__
  6
CONTINUOUS
 62
    4
 10
943.76794464179966
 20
715.98130441108083
 40
1.2083333333333581
 50
307.52351320333912
 51
232.47648680464988
  0
ARC
  8
_0-1_線色１__水色__
  6
CONTINUOUS
 62
    4
 10
948.18382507495699
 20
714.06463774468534
 40
1.2083333333333179
 50
127.52351320610693
 51
52.47648680188081
  0
ARC
  8
_0-1_線色１__水色__
  6
CONTINUOUS
 62
    4
 10
946.71186493048253
 20
715.98130441128546
 40
1.2083333333333581
 50
307.52351320333912
 51
232.47648680464988
  0
ARC
  8
_0-1_線色１__水色__
  6
CONTINUOUS
 62
    4
 10
951.12774536364213
 20
714.06463774489225
 40
1.2083333333333179
 50
127.52351320610693
 51
52.47648680188081
  0
ARC
  8
_0-1_線色１__水色__
  6
CONTINUOUS
 62
    4
 10
949.65578521916541
 20
715.9813044114901
 40
1.2083333333333581
 50
307.52351320333912
 51
232.47648680464988
  0
ARC
  8
_0-1_線色１__水色__
  6
CONTINUOUS
 62
    4
 10
995.2865496938648
 20
714.06463774675672
 40
1.2083333333333179
 50
127.52351320610693
 51
52.47648680188081
  0
ARC
  8
_0-1_線色１__水色__
  6
CONTINUOUS
 62
    4
 10
984.98282868334172
 20
715.98130441274066
 40
1.2083333333333581
 50
307.52351320333912
 51
232.47648680464988
  0
ARC
  8
_0-1_線色１__水色__
  6
CONTINUOUS
 62
    4
 10
989.39870911650132
 20
714.06463774634517
 40
1.2083333333333179
 50
127.52351320610693
 51
52.47648680188081
  0
ARC
  8
_0-1_線色１__水色__
  6
CONTINUOUS
 62
    4
 10
986.45478882781845
 20
714.06463774614053
 40
1.2083333333333179
 50
127.52351320610693
 51
52.47648680188081
  0
ARC
  8
_0-1_線色１__水色__
  6
CONTINUOUS
 62
    4
 10
987.92674897202687
 20
715.98130441294529
 40
1.2083333333333581
 50
307.52351320333912
 51
232.47648680464988
  0
ARC
  8
_0-1_線色１__水色__
  6
CONTINUOUS
 62
    4
 10
992.3426294051842
 20
714.06463774654981
 40
1.2083333333333179
 50
127.52351320610693
 51
52.47648680188081
  0
ARC
  8
_0-1_線色１__水色__
  6
CONTINUOUS
 62
    4
 10
990.87066926070975
 20
715.98130441314993
 40
1.2083333333333581
 50
307.52351320333912
 51
232.47648680464988
  0
ARC
  8
_0-1_線色１__水色__
  6
CONTINUOUS
 62
    4
 10
993.81458954939262
 20
715.98130441335456
 40
1.2083333333333581
 50
307.52351320333912
 51
232.47648680464988
  0
ARC
  8
_0-1_線色１__水色__
  6
CONTINUOUS
 62
    4
 10
982.03890839465885
 20
715.98130441253375
 40
1.2083333333333581
 50
307.52351320333912
 51
232.47648680464988
  0
ARC
  8
_0-1_線色１__水色__
  6
CONTINUOUS
 62
    4
 10
983.5108685391333
 20
714.0646377459359
 40
1.2083333333333179
 50
127.52351320610693
 51
52.47648680188081
  0
ARC
  8
_0-1_線色１__水色__
  6
CONTINUOUS
 62
    4
 10
1023.2537924362032
 20
715.98130441480976
 40
1.2083333333333581
 50
307.52351320333912
 51
232.47648680464988
  0
ARC
  8
_0-1_線色１__水色__
  6
CONTINUOUS
 62
    4
 10
1027.6696728693605
 20
714.06463774841427
 40
1.2083333333333179
 50
127.52351320610693
 51
52.47648680188081
  0
ARC
  8
_0-1_線色１__水色__
  6
CONTINUOUS
 62
    4
 10
1024.7257525806776
 20
714.06463774820963
 40
1.2083333333333179
 50
127.52351320610693
 51
52.47648680188081
  0
ARC
  8
_0-1_線色１__水色__
  6
CONTINUOUS
 62
    4
 10
1026.1977127248861
 20
715.98130441501439
 40
1.2083333333333581
 50
307.52351320333912
 51
232.47648680464988
  0
ARC
  8
_0-1_線色１__水色__
  6
CONTINUOUS
 62
    4
 10
1030.6135931580457
 20
714.06463774862118
 40
1.2083333333333179
 50
127.52351320610693
 51
52.47648680188081
  0
ARC
  8
_0-1_線色１__水色__
  6
CONTINUOUS
 62
    4
 10
1029.1416330135689
 20
715.98130441521903
 40
1.2083333333333581
 50
307.52351320333912
 51
232.47648680464988
  0
ARC
  8
_0-1_線色１__水色__
  6
CONTINUOUS
 62
    4
 10
1033.5575134467285
 20
714.06463774882582
 40
1.2083333333333179
 50
127.52351320610693
 51
52.47648680188081
  0
ARC
  8
_0-1_線色１__水色__
  6
CONTINUOUS
 62
    4
 10
1032.0855533022541
 20
715.98130441542594
 40
1.2083333333333581
 50
307.52351320333912
 51
232.47648680464988
  0
ARC
  8
_0-1_線色１__水色__
  6
CONTINUOUS
 62
    4
 10
1036.5014337354114
 20
714.06463774903045
 40
1.2083333333333179
 50
127.52351320610693
 51
52.47648680188081
  0
ARC
  8
_0-1_線色１__水色__
  6
CONTINUOUS
 62
    4
 10
1035.029473590937
 20
715.98130441563058
 40
1.2083333333333581
 50
307.52351320333912
 51
232.47648680464988
  0
ARC
  8
_0-1_線色１__水色__
  6
CONTINUOUS
 62
    4
 10
1039.445354024092
 20
714.06463774923509
 40
1.2083333333333179
 50
127.52351320610693
 51
52.47648680188081
  0
ARC
  8
_0-1_線色１__水色__
  6
CONTINUOUS
 62
    4
 10
1037.9733938796198
 20
715.98130441583521
 40
1.2083333333333581
 50
307.52351320333912
 51
232.47648680464988
  0
ARC
  8
_0-1_線色１__水色__
  6
CONTINUOUS
 62
    4
 10
1042.3892743127794
 20
714.06463774943973
 40
1.2083333333333179
 50
127.52351320610693
 51
52.47648680188081
  0
ARC
  8
_0-1_線色１__水色__
  6
CONTINUOUS
 62
    4
 10
1040.9173141683004
 20
715.98130441603985
 40
1.2083333333333581
 50
307.52351320333912
 51
232.47648680464988
  0
ARC
  8
_0-1_線色１__水色__
  6
CONTINUOUS
 62
    4
 10
1043.8612344569856
 20
715.98130441624676
 40
1.2083333333333581
 50
307.52351320333912
 51
232.47648680464988
  0
ARC
  8
_0-1_線色１__水色__
  6
CONTINUOUS
 62
    4
 10
996.75850983805276
 20
715.98130441357739
 40
1.2083333333333581
 50
307.52351320333912
 51
232.47648680464988
  0
ARC
  8
_0-1_線色１__水色__
  6
CONTINUOUS
 62
    4
 10
1020.309872147518
 20
715.98130441460512
 40
1.2083333333333581
 50
307.52351320333912
 51
232.47648680464988
  0
ARC
  8
_0-1_線色１__水色__
  6
CONTINUOUS
 62
    4
 10
1021.7818322919948
 20
714.064637748005
 40
1.2083333333333179
 50
127.52351320610693
 51
52.47648680188081
  0
ARC
  8
_0-1_線色１__水色__
  6
CONTINUOUS
 62
    4
 10
1001.1743902712124
 20
714.06463774718418
 40
1.2083333333333179
 50
127.52351320610693
 51
52.47648680188081
  0
ARC
  8
_0-1_線色１__水色__
  6
CONTINUOUS
 62
    4
 10
998.23046998252721
 20
714.06463774697954
 40
1.2083333333333179
 50
127.52351320610693
 51
52.47648680188081
  0
ARC
  8
_0-1_線色１__水色__
  6
CONTINUOUS
 62
    4
 10
999.70243012673563
 20
715.9813044137843
 40
1.2083333333333581
 50
307.52351320333912
 51
232.47648680464988
  0
ARC
  8
_0-1_線色１__水色__
  6
CONTINUOUS
 62
    4
 10
1004.1183105598952
 20
714.06463774738882
 40
1.2083333333333179
 50
127.52351320610693
 51
52.47648680188081
  0
ARC
  8
_0-1_線色１__水色__
  6
CONTINUOUS
 62
    4
 10
1002.6463504154208
 20
715.98130441398894
 40
1.2083333333333581
 50
307.52351320333912
 51
232.47648680464988
  0
ARC
  8
_0-1_線色１__水色__
  6
CONTINUOUS
 62
    4
 10
1007.0622308485781
 20
714.06463774759345
 40
1.2083333333333179
 50
127.52351320610693
 51
52.47648680188081
  0
ARC
  8
_0-1_線色１__水色__
  6
CONTINUOUS
 62
    4
 10
1005.5902707041037
 20
715.98130441419357
 40
1.2083333333333581
 50
307.52351320333912
 51
232.47648680464988
  0
ARC
  8
_0-1_線色１__水色__
  6
CONTINUOUS
 62
    4
 10
1010.0061511372587
 20
714.06463774780036
 40
1.2083333333333179
 50
127.52351320610693
 51
52.47648680188081
  0
ARC
  8
_0-1_線色１__水色__
  6
CONTINUOUS
 62
    4
 10
1008.5341909927865
 20
715.98130441439821
 40
1.2083333333333581
 50
307.52351320333912
 51
232.47648680464988
  0
ARC
  8
_0-1_線色１__水色__
  6
CONTINUOUS
 62
    4
 10
1012.9500714259461
 20
714.064637748005
 40
1.2083333333333179
 50
127.52351320610693
 51
52.47648680188081
  0
ARC
  8
_0-1_線色１__水色__
  6
CONTINUOUS
 62
    4
 10
1011.4781112814671
 20
715.98130441460512
 40
1.2083333333333581
 50
307.52351320333912
 51
232.47648680464988
  0
ARC
  8
_0-1_線色１__水色__
  6
CONTINUOUS
 62
    4
 10
1015.893991714629
 20
714.06463774820963
 40
1.2083333333333179
 50
127.52351320610693
 51
52.47648680188081
  0
ARC
  8
_0-1_線色１__水色__
  6
CONTINUOUS
 62
    4
 10
1014.4220315701523
 20
715.98130441480976
 40
1.2083333333333581
 50
307.52351320333912
 51
232.47648680464988
  0
ARC
  8
_0-1_線色１__水色__
  6
CONTINUOUS
 62
    4
 10
1018.8379120033096
 20
714.06463774841427
 40
1.2083333333333179
 50
127.52351320610693
 51
52.47648680188081
  0
ARC
  8
_0-1_線色１__水色__
  6
CONTINUOUS
 62
    4
 10
1017.3659518588374
 20
715.98130441501439
 40
1.2083333333333581
 50
307.52351320333912
 51
232.47648680464988
  0
ARC
  8
_0-1_線色１__水色__
  6
CONTINUOUS
 62
    4
 10
1062.9967163335368
 20
714.06463775027873
 40
1.2083333333333179
 50
127.52351320610693
 51
52.47648680188081
  0
ARC
  8
_0-1_線色１__水色__
  6
CONTINUOUS
 62
    4
 10
1057.1088757561711
 20
714.06463774986946
 40
1.2083333333333179
 50
127.52351320610693
 51
52.47648680188081
  0
ARC
  8
_0-1_線色１__水色__
  6
CONTINUOUS
 62
    4
 10
1055.6369156116943
 20
715.98130441646958
 40
1.2083333333333581
 50
307.52351320333912
 51
232.47648680464988
  0
ARC
  8
_0-1_線色１__水色__
  6
CONTINUOUS
 62
    4
 10
1060.0527960448562
 20
714.0646377500741
 40
1.2083333333333179
 50
127.52351320610693
 51
52.47648680188081
  0
ARC
  8
_0-1_線色１__水色__
  6
CONTINUOUS
 62
    4
 10
1058.5808359003795
 20
715.98130441667422
 40
1.2083333333333581
 50
307.52351320333912
 51
232.47648680464988
  0
ARC
  8
_0-1_線色１__水色__
  6
CONTINUOUS
 62
    4
 10
1061.5247561890624
 20
715.98130441687886
 40
1.2083333333333581
 50
307.52351320333912
 51
232.47648680464988
  0
ARC
  8
_0-1_線色１__水色__
  6
CONTINUOUS
 62
    4
 10
1090.9639590758729
 20
715.98130441833405
 40
1.2083333333333581
 50
307.52351320333912
 51
232.47648680464988
  0
ARC
  8
_0-1_線色１__水色__
  6
CONTINUOUS
 62
    4
 10
1114.5153213853405
 20
715.9813044193595
 40
1.2083333333333581
 50
307.52351320333912
 51
232.47648680464988
  0
ARC
  8
_0-1_線色１__水色__
  6
CONTINUOUS
 62
    4
 10
1115.9872815298149
 20
714.06463775275938
 40
1.2083333333333179
 50
127.52351320610693
 51
52.47648680188081
  0
ARC
  8
_0-1_線色１__水色__
  6
CONTINUOUS
 62
    4
 10
1095.3798395090325
 20
714.06463775193856
 40
1.2083333333333179
 50
127.52351320610693
 51
52.47648680188081
  0
ARC
  8
_0-1_線色１__水色__
  6
CONTINUOUS
 62
    4
 10
1092.4359192203497
 20
714.06463775173393
 40
1.2083333333333179
 50
127.52351320610693
 51
52.47648680188081
  0
ARC
  8
_0-1_線色１__水色__
  6
CONTINUOUS
 62
    4
 10
1093.9078793645581
 20
715.98130441853868
 40
1.2083333333333581
 50
307.52351320333912
 51
232.47648680464988
  0
ARC
  8
_0-1_線色１__水色__
  6
CONTINUOUS
 62
    4
 10
1098.3237597977154
 20
714.06463775214547
 40
1.2083333333333179
 50
127.52351320610693
 51
52.47648680188081
  0
ARC
  8
_0-1_線色１__水色__
  6
CONTINUOUS
 62
    4
 10
1096.851799653241
 20
715.98130441874332
 40
1.2083333333333581
 50
307.52351320333912
 51
232.47648680464988
  0
ARC
  8
_0-1_線色１__水色__
  6
CONTINUOUS
 62
    4
 10
1101.2676800863983
 20
714.06463775235011
 40
1.2083333333333179
 50
127.52351320610693
 51
52.47648680188081
  0
ARC
  8
_0-1_線色１__水色__
  6
CONTINUOUS
 62
    4
 10
1099.7957199419238
 20
715.98130441895023
 40
1.2083333333333581
 50
307.52351320333912
 51
232.47648680464988
  0
ARC
  8
_0-1_線色１__水色__
  6
CONTINUOUS
 62
    4
 10
1104.2116003750834
 20
714.06463775255475
 40
1.2083333333333179
 50
127.52351320610693
 51
52.47648680188081
  0
ARC
  8
_0-1_線色１__水色__
  6
CONTINUOUS
 62
    4
 10
1102.7396402306067
 20
715.98130441915487
 40
1.2083333333333581
 50
307.52351320333912
 51
232.47648680464988
  0
ARC
  8
_0-1_線色１__水色__
  6
CONTINUOUS
 62
    4
 10
1107.1555206637663
 20
714.06463775275938
 40
1.2083333333333179
 50
127.52351320610693
 51
52.47648680188081
  0
ARC
  8
_0-1_線色１__水色__
  6
CONTINUOUS
 62
    4
 10
1105.6835605192919
 20
715.9813044193595
 40
1.2083333333333581
 50
307.52351320333912
 51
232.47648680464988
  0
ARC
  8
_0-1_線色１__水色__
  6
CONTINUOUS
 62
    4
 10
1110.0994409524492
 20
714.06463775296402
 40
1.2083333333333179
 50
127.52351320610693
 51
52.47648680188081
  0
ARC
  8
_0-1_線色１__水色__
  6
CONTINUOUS
 62
    4
 10
1108.6274808079747
 20
715.98130441956414
 40
1.2083333333333581
 50
307.52351320333912
 51
232.47648680464988
  0
ARC
  8
_0-1_線色１__水色__
  6
CONTINUOUS
 62
    4
 10
1113.0433612411321
 20
714.06463775317093
 40
1.2083333333333179
 50
127.52351320610693
 51
52.47648680188081
  0
ARC
  8
_0-1_線色１__水色__
  6
CONTINUOUS
 62
    4
 10
1111.5714010966576
 20
715.98130441977105
 40
1.2083333333333581
 50
307.52351320333912
 51
232.47648680464988
  0
ARC
  8
_0-1_線色１__水色__
  6
CONTINUOUS
 62
    4
 10
1064.4686764777248
 20
715.98130441710168
 40
1.2083333333333581
 50
307.52351320333912
 51
232.47648680464988
  0
ARC
  8
_0-1_線色１__水色__
  6
CONTINUOUS
 62
    4
 10
1088.0200387871901
 20
715.98130441812941
 40
1.2083333333333581
 50
307.52351320333912
 51
232.47648680464988
  0
ARC
  8
_0-1_線色１__水色__
  6
CONTINUOUS
 62
    4
 10
1089.4919989316668
 20
714.06463775152929
 40
1.2083333333333179
 50
127.52351320610693
 51
52.47648680188081
  0
ARC
  8
_0-1_線色１__水色__
  6
CONTINUOUS
 62
    4
 10
1068.8845569108821
 20
714.06463775070847
 40
1.2083333333333179
 50
127.52351320610693
 51
52.47648680188081
  0
ARC
  8
_0-1_線色１__水色__
  6
CONTINUOUS
 62
    4
 10
1065.9406366221992
 20
714.06463775050383
 40
1.2083333333333179
 50
127.52351320610693
 51
52.47648680188081
  0
ARC
  8
_0-1_線色１__水色__
  6
CONTINUOUS
 62
    4
 10
1067.4125967664077
 20
715.98130441730859
 40
1.2083333333333581
 50
307.52351320333912
 51
232.47648680464988
  0
ARC
  8
_0-1_線色１__水色__
  6
CONTINUOUS
 62
    4
 10
1071.828477199565
 20
714.06463775091311
 40
1.2083333333333179
 50
127.52351320610693
 51
52.47648680188081
  0
ARC
  8
_0-1_線色１__水色__
  6
CONTINUOUS
 62
    4
 10
1070.3565170550905
 20
715.98130441751323
 40
1.2083333333333581
 50
307.52351320333912
 51
232.47648680464988
  0
ARC
  8
_0-1_線色１__水色__
  6
CONTINUOUS
 62
    4
 10
1074.7723974882501
 20
714.06463775111774
 40
1.2083333333333179
 50
127.52351320610693
 51
52.47648680188081
  0
ARC
  8
_0-1_線色１__水色__
  6
CONTINUOUS
 62
    4
 10
1073.3004373437734
 20
715.98130441771787
 40
1.2083333333333581
 50
307.52351320333912
 51
232.47648680464988
  0
ARC
  8
_0-1_線色１__水色__
  6
CONTINUOUS
 62
    4
 10
1077.716317776933
 20
714.06463775132465
 40
1.2083333333333179
 50
127.52351320610693
 51
52.47648680188081
  0
ARC
  8
_0-1_線色１__水色__
  6
CONTINUOUS
 62
    4
 10
1076.2443576324586
 20
715.9813044179225
 40
1.2083333333333581
 50
307.52351320333912
 51
232.47648680464988
  0
ARC
  8
_0-1_線色１__水色__
  6
CONTINUOUS
 62
    4
 10
1080.6602380656159
 20
714.06463775152929
 40
1.2083333333333179
 50
127.52351320610693
 51
52.47648680188081
  0
ARC
  8
_0-1_線色１__水色__
  6
CONTINUOUS
 62
    4
 10
1079.1882779211414
 20
715.98130441812941
 40
1.2083333333333581
 50
307.52351320333912
 51
232.47648680464988
  0
ARC
  8
_0-1_線色１__水色__
  6
CONTINUOUS
 62
    4
 10
1083.6041583542988
 20
714.06463775173393
 40
1.2083333333333179
 50
127.52351320610693
 51
52.47648680188081
  0
ARC
  8
_0-1_線色１__水色__
  6
CONTINUOUS
 62
    4
 10
1082.1321982098243
 20
715.98130441833405
 40
1.2083333333333581
 50
307.52351320333912
 51
232.47648680464988
  0
ARC
  8
_0-1_線色１__水色__
  6
CONTINUOUS
 62
    4
 10
1086.5480786429839
 20
714.06463775193856
 40
1.2083333333333179
 50
127.52351320610693
 51
52.47648680188081
  0
ARC
  8
_0-1_線色１__水色__
  6
CONTINUOUS
 62
    4
 10
1085.0761184985072
 20
715.98130441853868
 40
1.2083333333333581
 50
307.52351320333912
 51
232.47648680464988
  0
ARC
  8
_0-1_線色１__水色__
  6
CONTINUOUS
 62
    4
 10
1130.7068829732088
 20
714.06463775380303
 40
1.2083333333333179
 50
127.52351320610693
 51
52.47648680188081
  0
ARC
  8
_0-1_線色１__水色__
  6
CONTINUOUS
 62
    4
 10
1120.4031619626835
 20
715.98130441978697
 40
1.2083333333333581
 50
307.52351320333912
 51
232.47648680464988
  0
ARC
  8
_0-1_線色１__水色__
  6
CONTINUOUS
 62
    4
 10
1124.8190423958431
 20
714.06463775339375
 40
1.2083333333333179
 50
127.52351320610693
 51
52.47648680188081
  0
ARC
  8
_0-1_線色１__水色__
  6
CONTINUOUS
 62
    4
 10
1121.8751221071602
 20
714.06463775318684
 40
1.2083333333333179
 50
127.52351320610693
 51
52.47648680188081
  0
ARC
  8
_0-1_線色１__水色__
  6
CONTINUOUS
 62
    4
 10
1123.3470822513686
 20
715.9813044199916
 40
1.2083333333333581
 50
307.52351320333912
 51
232.47648680464988
  0
ARC
  8
_0-1_線色１__水色__
  6
CONTINUOUS
 62
    4
 10
1127.762962684526
 20
714.06463775359839
 40
1.2083333333333179
 50
127.52351320610693
 51
52.47648680188081
  0
ARC
  8
_0-1_線色１__水色__
  6
CONTINUOUS
 62
    4
 10
1126.2910025400515
 20
715.98130442019851
 40
1.2083333333333581
 50
307.52351320333912
 51
232.47648680464988
  0
ARC
  8
_0-1_線色１__水色__
  6
CONTINUOUS
 62
    4
 10
1129.2349228287344
 20
715.98130442040315
 40
1.2083333333333581
 50
307.52351320333912
 51
232.47648680464988
  0
ARC
  8
_0-1_線色１__水色__
  6
CONTINUOUS
 62
    4
 10
1117.4592416740006
 20
715.98130441958233
 40
1.2083333333333581
 50
307.52351320333912
 51
232.47648680464988
  0
ARC
  8
_0-1_線色１__水色__
  6
CONTINUOUS
 62
    4
 10
1118.9312018184751
 20
714.06463775298221
 40
1.2083333333333179
 50
127.52351320610693
 51
52.47648680188081
  0
ARC
  8
_0-1_線色１__水色__
  6
CONTINUOUS
 62
    4
 10
1158.674125715545
 20
715.98130442185834
 40
1.2083333333333581
 50
307.52351320333912
 51
232.47648680464988
  0
ARC
  8
_0-1_線色１__水色__
  6
CONTINUOUS
 62
    4
 10
1182.2254880250102
 20
715.9813044228838
 40
1.2083333333333581
 50
307.52351320333912
 51
232.47648680464988
  0
ARC
  8
_0-1_線色１__水色__
  6
CONTINUOUS
 62
    4
 10
1183.697448169487
 20
714.06463775628367
 40
1.2083333333333179
 50
127.52351320610693
 51
52.47648680188081
  0
ARC
  8
_0-1_線色１__水色__
  6
CONTINUOUS
 62
    4
 10
1163.0900061487023
 20
714.06463775546285
 40
1.2083333333333179
 50
127.52351320610693
 51
52.47648680188081
  0
ARC
  8
_0-1_線色１__水色__
  6
CONTINUOUS
 62
    4
 10
1160.1460858600194
 20
714.06463775525822
 40
1.2083333333333179
 50
127.52351320610693
 51
52.47648680188081
  0
ARC
  8
_0-1_線色１__水色__
  6
CONTINUOUS
 62
    4
 10
1161.6180460042278
 20
715.98130442206298
 40
1.2083333333333581
 50
307.52351320333912
 51
232.47648680464988
  0
ARC
  8
_0-1_線色１__水色__
  6
CONTINUOUS
 62
    4
 10
1166.0339264373874
 20
714.06463775566749
 40
1.2083333333333179
 50
127.52351320610693
 51
52.47648680188081
  0
ARC
  8
_0-1_線色１__水色__
  6
CONTINUOUS
 62
    4
 10
1164.5619662929107
 20
715.98130442226761
 40
1.2083333333333581
 50
307.52351320333912
 51
232.47648680464988
  0
ARC
  8
_0-1_線色１__水色__
  6
CONTINUOUS
 62
    4
 10
1168.9778467260703
 20
714.0646377558744
 40
1.2083333333333179
 50
127.52351320610693
 51
52.47648680188081
  0
ARC
  8
_0-1_線色１__水色__
  6
CONTINUOUS
 62
    4
 10
1167.5058865815936
 20
715.98130442247225
 40
1.2083333333333581
 50
307.52351320333912
 51
232.47648680464988
  0
ARC
  8
_0-1_線色１__水色__
  6
CONTINUOUS
 62
    4
 10
1171.9217670147532
 20
714.06463775607904
 40
1.2083333333333179
 50
127.52351320610693
 51
52.47648680188081
  0
ARC
  8
_0-1_線色１__水色__
  6
CONTINUOUS
 62
    4
 10
1170.4498068702787
 20
715.98130442267916
 40
1.2083333333333581
 50
307.52351320333912
 51
232.47648680464988
  0
ARC
  8
_0-1_線色１__水色__
  6
CONTINUOUS
 62
    4
 10
1174.8656873034361
 20
714.06463775628367
 40
1.2083333333333179
 50
127.52351320610693
 51
52.47648680188081
  0
ARC
  8
_0-1_線色１__水色__
  6
CONTINUOUS
 62
    4
 10
1173.3937271589616
 20
715.9813044228838
 40
1.2083333333333581
 50
307.52351320333912
 51
232.47648680464988
  0
ARC
  8
_0-1_線色１__水色__
  6
CONTINUOUS
 62
    4
 10
1177.8096075921189
 20
714.06463775648831
 40
1.2083333333333179
 50
127.52351320610693
 51
52.47648680188081
  0
ARC
  8
_0-1_線色１__水色__
  6
CONTINUOUS
 62
    4
 10
1176.3376474476445
 20
715.98130442308843
 40
1.2083333333333581
 50
307.52351320333912
 51
232.47648680464988
  0
ARC
  8
_0-1_線色１__水色__
  6
CONTINUOUS
 62
    4
 10
1180.7535278808041
 20
714.06463775669295
 40
1.2083333333333179
 50
127.52351320610693
 51
52.47648680188081
  0
ARC
  8
_0-1_線色１__水色__
  6
CONTINUOUS
 62
    4
 10
1179.2815677363274
 20
715.98130442329307
 40
1.2083333333333581
 50
307.52351320333912
 51
232.47648680464988
  0
ARC
  8
_0-1_線色１__水色__
  6
CONTINUOUS
 62
    4
 10
1132.1788431173945
 20
715.98130442062597
 40
1.2083333333333581
 50
307.52351320333912
 51
232.47648680464988
  0
ARC
  8
_0-1_線色１__水色__
  6
CONTINUOUS
 62
    4
 10
1155.7302054268621
 20
715.98130442165143
 40
1.2083333333333581
 50
307.52351320333912
 51
232.47648680464988
  0
ARC
  8
_0-1_線色１__水色__
  6
CONTINUOUS
 62
    4
 10
1157.2021655713365
 20
714.06463775505358
 40
1.2083333333333179
 50
127.52351320610693
 51
52.47648680188081
  0
ARC
  8
_0-1_線色１__水色__
  6
CONTINUOUS
 62
    4
 10
1136.5947235505541
 20
714.06463775423276
 40
1.2083333333333179
 50
127.52351320610693
 51
52.47648680188081
  0
ARC
  8
_0-1_線色１__水色__
  6
CONTINUOUS
 62
    4
 10
1133.650803261869
 20
714.06463775402585
 40
1.2083333333333179
 50
127.52351320610693
 51
52.47648680188081
  0
ARC
  8
_0-1_線色１__水色__
  6
CONTINUOUS
 62
    4
 10
1135.1227634060774
 20
715.98130442083061
 40
1.2083333333333581
 50
307.52351320333912
 51
232.47648680464988
  0
ARC
  8
_0-1_線色１__水色__
  6
CONTINUOUS
 62
    4
 10
1139.538643839237
 20
714.0646377544374
 40
1.2083333333333179
 50
127.52351320610693
 51
52.47648680188081
  0
ARC
  8
_0-1_線色１__水色__
  6
CONTINUOUS
 62
    4
 10
1138.0666836947603
 20
715.98130442103752
 40
1.2083333333333581
 50
307.52351320333912
 51
232.47648680464988
  0
ARC
  8
_0-1_線色１__水色__
  6
CONTINUOUS
 62
    4
 10
1142.4825641279199
 20
714.06463775464204
 40
1.2083333333333179
 50
127.52351320610693
 51
52.47648680188081
  0
ARC
  8
_0-1_線色１__水色__
  6
CONTINUOUS
 62
    4
 10
1141.0106039834454
 20
715.98130442124216
 40
1.2083333333333581
 50
307.52351320333912
 51
232.47648680464988
  0
ARC
  8
_0-1_線色１__水色__
  6
CONTINUOUS
 62
    4
 10
1145.4264844166028
 20
714.06463775484667
 40
1.2083333333333179
 50
127.52351320610693
 51
52.47648680188081
  0
ARC
  8
_0-1_線色１__水色__
  6
CONTINUOUS
 62
    4
 10
1143.9545242721283
 20
715.98130442144679
 40
1.2083333333333581
 50
307.52351320333912
 51
232.47648680464988
  0
ARC
  8
_0-1_線色１__水色__
  6
CONTINUOUS
 62
    4
 10
1148.3704047052856
 20
714.06463775505358
 40
1.2083333333333179
 50
127.52351320610693
 51
52.47648680188081
  0
ARC
  8
_0-1_線色１__水色__
  6
CONTINUOUS
 62
    4
 10
1146.8984445608112
 20
715.98130442165143
 40
1.2083333333333581
 50
307.52351320333912
 51
232.47648680464988
  0
ARC
  8
_0-1_線色１__水色__
  6
CONTINUOUS
 62
    4
 10
1151.3143249939708
 20
714.06463775525822
 40
1.2083333333333179
 50
127.52351320610693
 51
52.47648680188081
  0
ARC
  8
_0-1_線色１__水色__
  6
CONTINUOUS
 62
    4
 10
1149.8423648494941
 20
715.98130442185834
 40
1.2083333333333581
 50
307.52351320333912
 51
232.47648680464988
  0
ARC
  8
_0-1_線色１__水色__
  6
CONTINUOUS
 62
    4
 10
1154.2582452826537
 20
714.06463775546285
 40
1.2083333333333179
 50
127.52351320610693
 51
52.47648680188081
  0
ARC
  8
_0-1_線色１__水色__
  6
CONTINUOUS
 62
    4
 10
1152.7862851381769
 20
715.98130442206298
 40
1.2083333333333581
 50
307.52351320333912
 51
232.47648680464988
  0
ARC
  8
_0-1_線色１__水色__
  6
CONTINUOUS
 62
    4
 10
1198.4170496128809
 20
714.06463775732732
 40
1.2083333333333179
 50
127.52351320610693
 51
52.47648680188081
  0
ARC
  8
_0-1_線色１__水色__
  6
CONTINUOUS
 62
    4
 10
1188.1133286023555
 20
715.98130442331126
 40
1.2083333333333581
 50
307.52351320333912
 51
232.47648680464988
  0
ARC
  8
_0-1_線色１__水色__
  6
CONTINUOUS
 62
    4
 10
1192.5292090355128
 20
714.06463775691577
 40
1.2083333333333179
 50
127.52351320610693
 51
52.47648680188081
  0
ARC
  8
_0-1_線色１__水色__
  6
CONTINUOUS
 62
    4
 10
1189.58528874683
 20
714.06463775671114
 40
1.2083333333333179
 50
127.52351320610693
 51
52.47648680188081
  0
ARC
  8
_0-1_線色１__水色__
  6
CONTINUOUS
 62
    4
 10
1191.0572488910384
 20
715.98130442351589
 40
1.2083333333333581
 50
307.52351320333912
 51
232.47648680464988
  0
ARC
  8
_0-1_線色１__水色__
  6
CONTINUOUS
 62
    4
 10
1195.4731293241957
 20
714.06463775712268
 40
1.2083333333333179
 50
127.52351320610693
 51
52.47648680188081
  0
ARC
  8
_0-1_線色１__水色__
  6
CONTINUOUS
 62
    4
 10
1194.0011691797213
 20
715.98130442372053
 40
1.2083333333333581
 50
307.52351320333912
 51
232.47648680464988
  0
ARC
  8
_0-1_線色１__水色__
  6
CONTINUOUS
 62
    4
 10
1196.9450894684041
 20
715.98130442392744
 40
1.2083333333333581
 50
307.52351320333912
 51
232.47648680464988
  0
ARC
  8
_0-1_線色１__水色__
  6
CONTINUOUS
 62
    4
 10
1185.1694083136704
 20
715.98130442310662
 40
1.2083333333333581
 50
307.52351320333912
 51
232.47648680464988
  0
ARC
  8
_0-1_線色１__水色__
  6
CONTINUOUS
 62
    4
 10
1186.6413684581471
 20
714.0646377565065
 40
1.2083333333333179
 50
127.52351320610693
 51
52.47648680188081
  0
ARC
  8
_0-1_線色１__水色__
  6
CONTINUOUS
 62
    4
 10
1226.3842923552147
 20
715.98130442538036
 40
1.2083333333333581
 50
307.52351320333912
 51
232.47648680464988
  0
ARC
  8
_0-1_線色１__水色__
  6
CONTINUOUS
 62
    4
 10
1249.9356546646823
 20
715.98130442640809
 40
1.2083333333333581
 50
307.52351320333912
 51
232.47648680464988
  0
ARC
  8
_0-1_線色１__水色__
  6
CONTINUOUS
 62
    4
 10
1251.4076148091567
 20
714.06463775980797
 40
1.2083333333333179
 50
127.52351320610693
 51
52.47648680188081
  0
ARC
  8
_0-1_線色１__水色__
  6
CONTINUOUS
 62
    4
 10
1230.8001727883743
 20
714.06463775898715
 40
1.2083333333333179
 50
127.52351320610693
 51
52.47648680188081
  0
ARC
  8
_0-1_線色１__水色__
  6
CONTINUOUS
 62
    4
 10
1227.8562524996914
 20
714.06463775878251
 40
1.2083333333333179
 50
127.52351320610693
 51
52.47648680188081
  0
ARC
  8
_0-1_線色１__水色__
  6
CONTINUOUS
 62
    4
 10
1229.3282126438976
 20
715.98130442558727
 40
1.2083333333333581
 50
307.52351320333912
 51
232.47648680464988
  0
ARC
  8
_0-1_線色１__水色__
  6
CONTINUOUS
 62
    4
 10
1233.7440930770572
 20
714.06463775919178
 40
1.2083333333333179
 50
127.52351320610693
 51
52.47648680188081
  0
ARC
  8
_0-1_線色１__水色__
  6
CONTINUOUS
 62
    4
 10
1232.2721329325827
 20
715.9813044257919
 40
1.2083333333333581
 50
307.52351320333912
 51
232.47648680464988
  0
ARC
  8
_0-1_線色１__水色__
  6
CONTINUOUS
 62
    4
 10
1236.6880133657401
 20
714.06463775939642
 40
1.2083333333333179
 50
127.52351320610693
 51
52.47648680188081
  0
ARC
  8
_0-1_線色１__水色__
  6
CONTINUOUS
 62
    4
 10
1235.2160532212656
 20
715.98130442599654
 40
1.2083333333333581
 50
307.52351320333912
 51
232.47648680464988
  0
ARC
  8
_0-1_線色１__水色__
  6
CONTINUOUS
 62
    4
 10
1239.6319336544229
 20
714.06463775960106
 40
1.2083333333333179
 50
127.52351320610693
 51
52.47648680188081
  0
ARC
  8
_0-1_線色１__水色__
  6
CONTINUOUS
 62
    4
 10
1238.1599735099485
 20
715.98130442620118
 40
1.2083333333333581
 50
307.52351320333912
 51
232.47648680464988
  0
ARC
  8
_0-1_線色１__水色__
  6
CONTINUOUS
 62
    4
 10
1242.5758539431081
 20
714.06463775980797
 40
1.2083333333333179
 50
127.52351320610693
 51
52.47648680188081
  0
ARC
  8
_0-1_線色１__水色__
  6
CONTINUOUS
 62
    4
 10
1241.1038937986314
 20
715.98130442640809
 40
1.2083333333333581
 50
307.52351320333912
 51
232.47648680464988
  0
ARC
  8
_0-1_線色１__水色__
  6
CONTINUOUS
 62
    4
 10
1245.519774231791
 20
714.0646377600126
 40
1.2083333333333179
 50
127.52351320610693
 51
52.47648680188081
  0
ARC
  8
_0-1_線色１__水色__
  6
CONTINUOUS
 62
    4
 10
1244.0478140873142
 20
715.98130442661272
 40
1.2083333333333581
 50
307.52351320333912
 51
232.47648680464988
  0
ARC
  8
_0-1_線色１__水色__
  6
CONTINUOUS
 62
    4
 10
1248.4636945204738
 20
714.06463776021724
 40
1.2083333333333179
 50
127.52351320610693
 51
52.47648680188081
  0
ARC
  8
_0-1_線色１__水色__
  6
CONTINUOUS
 62
    4
 10
1246.9917343759994
 20
715.98130442681736
 40
1.2083333333333581
 50
307.52351320333912
 51
232.47648680464988
  0
ARC
  8
_0-1_線色１__水色__
  6
CONTINUOUS
 62
    4
 10
1199.8890097570643
 20
715.98130442415027
 40
1.2083333333333581
 50
307.52351320333912
 51
232.47648680464988
  0
ARC
  8
_0-1_線色１__水色__
  6
CONTINUOUS
 62
    4
 10
1223.4403720665318
 20
715.98130442517572
 40
1.2083333333333581
 50
307.52351320333912
 51
232.47648680464988
  0
ARC
  8
_0-1_線色１__水色__
  6
CONTINUOUS
 62
    4
 10
1224.9123322110063
 20
714.0646377585756
 40
1.2083333333333179
 50
127.52351320610693
 51
52.47648680188081
  0
ARC
  8
_0-1_線色１__水色__
  6
CONTINUOUS
 62
    4
 10
1204.3048901902239
 20
714.06463775775478
 40
1.2083333333333179
 50
127.52351320610693
 51
52.47648680188081
  0
ARC
  8
_0-1_線色１__水色__
  6
CONTINUOUS
 62
    4
 10
1201.360969901541
 20
714.06463775755014
 40
1.2083333333333179
 50
127.52351320610693
 51
52.47648680188081
  0
ARC
  8
_0-1_線色１__水色__
  6
CONTINUOUS
 62
    4
 10
1202.8329300457494
 20
715.9813044243549
 40
1.2083333333333581
 50
307.52351320333912
 51
232.47648680464988
  0
ARC
  8
_0-1_線色１__水色__
  6
CONTINUOUS
 62
    4
 10
1207.2488104789068
 20
714.06463775796169
 40
1.2083333333333179
 50
127.52351320610693
 51
52.47648680188081
  0
ARC
  8
_0-1_線色１__水色__
  6
CONTINUOUS
 62
    4
 10
1205.7768503344323
 20
715.98130442455954
 40
1.2083333333333581
 50
307.52351320333912
 51
232.47648680464988
  0
ARC
  8
_0-1_線色１__水色__
  6
CONTINUOUS
 62
    4
 10
1210.1927307675896
 20
714.06463775816633
 40
1.2083333333333179
 50
127.52351320610693
 51
52.47648680188081
  0
ARC
  8
_0-1_線色１__水色__
  6
CONTINUOUS
 62
    4
 10
1208.7207706231152
 20
715.98130442476645
 40
1.2083333333333581
 50
307.52351320333912
 51
232.47648680464988
  0
ARC
  8
_0-1_線色１__水色__
  6
CONTINUOUS
 62
    4
 10
1213.1366510562748
 20
714.06463775837096
 40
1.2083333333333179
 50
127.52351320610693
 51
52.47648680188081
  0
ARC
  8
_0-1_線色１__水色__
  6
CONTINUOUS
 62
    4
 10
1211.6646909117981
 20
715.98130442497109
 40
1.2083333333333581
 50
307.52351320333912
 51
232.47648680464988
  0
ARC
  8
_0-1_線色１__水色__
  6
CONTINUOUS
 62
    4
 10
1216.0805713449577
 20
714.0646377585756
 40
1.2083333333333179
 50
127.52351320610693
 51
52.47648680188081
  0
ARC
  8
_0-1_線色１__水色__
  6
CONTINUOUS
 62
    4
 10
1214.6086112004832
 20
715.98130442517572
 40
1.2083333333333581
 50
307.52351320333912
 51
232.47648680464988
  0
ARC
  8
_0-1_線色１__水色__
  6
CONTINUOUS
 62
    4
 10
1219.0244916336405
 20
714.06463775878251
 40
1.2083333333333179
 50
127.52351320610693
 51
52.47648680188081
  0
ARC
  8
_0-1_線色１__水色__
  6
CONTINUOUS
 62
    4
 10
1217.5525314891661
 20
715.98130442538036
 40
1.2083333333333581
 50
307.52351320333912
 51
232.47648680464988
  0
ARC
  8
_0-1_線色１__水色__
  6
CONTINUOUS
 62
    4
 10
1221.9684119223234
 20
714.06463775898715
 40
1.2083333333333179
 50
127.52351320610693
 51
52.47648680188081
  0
ARC
  8
_0-1_線色１__水色__
  6
CONTINUOUS
 62
    4
 10
1220.496451777849
 20
715.98130442558727
 40
1.2083333333333581
 50
307.52351320333912
 51
232.47648680464988
  0
ARC
  8
_0-1_線色１__水色__
  6
CONTINUOUS
 62
    4
 10
1266.1272162525506
 20
714.06463776085161
 40
1.2083333333333179
 50
127.52351320610693
 51
52.47648680188081
  0
ARC
  8
_0-1_線色１__水色__
  6
CONTINUOUS
 62
    4
 10
1255.8234952420253
 20
715.98130442683555
 40
1.2083333333333581
 50
307.52351320333912
 51
232.47648680464988
  0
ARC
  8
_0-1_線色１__水色__
  6
CONTINUOUS
 62
    4
 10
1260.2393756751849
 20
714.06463776044006
 40
1.2083333333333179
 50
127.52351320610693
 51
52.47648680188081
  0
ARC
  8
_0-1_線色１__水色__
  6
CONTINUOUS
 62
    4
 10
1257.2954553864997
 20
714.06463776023543
 40
1.2083333333333179
 50
127.52351320610693
 51
52.47648680188081
  0
ARC
  8
_0-1_線色１__水色__
  6
CONTINUOUS
 62
    4
 10
1258.7674155307081
 20
715.98130442704019
 40
1.2083333333333581
 50
307.52351320333912
 51
232.47648680464988
  0
ARC
  8
_0-1_線色１__水色__
  6
CONTINUOUS
 62
    4
 10
1263.1832959638677
 20
714.06463776064697
 40
1.2083333333333179
 50
127.52351320610693
 51
52.47648680188081
  0
ARC
  8
_0-1_線色１__水色__
  6
CONTINUOUS
 62
    4
 10
1261.711335819391
 20
715.98130442724482
 40
1.2083333333333581
 50
307.52351320333912
 51
232.47648680464988
  0
ARC
  8
_0-1_線色１__水色__
  6
CONTINUOUS
 62
    4
 10
1264.6552561080762
 20
715.98130442745173
 40
1.2083333333333581
 50
307.52351320333912
 51
232.47648680464988
  0
ARC
  8
_0-1_線色１__水色__
  6
CONTINUOUS
 62
    4
 10
1252.8795749533424
 20
715.98130442663091
 40
1.2083333333333581
 50
307.52351320333912
 51
232.47648680464988
  0
ARC
  8
_0-1_線色１__水色__
  6
CONTINUOUS
 62
    4
 10
1254.3515350978168
 20
714.06463776003079
 40
1.2083333333333179
 50
127.52351320610693
 51
52.47648680188081
  0
ARC
  8
_0-1_線色１__水色__
  6
CONTINUOUS
 62
    4
 10
1294.0944589948867
 20
715.98130442890465
 40
1.2083333333333581
 50
307.52351320333912
 51
232.47648680464988
  0
ARC
  8
_0-1_線色１__水色__
  6
CONTINUOUS
 62
    4
 10
1317.645821304352
 20
715.98130442993011
 40
1.2083333333333581
 50
307.52351320333912
 51
232.47648680464988
  0
ARC
  8
_0-1_線色１__水色__
  6
CONTINUOUS
 62
    4
 10
1319.1177814488287
 20
714.06463776332998
 40
1.2083333333333179
 50
127.52351320610693
 51
52.47648680188081
  0
ARC
  8
_0-1_線色１__水色__
  6
CONTINUOUS
 62
    4
 10
1298.5103394280441
 20
714.06463776251144
 40
1.2083333333333179
 50
127.52351320610693
 51
52.47648680188081
  0
ARC
  8
_0-1_線色１__水色__
  6
CONTINUOUS
 62
    4
 10
1295.5664191393612
 20
714.06463776230453
 40
1.2083333333333179
 50
127.52351320610693
 51
52.47648680188081
  0
ARC
  8
_0-1_線色１__水色__
  6
CONTINUOUS
 62
    4
 10
1297.0383792835696
 20
715.98130442910929
 40
1.2083333333333581
 50
307.52351320333912
 51
232.47648680464988
  0
ARC
  8
_0-1_線色１__水色__
  6
CONTINUOUS
 62
    4
 10
1301.4542597167269
 20
714.06463776271607
 40
1.2083333333333179
 50
127.52351320610693
 51
52.47648680188081
  0
ARC
  8
_0-1_線色１__水色__
  6
CONTINUOUS
 62
    4
 10
1299.9822995722525
 20
715.9813044293162
 40
1.2083333333333581
 50
307.52351320333912
 51
232.47648680464988
  0
ARC
  8
_0-1_線色１__水色__
  6
CONTINUOUS
 62
    4
 10
1304.3981800054121
 20
714.06463776292071
 40
1.2083333333333179
 50
127.52351320610693
 51
52.47648680188081
  0
ARC
  8
_0-1_線色１__水色__
  6
CONTINUOUS
 62
    4
 10
1302.9262198609354
 20
715.98130442952083
 40
1.2083333333333581
 50
307.52351320333912
 51
232.47648680464988
  0
ARC
  8
_0-1_線色１__水色__
  6
CONTINUOUS
 62
    4
 10
1307.342100294095
 20
714.06463776312535
 40
1.2083333333333179
 50
127.52351320610693
 51
52.47648680188081
  0
ARC
  8
_0-1_線色１__水色__
  6
CONTINUOUS
 62
    4
 10
1305.8701401496182
 20
715.98130442972547
 40
1.2083333333333581
 50
307.52351320333912
 51
232.47648680464988
  0
ARC
  8
_0-1_線色１__水色__
  6
CONTINUOUS
 62
    4
 10
1310.2860205827778
 20
714.06463776332998
 40
1.2083333333333179
 50
127.52351320610693
 51
52.47648680188081
  0
ARC
  8
_0-1_線色１__水色__
  6
CONTINUOUS
 62
    4
 10
1308.8140604383034
 20
715.98130442993011
 40
1.2083333333333581
 50
307.52351320333912
 51
232.47648680464988
  0
ARC
  8
_0-1_線色１__水色__
  6
CONTINUOUS
 62
    4
 10
1313.2299408714607
 20
714.06463776353689
 40
1.2083333333333179
 50
127.52351320610693
 51
52.47648680188081
  0
ARC
  8
_0-1_線色１__水色__
  6
CONTINUOUS
 62
    4
 10
1311.7579807269863
 20
715.98130443013702
 40
1.2083333333333581
 50
307.52351320333912
 51
232.47648680464988
  0
ARC
  8
_0-1_線色１__水色__
  6
CONTINUOUS
 62
    4
 10
1316.1738611601436
 20
714.06463776374153
 40
1.2083333333333179
 50
127.52351320610693
 51
52.47648680188081
  0
ARC
  8
_0-1_線色１__水色__
  6
CONTINUOUS
 62
    4
 10
1314.7019010156691
 20
715.98130443034165
 40
1.2083333333333581
 50
307.52351320333912
 51
232.47648680464988
  0
ARC
  8
_0-1_線色１__水色__
  6
CONTINUOUS
 62
    4
 10
1267.5991763967363
 20
715.98130442767456
 40
1.2083333333333581
 50
307.52351320333912
 51
232.47648680464988
  0
ARC
  8
_0-1_線色１__水色__
  6
CONTINUOUS
 62
    4
 10
1291.1505387062016
 20
715.98130442870001
 40
1.2083333333333581
 50
307.52351320333912
 51
232.47648680464988
  0
ARC
  8
_0-1_線色１__水色__
  6
CONTINUOUS
 62
    4
 10
1292.6224988506783
 20
714.06463776209989
 40
1.2083333333333179
 50
127.52351320610693
 51
52.47648680188081
  0
ARC
  8
_0-1_線色１__水色__
  6
CONTINUOUS
 62
    4
 10
1272.0150568298936
 20
714.06463776127907
 40
1.2083333333333179
 50
127.52351320610693
 51
52.47648680188081
  0
ARC
  8
_0-1_線色１__水色__
  6
CONTINUOUS
 62
    4
 10
1269.0711365412108
 20
714.06463776107444
 40
1.2083333333333179
 50
127.52351320610693
 51
52.47648680188081
  0
ARC
  8
_0-1_線色１__水色__
  6
CONTINUOUS
 62
    4
 10
1270.5430966854192
 20
715.98130442787919
 40
1.2083333333333581
 50
307.52351320333912
 51
232.47648680464988
  0
ARC
  8
_0-1_線色１__水色__
  6
CONTINUOUS
 62
    4
 10
1274.9589771185765
 20
714.06463776148371
 40
1.2083333333333179
 50
127.52351320610693
 51
52.47648680188081
  0
ARC
  8
_0-1_線色１__水色__
  6
CONTINUOUS
 62
    4
 10
1273.4870169741021
 20
715.98130442808383
 40
1.2083333333333581
 50
307.52351320333912
 51
232.47648680464988
  0
ARC
  8
_0-1_線色１__水色__
  6
CONTINUOUS
 62
    4
 10
1277.9028974072617
 20
714.06463776169062
 40
1.2083333333333179
 50
127.52351320610693
 51
52.47648680188081
  0
ARC
  8
_0-1_線色１__水色__
  6
CONTINUOUS
 62
    4
 10
1276.4309372627849
 20
715.98130442828847
 40
1.2083333333333581
 50
307.52351320333912
 51
232.47648680464988
  0
ARC
  8
_0-1_線色１__水色__
  6
CONTINUOUS
 62
    4
 10
1280.8468176959445
 20
714.06463776189526
 40
1.2083333333333179
 50
127.52351320610693
 51
52.47648680188081
  0
ARC
  8
_0-1_線色１__水色__
  6
CONTINUOUS
 62
    4
 10
1279.3748575514701
 20
715.98130442849538
 40
1.2083333333333581
 50
307.52351320333912
 51
232.47648680464988
  0
ARC
  8
_0-1_線色１__水色__
  6
CONTINUOUS
 62
    4
 10
1283.7907379846274
 20
714.06463776209989
 40
1.2083333333333179
 50
127.52351320610693
 51
52.47648680188081
  0
ARC
  8
_0-1_線色１__水色__
  6
CONTINUOUS
 62
    4
 10
1282.318777840153
 20
715.98130442870001
 40
1.2083333333333581
 50
307.52351320333912
 51
232.47648680464988
  0
ARC
  8
_0-1_線色１__水色__
  6
CONTINUOUS
 62
    4
 10
1286.7346582733103
 20
714.06463776230453
 40
1.2083333333333179
 50
127.52351320610693
 51
52.47648680188081
  0
ARC
  8
_0-1_線色１__水色__
  6
CONTINUOUS
 62
    4
 10
1285.2626981288358
 20
715.98130442890465
 40
1.2083333333333581
 50
307.52351320333912
 51
232.47648680464988
  0
ARC
  8
_0-1_線色１__水色__
  6
CONTINUOUS
 62
    4
 10
1289.6785785619954
 20
714.06463776251144
 40
1.2083333333333179
 50
127.52351320610693
 51
52.47648680188081
  0
ARC
  8
_0-1_線色１__水色__
  6
CONTINUOUS
 62
    4
 10
1288.2066184175187
 20
715.98130442910929
 40
1.2083333333333581
 50
307.52351320333912
 51
232.47648680464988
  0
ARC
  8
_0-1_線色１__水色__
  6
CONTINUOUS
 62
    4
 10
1333.8373828922204
 20
714.0646377643759
 40
1.2083333333333179
 50
127.52351320610693
 51
52.47648680188081
  0
ARC
  8
_0-1_線色１__水色__
  6
CONTINUOUS
 62
    4
 10
1323.533661881695
 20
715.98130443035984
 40
1.2083333333333581
 50
307.52351320333912
 51
232.47648680464988
  0
ARC
  8
_0-1_線色１__水色__
  6
CONTINUOUS
 62
    4
 10
1327.9495423148546
 20
714.06463776396436
 40
1.2083333333333179
 50
127.52351320610693
 51
52.47648680188081
  0
ARC
  8
_0-1_線色１__水色__
  6
CONTINUOUS
 62
    4
 10
1325.0056220261717
 20
714.06463776375972
 40
1.2083333333333179
 50
127.52351320610693
 51
52.47648680188081
  0
ARC
  8
_0-1_線色１__水色__
  6
CONTINUOUS
 62
    4
 10
1326.4775821703802
 20
715.98130443056448
 40
1.2083333333333581
 50
307.52351320333912
 51
232.47648680464988
  0
ARC
  8
_0-1_線色１__水色__
  6
CONTINUOUS
 62
    4
 10
1330.8934626035375
 20
714.06463776416899
 40
1.2083333333333179
 50
127.52351320610693
 51
52.47648680188081
  0
ARC
  8
_0-1_線色１__水色__
  6
CONTINUOUS
 62
    4
 10
1329.421502459063
 20
715.98130443076911
 40
1.2083333333333581
 50
307.52351320333912
 51
232.47648680464988
  0
ARC
  8
_0-1_線色１__水色__
  6
CONTINUOUS
 62
    4
 10
1332.3654227477459
 20
715.98130443097375
 40
1.2083333333333581
 50
307.52351320333912
 51
232.47648680464988
  0
ARC
  8
_0-1_線色１__水色__
  6
CONTINUOUS
 62
    4
 10
1320.5897415930121
 20
715.98130443015293
 40
1.2083333333333581
 50
307.52351320333912
 51
232.47648680464988
  0
ARC
  8
_0-1_線色１__水色__
  6
CONTINUOUS
 62
    4
 10
1322.0617017374866
 20
714.06463776355508
 40
1.2083333333333179
 50
127.52351320610693
 51
52.47648680188081
  0
ARC
  8
_0-1_線色１__水色__
  6
CONTINUOUS
 62
    4
 10
1361.8046256345565
 20
715.98130443242894
 40
1.2083333333333581
 50
307.52351320333912
 51
232.47648680464988
  0
ARC
  8
_0-1_線色１__水色__
  6
CONTINUOUS
 62
    4
 10
1385.355987944024
 20
715.9813044334544
 40
1.2083333333333581
 50
307.52351320333912
 51
232.47648680464988
  0
ARC
  8
_0-1_線色１__水色__
  6
CONTINUOUS
 62
    4
 10
1386.8279480884985
 20
714.06463776685428
 40
1.2083333333333179
 50
127.52351320610693
 51
52.47648680188081
  0
ARC
  8
_0-1_線色１__水色__
  6
CONTINUOUS
 62
    4
 10
1366.2205060677161
 20
714.06463776603346
 40
1.2083333333333179
 50
127.52351320610693
 51
52.47648680188081
  0
ARC
  8
_0-1_線色１__水色__
  6
CONTINUOUS
 62
    4
 10
1363.2765857790309
 20
714.06463776582882
 40
1.2083333333333179
 50
127.52351320610693
 51
52.47648680188081
  0
ARC
  8
_0-1_線色１__水色__
  6
CONTINUOUS
 62
    4
 10
1364.7485459232394
 20
715.98130443263358
 40
1.2083333333333581
 50
307.52351320333912
 51
232.47648680464988
  0
ARC
  8
_0-1_線色１__水色__
  6
CONTINUOUS
 62
    4
 10
1369.164426356399
 20
714.06463776624037
 40
1.2083333333333179
 50
127.52351320610693
 51
52.47648680188081
  0
ARC
  8
_0-1_線色１__水色__
  6
CONTINUOUS
 62
    4
 10
1367.6924662119222
 20
715.98130443283821
 40
1.2083333333333581
 50
307.52351320333912
 51
232.47648680464988
  0
ARC
  8
_0-1_線色１__水色__
  6
CONTINUOUS
 62
    4
 10
1372.1083466450818
 20
714.064637766445
 40
1.2083333333333179
 50
127.52351320610693
 51
52.47648680188081
  0
ARC
  8
_0-1_線色１__水色__
  6
CONTINUOUS
 62
    4
 10
1370.6363865006074
 20
715.98130443304512
 40
1.2083333333333581
 50
307.52351320333912
 51
232.47648680464988
  0
ARC
  8
_0-1_線色１__水色__
  6
CONTINUOUS
 62
    4
 10
1375.0522669337647
 20
714.06463776664964
 40
1.2083333333333179
 50
127.52351320610693
 51
52.47648680188081
  0
ARC
  8
_0-1_線色１__水色__
  6
CONTINUOUS
 62
    4
 10
1373.5803067892903
 20
715.98130443324976
 40
1.2083333333333581
 50
307.52351320333912
 51
232.47648680464988
  0
ARC
  8
_0-1_線色１__水色__
  6
CONTINUOUS
 62
    4
 10
1377.9961872224476
 20
714.06463776685428
 40
1.2083333333333179
 50
127.52351320610693
 51
52.47648680188081
  0
ARC
  8
_0-1_線色１__水色__
  6
CONTINUOUS
 62
    4
 10
1376.5242270779731
 20
715.9813044334544
 40
1.2083333333333581
 50
307.52351320333912
 51
232.47648680464988
  0
ARC
  8
_0-1_線色１__水色__
  6
CONTINUOUS
 62
    4
 10
1380.9401075111327
 20
714.06463776705891
 40
1.2083333333333179
 50
127.52351320610693
 51
52.47648680188081
  0
ARC
  8
_0-1_線色１__水色__
  6
CONTINUOUS
 62
    4
 10
1379.468147366656
 20
715.98130443365903
 40
1.2083333333333581
 50
307.52351320333912
 51
232.47648680464988
  0
ARC
  8
_0-1_線色１__水色__
  6
CONTINUOUS
 62
    4
 10
1383.8840277998156
 20
714.06463776726582
 40
1.2083333333333179
 50
127.52351320610693
 51
52.47648680188081
  0
ARC
  8
_0-1_線色１__水色__
  6
CONTINUOUS
 62
    4
 10
1382.4120676553389
 20
715.98130443386594
 40
1.2083333333333581
 50
307.52351320333912
 51
232.47648680464988
  0
ARC
  8
_0-1_線色１__水色__
  6
CONTINUOUS
 62
    4
 10
1335.3093430364061
 20
715.98130443119658
 40
1.2083333333333581
 50
307.52351320333912
 51
232.47648680464988
  0
ARC
  8
_0-1_線色１__水色__
  6
CONTINUOUS
 62
    4
 10
1358.8607053458736
 20
715.98130443222431
 40
1.2083333333333581
 50
307.52351320333912
 51
232.47648680464988
  0
ARC
  8
_0-1_線色１__水色__
  6
CONTINUOUS
 62
    4
 10
1360.3326654903481
 20
714.06463776562418
 40
1.2083333333333179
 50
127.52351320610693
 51
52.47648680188081
  0
ARC
  8
_0-1_線色１__水色__
  6
CONTINUOUS
 62
    4
 10
1339.7252234695657
 20
714.06463776480336
 40
1.2083333333333179
 50
127.52351320610693
 51
52.47648680188081
  0
ARC
  8
_0-1_線色１__水色__
  6
CONTINUOUS
 62
    4
 10
1336.7813031808828
 20
714.06463776459873
 40
1.2083333333333179
 50
127.52351320610693
 51
52.47648680188081
  0
ARC
  8
_0-1_線色１__水色__
  6
CONTINUOUS
 62
    4
 10
1338.2532633250889
 20
715.98130443140349
 40
1.2083333333333581
 50
307.52351320333912
 51
232.47648680464988
  0
ARC
  8
_0-1_線色１__水色__
  6
CONTINUOUS
 62
    4
 10
1342.6691437582485
 20
714.064637765008
 40
1.2083333333333179
 50
127.52351320610693
 51
52.47648680188081
  0
ARC
  8
_0-1_線色１__水色__
  6
CONTINUOUS
 62
    4
 10
1341.1971836137741
 20
715.98130443160812
 40
1.2083333333333581
 50
307.52351320333912
 51
232.47648680464988
  0
ARC
  8
_0-1_線色１__水色__
  6
CONTINUOUS
 62
    4
 10
1345.6130640469314
 20
714.06463776521264
 40
1.2083333333333179
 50
127.52351320610693
 51
52.47648680188081
  0
ARC
  8
_0-1_線色１__水色__
  6
CONTINUOUS
 62
    4
 10
1344.141103902457
 20
715.98130443181276
 40
1.2083333333333581
 50
307.52351320333912
 51
232.47648680464988
  0
ARC
  8
_0-1_線色１__水色__
  6
CONTINUOUS
 62
    4
 10
1348.5569843356143
 20
714.06463776541955
 40
1.2083333333333179
 50
127.52351320610693
 51
52.47648680188081
  0
ARC
  8
_0-1_線色１__水色__
  6
CONTINUOUS
 62
    4
 10
1347.0850241911398
 20
715.9813044320174
 40
1.2083333333333581
 50
307.52351320333912
 51
232.47648680464988
  0
ARC
  8
_0-1_線色１__水色__
  6
CONTINUOUS
 62
    4
 10
1351.5009046242994
 20
714.06463776562418
 40
1.2083333333333179
 50
127.52351320610693
 51
52.47648680188081
  0
ARC
  8
_0-1_線色１__水色__
  6
CONTINUOUS
 62
    4
 10
1350.0289444798227
 20
715.98130443222431
 40
1.2083333333333581
 50
307.52351320333912
 51
232.47648680464988
  0
ARC
  8
_0-1_線色１__水色__
  6
CONTINUOUS
 62
    4
 10
1354.4448249129823
 20
714.06463776582882
 40
1.2083333333333179
 50
127.52351320610693
 51
52.47648680188081
  0
ARC
  8
_0-1_線色１__水色__
  6
CONTINUOUS
 62
    4
 10
1352.9728647685056
 20
715.98130443242894
 40
1.2083333333333581
 50
307.52351320333912
 51
232.47648680464988
  0
ARC
  8
_0-1_線色１__水色__
  6
CONTINUOUS
 62
    4
 10
1357.3887452016652
 20
714.06463776603346
 40
1.2083333333333179
 50
127.52351320610693
 51
52.47648680188081
  0
ARC
  8
_0-1_線色１__水色__
  6
CONTINUOUS
 62
    4
 10
1355.9167850571907
 20
715.98130443263358
 40
1.2083333333333581
 50
307.52351320333912
 51
232.47648680464988
  0
ARC
  8
_0-1_線色１__水色__
  6
CONTINUOUS
 62
    4
 10
1401.5475495318924
 20
714.06463776789792
 40
1.2083333333333179
 50
127.52351320610693
 51
52.47648680188081
  0
ARC
  8
_0-1_線色１__水色__
  6
CONTINUOUS
 62
    4
 10
1391.243828521367
 20
715.98130443388186
 40
1.2083333333333581
 50
307.52351320333912
 51
232.47648680464988
  0
ARC
  8
_0-1_線色１__水色__
  6
CONTINUOUS
 62
    4
 10
1395.6597089545244
 20
714.06463776748865
 40
1.2083333333333179
 50
127.52351320610693
 51
52.47648680188081
  0
ARC
  8
_0-1_線色１__水色__
  6
CONTINUOUS
 62
    4
 10
1392.7157886658415
 20
714.06463776728401
 40
1.2083333333333179
 50
127.52351320610693
 51
52.47648680188081
  0
ARC
  8
_0-1_線色１__水色__
  6
CONTINUOUS
 62
    4
 10
1394.1877488100499
 20
715.98130443408877
 40
1.2083333333333581
 50
307.52351320333912
 51
232.47648680464988
  0
ARC
  8
_0-1_線色１__水色__
  6
CONTINUOUS
 62
    4
 10
1398.6036292432095
 20
714.06463776769328
 40
1.2083333333333179
 50
127.52351320610693
 51
52.47648680188081
  0
ARC
  8
_0-1_線色１__水色__
  6
CONTINUOUS
 62
    4
 10
1397.1316690987328
 20
715.98130443429341
 40
1.2083333333333581
 50
307.52351320333912
 51
232.47648680464988
  0
ARC
  8
_0-1_線色１__水色__
  6
CONTINUOUS
 62
    4
 10
1400.0755893874157
 20
715.98130443449804
 40
1.2083333333333581
 50
307.52351320333912
 51
232.47648680464988
  0
ARC
  8
_0-1_線色１__水色__
  6
CONTINUOUS
 62
    4
 10
1388.2999082326842
 20
715.98130443367722
 40
1.2083333333333581
 50
307.52351320333912
 51
232.47648680464988
  0
ARC
  8
_0-1_線色１__水色__
  6
CONTINUOUS
 62
    4
 10
1389.7718683771586
 20
714.0646377670771
 40
1.2083333333333179
 50
127.52351320610693
 51
52.47648680188081
  0
ARC
  8
_0-1_線色１__水色__
  6
CONTINUOUS
 62
    4
 10
1457.4820350168511
 20
714.0646377705832
 40
1.2083333333333179
 50
31.016430022305769
 51
52.476486801880846
  0
ARC
  8
_0-1_線色１__水色__
  6
CONTINUOUS
 62
    4
 10
1457.4820350168511
 20
714.0646377705832
 40
1.2083333333333179
 50
127.52351320610693
 51
328.98356997769429
  0
ARC
  8
_0-1_線色１__水色__
  6
CONTINUOUS
 62
    4
 10
1458.9539951610595
 20
715.98130443738796
 40
1.2083333333333581
 50
111.17110481933528
 51
232.47648680464988
  0
ARC
  8
_0-1_線色１__水色__
  6
CONTINUOUS
 62
    4
 10
1456.0100748723767
 20
715.98130443718333
 40
1.2083333333333581
 50
307.52351320333912
 51
232.47648680464988
  0
ARC
  8
_0-1_線色１__水色__
  6
CONTINUOUS
 62
    4
 10
1429.5147922742262
 20
715.98130443595323
 40
1.2083333333333581
 50
307.52351320333912
 51
232.47648680464988
  0
ARC
  8
_0-1_線色１__水色__
  6
CONTINUOUS
 62
    4
 10
1453.0661545836938
 20
715.98130443697869
 40
1.2083333333333581
 50
307.52351320333912
 51
232.47648680464988
  0
ARC
  8
_0-1_線色１__水色__
  6
CONTINUOUS
 62
    4
 10
1454.5381147281682
 20
714.06463777037857
 40
1.2083333333333179
 50
127.52351320610693
 51
52.47648680188081
  0
ARC
  8
_0-1_線色１__水色__
  6
CONTINUOUS
 62
    4
 10
1433.9306727073858
 20
714.06463776955775
 40
1.2083333333333179
 50
127.52351320610693
 51
52.47648680188081
  0
ARC
  8
_0-1_線色１__水色__
  6
CONTINUOUS
 62
    4
 10
1430.986752418703
 20
714.06463776935311
 40
1.2083333333333179
 50
127.52351320610693
 51
52.47648680188081
  0
ARC
  8
_0-1_線色１__水色__
  6
CONTINUOUS
 62
    4
 10
1432.4587125629114
 20
715.98130443615787
 40
1.2083333333333581
 50
307.52351320333912
 51
232.47648680464988
  0
ARC
  8
_0-1_線色１__水色__
  6
CONTINUOUS
 62
    4
 10
1436.8745929960687
 20
714.06463776976238
 40
1.2083333333333179
 50
127.52351320610693
 51
52.47648680188081
  0
ARC
  8
_0-1_線色１__水色__
  6
CONTINUOUS
 62
    4
 10
1435.4026328515943
 20
715.98130443636251
 40
1.2083333333333581
 50
307.52351320333912
 51
232.47648680464988
  0
ARC
  8
_0-1_線色１__水色__
  6
CONTINUOUS
 62
    4
 10
1439.8185132847516
 20
714.06463776996929
 40
1.2083333333333179
 50
127.52351320610693
 51
52.47648680188081
  0
ARC
  8
_0-1_線色１__水色__
  6
CONTINUOUS
 62
    4
 10
1438.3465531402771
 20
715.98130443656714
 40
1.2083333333333581
 50
307.52351320333912
 51
232.47648680464988
  0
ARC
  8
_0-1_線色１__水色__
  6
CONTINUOUS
 62
    4
 10
1442.7624335734367
 20
714.06463777017393
 40
1.2083333333333179
 50
127.52351320610693
 51
52.47648680188081
  0
ARC
  8
_0-1_線色１__水色__
  6
CONTINUOUS
 62
    4
 10
1441.29047342896
 20
715.98130443677405
 40
1.2083333333333581
 50
307.52351320333912
 51
232.47648680464988
  0
ARC
  8
_0-1_線色１__水色__
  6
CONTINUOUS
 62
    4
 10
1445.7063538621196
 20
714.06463777037857
 40
1.2083333333333179
 50
127.52351320610693
 51
52.47648680188081
  0
ARC
  8
_0-1_線色１__水色__
  6
CONTINUOUS
 62
    4
 10
1444.2343937176429
 20
715.98130443697869
 40
1.2083333333333581
 50
307.52351320333912
 51
232.47648680464988
  0
ARC
  8
_0-1_線色１__水色__
  6
CONTINUOUS
 62
    4
 10
1448.6502741508025
 20
714.0646377705832
 40
1.2083333333333179
 50
127.52351320610693
 51
52.47648680188081
  0
ARC
  8
_0-1_線色１__水色__
  6
CONTINUOUS
 62
    4
 10
1447.178314006328
 20
715.98130443718333
 40
1.2083333333333581
 50
307.52351320333912
 51
232.47648680464988
  0
ARC
  8
_0-1_線色１__水色__
  6
CONTINUOUS
 62
    4
 10
1451.5941944394854
 20
714.06463777078784
 40
1.2083333333333179
 50
127.52351320610693
 51
52.47648680188081
  0
ARC
  8
_0-1_線色１__水色__
  6
CONTINUOUS
 62
    4
 10
1450.1222342950109
 20
715.98130443738796
 40
1.2083333333333581
 50
307.52351320333912
 51
232.47648680464988
  0
ARC
  8
_0-1_線色１__水色__
  6
CONTINUOUS
 62
    4
 10
1403.0195096760758
 20
715.98130443472087
 40
1.2083333333333581
 50
307.52351320333912
 51
232.47648680464988
  0
ARC
  8
_0-1_線色１__水色__
  6
CONTINUOUS
 62
    4
 10
1426.5708719855434
 20
715.98130443574632
 40
1.2083333333333581
 50
307.52351320333912
 51
232.47648680464988
  0
ARC
  8
_0-1_線色１__水色__
  6
CONTINUOUS
 62
    4
 10
1428.0428321300178
 20
714.06463776914848
 40
1.2083333333333179
 50
127.52351320610693
 51
52.47648680188081
  0
ARC
  8
_0-1_線色１__水色__
  6
CONTINUOUS
 62
    4
 10
1407.4353901092354
 20
714.06463776832766
 40
1.2083333333333179
 50
127.52351320610693
 51
52.47648680188081
  0
ARC
  8
_0-1_線色１__水色__
  6
CONTINUOUS
 62
    4
 10
1404.4914698205525
 20
714.06463776812075
 40
1.2083333333333179
 50
127.52351320610693
 51
52.47648680188081
  0
ARC
  8
_0-1_線色１__水色__
  6
CONTINUOUS
 62
    4
 10
1405.963429964761
 20
715.98130443492551
 40
1.2083333333333581
 50
307.52351320333912
 51
232.47648680464988
  0
ARC
  8
_0-1_線色１__水色__
  6
CONTINUOUS
 62
    4
 10
1410.3793103979183
 20
714.06463776853229
 40
1.2083333333333179
 50
127.52351320610693
 51
52.47648680188081
  0
ARC
  8
_0-1_線色１__水色__
  6
CONTINUOUS
 62
    4
 10
1408.9073502534438
 20
715.98130443513242
 40
1.2083333333333581
 50
307.52351320333912
 51
232.47648680464988
  0
ARC
  8
_0-1_線色１__水色__
  6
CONTINUOUS
 62
    4
 10
1413.3232306866012
 20
714.06463776873693
 40
1.2083333333333179
 50
127.52351320610693
 51
52.47648680188081
  0
ARC
  8
_0-1_線色１__水色__
  6
CONTINUOUS
 62
    4
 10
1411.8512705421267
 20
715.98130443533705
 40
1.2083333333333581
 50
307.52351320333912
 51
232.47648680464988
  0
ARC
  8
_0-1_線色１__水色__
  6
CONTINUOUS
 62
    4
 10
1416.2671509752863
 20
714.06463776894157
 40
1.2083333333333179
 50
127.52351320610693
 51
52.47648680188081
  0
ARC
  8
_0-1_線色１__水色__
  6
CONTINUOUS
 62
    4
 10
1414.7951908308096
 20
715.98130443554169
 40
1.2083333333333581
 50
307.52351320333912
 51
232.47648680464988
  0
ARC
  8
_0-1_線色１__水色__
  6
CONTINUOUS
 62
    4
 10
1419.2110712639692
 20
714.06463776914848
 40
1.2083333333333179
 50
127.52351320610693
 51
52.47648680188081
  0
ARC
  8
_0-1_線色１__水色__
  6
CONTINUOUS
 62
    4
 10
1417.7391111194947
 20
715.98130443574632
 40
1.2083333333333581
 50
307.52351320333912
 51
232.47648680464988
  0
ARC
  8
_0-1_線色１__水色__
  6
CONTINUOUS
 62
    4
 10
1422.1549915526521
 20
714.06463776935311
 40
1.2083333333333179
 50
127.52351320610693
 51
52.47648680188081
  0
ARC
  8
_0-1_線色１__水色__
  6
CONTINUOUS
 62
    4
 10
1420.6830314081776
 20
715.98130443595323
 40
1.2083333333333581
 50
307.52351320333912
 51
232.47648680464988
  0
ARC
  8
_0-1_線色１__水色__
  6
CONTINUOUS
 62
    4
 10
1425.0989118413349
 20
714.06463776955775
 40
1.2083333333333179
 50
127.52351320610693
 51
52.47648680188081
  0
ARC
  8
_0-1_線色１__水色__
  6
CONTINUOUS
 62
    4
 10
1423.6269516968605
 20
715.98130443615787
 40
1.2083333333333581
 50
307.52351320333912
 51
232.47648680464988
  0
LINE
  8
_0-d_断熱__ハッチ
  6
CONTINUOUS
 62
    4
 10
641.4823996643463
 20
697.79380336570398
 11
656.21156739201069
 21
712.5229710933661
  0
LINE
  8
_0-d_断熱__ハッチ
  6
CONTINUOUS
 62
    4
 10
1451.6561662880304
 20
712.5229710933661
 11
1458.5176003356537
 21
705.66153704574504
  0
LINE
  8
_0-d_断熱__ハッチ
  6
CONTINUOUS
 62
    4
 10
1423.3718950405728
 20
712.5229710933661
 11
1458.3718950405728
 21
677.52297109336837
  0
LINE
  8
_0-d_断熱__ハッチ
  6
CONTINUOUS
 62
    4
 10
1395.0876237931152
 20
712.5229710933661
 11
1430.0876237931152
 21
677.5229710933661
  0
LINE
  8
_0-d_断熱__ハッチ
  6
CONTINUOUS
 62
    4
 10
1366.8033525456485
 20
712.5229710933661
 11
1401.8033525456485
 21
677.52297109336837
  0
LINE
  8
_0-d_断熱__ハッチ
  6
CONTINUOUS
 62
    4
 10
1338.5190812981909
 20
712.5229710933661
 11
1373.5190812981909
 21
677.5229710933661
  0
LINE
  8
_0-d_断熱__ハッチ
  6
CONTINUOUS
 62
    4
 10
1310.2348100507243
 20
712.5229710933661
 11
1345.2348100507243
 21
677.5229710933661
  0
LINE
  8
_0-d_断熱__ハッチ
  6
CONTINUOUS
 62
    4
 10
1281.9505388032667
 20
712.5229710933661
 11
1316.9505388032667
 21
677.5229710933661
  0
LINE
  8
_0-d_断熱__ハッチ
  6
CONTINUOUS
 62
    4
 10
1253.6662675558
 20
712.5229710933661
 11
1288.6662675558
 21
677.5229710933661
  0
LINE
  8
_0-d_断熱__ハッチ
  6
CONTINUOUS
 62
    4
 10
1225.3819963083424
 20
712.5229710933661
 11
1260.3819963083424
 21
677.5229710933661
  0
LINE
  8
_0-d_断熱__ハッチ
  6
CONTINUOUS
 62
    4
 10
1197.0977250608757
 20
712.5229710933661
 11
1232.0977250608757
 21
677.5229710933661
  0
LINE
  8
_0-d_断熱__ハッチ
  6
CONTINUOUS
 62
    4
 10
1168.8134538134182
 20
712.5229710933661
 11
1203.8134538134204
 21
677.5229710933661
  0
LINE
  8
_0-d_断熱__ハッチ
  6
CONTINUOUS
 62
    4
 10
1140.5291825659515
 20
712.5229710933661
 11
1175.5291825659515
 21
677.5229710933661
  0
LINE
  8
_0-d_断熱__ハッチ
  6
CONTINUOUS
 62
    4
 10
1112.2449113184939
 20
712.5229710933661
 11
1147.2449113184962
 21
677.5229710933661
  0
LINE
  8
_0-d_断熱__ハッチ
  6
CONTINUOUS
 62
    4
 10
1083.9606400710272
 20
712.5229710933661
 11
1118.9606400710272
 21
677.5229710933661
  0
LINE
  8
_0-d_断熱__ハッチ
  6
CONTINUOUS
 62
    4
 10
942.53928383372113
 20
712.5229710933661
 11
977.53928383372113
 21
677.52297109336382
  0
LINE
  8
_0-d_断熱__ハッチ
  6
CONTINUOUS
 62
    4
 10
914.25501258625445
 20
712.5229710933661
 11
949.25501258625445
 21
677.5229710933661
  0
LINE
  8
_0-d_断熱__ハッチ
  6
CONTINUOUS
 62
    4
 10
885.97074133879687
 20
712.5229710933661
 11
920.97074133879687
 21
677.5229710933661
  0
LINE
  8
_0-d_断熱__ハッチ
  6
CONTINUOUS
 62
    4
 10
857.68647009133701
 20
712.5229710933661
 11
892.68647009133929
 21
677.5229710933661
  0
LINE
  8
_0-d_断熱__ハッチ
  6
CONTINUOUS
 62
    4
 10
829.40219884387034
 20
712.5229710933661
 11
864.40219884387034
 21
677.5229710933661
  0
LINE
  8
_0-d_断熱__ハッチ
  6
CONTINUOUS
 62
    4
 10
801.11792759641276
 20
712.5229710933661
 11
836.11792759641276
 21
677.5229710933661
  0
LINE
  8
_0-d_断熱__ハッチ
  6
CONTINUOUS
 62
    4
 10
772.83365634894608
 20
712.5229710933661
 11
807.83365634894608
 21
677.5229710933661
  0
LINE
  8
_0-d_断熱__ハッチ
  6
CONTINUOUS
 62
    4
 10
744.5493851014885
 20
712.5229710933661
 11
779.54938510149077
 21
677.5229710933661
  0
LINE
  8
_0-d_断熱__ハッチ
  6
CONTINUOUS
 62
    4
 10
716.26511385402182
 20
712.5229710933661
 11
751.26511385402182
 21
677.52297109336837
  0
LINE
  8
_0-d_断熱__ハッチ
  6
CONTINUOUS
 62
    4
 10
687.98084260656424
 20
712.5229710933661
 11
722.98084260656651
 21
677.5229710933661
  0
LINE
  8
_0-d_断熱__ハッチ
  6
CONTINUOUS
 62
    4
 10
659.69657135909756
 20
712.5229710933661
 11
694.69657135909756
 21
677.52297109336837
  0
LINE
  8
_0-d_断熱__ハッチ
  6
CONTINUOUS
 62
    4
 10
649.495838639466
 20
677.5229710933661
 11
684.49583863946827
 21
712.5229710933661
  0
LINE
  8
_0-d_断熱__ハッチ
  6
CONTINUOUS
 62
    4
 10
677.78010988693495
 20
677.52297109336837
 11
712.78010988693495
 21
712.5229710933661
  0
LINE
  8
_0-d_断熱__ハッチ
  6
CONTINUOUS
 62
    4
 10
706.06438113439026
 20
677.52297109336382
 11
741.06438113439253
 21
712.5229710933661
  0
LINE
  8
_0-d_断熱__ハッチ
  6
CONTINUOUS
 62
    4
 10
734.34865238185921
 20
677.52297109336837
 11
769.34865238185921
 21
712.5229710933661
  0
LINE
  8
_0-d_断熱__ハッチ
  6
CONTINUOUS
 62
    4
 10
762.63292362931452
 20
677.52297109336382
 11
797.63292362931679
 21
712.5229710933661
  0
LINE
  8
_0-d_断熱__ハッチ
  6
CONTINUOUS
 62
    4
 10
790.91719487678347
 20
677.5229710933661
 11
825.91719487678347
 21
712.5229710933661
  0
LINE
  8
_0-d_断熱__ハッチ
  6
CONTINUOUS
 62
    4
 10
819.20146612423878
 20
677.52297109336382
 11
854.20146612424105
 21
712.5229710933661
  0
LINE
  8
_0-d_断熱__ハッチ
  6
CONTINUOUS
 62
    4
 10
847.48573737170773
 20
677.5229710933661
 11
882.48573737170773
 21
712.5229710933661
  0
LINE
  8
_0-d_断熱__ハッチ
  6
CONTINUOUS
 62
    4
 10
875.77000861916304
 20
677.52297109336382
 11
910.77000861916531
 21
712.5229710933661
  0
LINE
  8
_0-d_断熱__ハッチ
  6
CONTINUOUS
 62
    4
 10
904.05427986663199
 20
677.5229710933661
 11
939.05427986663199
 21
712.5229710933661
  0
LINE
  8
_0-d_断熱__ハッチ
  6
CONTINUOUS
 62
    4
 10
932.33855111408957
 20
677.52297109336382
 11
967.33855111408957
 21
712.5229710933661
  0
LINE
  8
_0-d_断熱__ハッチ
  6
CONTINUOUS
 62
    4
 10
960.62282236155625
 20
677.5229710933661
 11
995.62282236155625
 21
712.5229710933661
  0
LINE
  8
_0-d_断熱__ハッチ
  6
CONTINUOUS
 62
    4
 10
988.90709360901383
 20
677.5229710933661
 11
1023.9070936090138
 21
712.5229710933661
  0
LINE
  8
_0-d_断熱__ハッチ
  6
CONTINUOUS
 62
    4
 10
1102.0441785988646
 20
677.52297109336837
 11
1137.0441785988646
 21
712.5229710933661
  0
LINE
  8
_0-d_断熱__ハッチ
  6
CONTINUOUS
 62
    4
 10
1130.3284498463222
 20
677.5229710933661
 11
1165.3284498463222
 21
712.5229710933661
  0
LINE
  8
_0-d_断熱__ハッチ
  6
CONTINUOUS
 62
    4
 10
1158.6127210937889
 20
677.52297109336837
 11
1193.6127210937889
 21
712.5229710933661
  0
LINE
  8
_0-d_断熱__ハッチ
  6
CONTINUOUS
 62
    4
 10
1186.8969923412465
 20
677.5229710933661
 11
1221.8969923412465
 21
712.5229710933661
  0
LINE
  8
_0-d_断熱__ハッチ
  6
CONTINUOUS
 62
    4
 10
1215.1812635887131
 20
677.5229710933661
 11
1250.1812635887131
 21
712.5229710933661
  0
LINE
  8
_0-d_断熱__ハッチ
  6
CONTINUOUS
 62
    4
 10
1243.4655348361707
 20
677.5229710933661
 11
1278.4655348361707
 21
712.5229710933661
  0
LINE
  8
_0-d_断熱__ハッチ
  6
CONTINUOUS
 62
    4
 10
1271.7498060836374
 20
677.5229710933661
 11
1306.7498060836374
 21
712.5229710933661
  0
LINE
  8
_0-d_断熱__ハッチ
  6
CONTINUOUS
 62
    4
 10
1300.034077331095
 20
677.5229710933661
 11
1335.034077331095
 21
712.5229710933661
  0
LINE
  8
_0-d_断熱__ハッチ
  6
CONTINUOUS
 62
    4
 10
1328.3183485785617
 20
677.5229710933661
 11
1363.3183485785617
 21
712.5229710933661
  0
LINE
  8
_0-d_断熱__ハッチ
  6
CONTINUOUS
 62
    4
 10
1356.602619826017
 20
677.5229710933661
 11
1391.6026198260192
 21
712.5229710933661
  0
LINE
  8
_0-d_断熱__ハッチ
  6
CONTINUOUS
 62
    4
 10
1384.8868910734859
 20
677.5229710933661
 11
1419.8868910734859
 21
712.5229710933661
  0
LINE
  8
_0-d_断熱__ハッチ
  6
CONTINUOUS
 62
    4
 10
1413.1711623209412
 20
677.5229710933661
 11
1448.1711623209435
 21
712.5229710933661
  0
LINE
  8
_0-d_断熱__ハッチ
  6
CONTINUOUS
 62
    4
 10
970.82355508117871
 20
712.5229710933661
 11
1005.8235550811787
 21
677.5229710933661
  0
LINE
  8
_0-2_線色２__白__
  6
CONTINUOUS
 62
    7
 10
641.48239966435085
 20
717.5229710933661
 11
1458.5176003356537
 21
717.5229710933661
  0
LINE
  8
_0-2_線色２__白__
  6
CONTINUOUS
 62
    7
 10
641.48239966435085
 20
712.5229710933661
 11
1458.5176003356537
 21
712.5229710933661
  0
ARC
  8
_0-1_線色１__水色__
  6
CONTINUOUS
 62
    4
 10
1054.1649554675109
 20
714.06463774964664
 40
1.2083333333333179
 50
127.52351320610693
 51
52.47648680188081
  0
ARC
  8
_0-1_線色１__水色__
  6
CONTINUOUS
 62
    4
 10
1045.3331946014623
 20
714.06463774964664
 40
1.2083333333333179
 50
127.52351320610693
 51
52.47648680188081
  0
ARC
  8
_0-1_線色１__水色__
  6
CONTINUOUS
 62
    4
 10
1046.8051547456685
 20
715.98130441645139
 40
1.2083333333333581
 50
307.52351320333912
 51
232.47648680464988
  0
ARC
  8
_0-1_線色１__水色__
  6
CONTINUOUS
 62
    4
 10
1048.2771148901429
 20
714.06463774985127
 40
1.2083333333333179
 50
127.52351320610693
 51
52.47648680188081
  0
ARC
  8
_0-1_線色１__水色__
  6
CONTINUOUS
 62
    4
 10
1049.7490750343513
 20
715.98130441665603
 40
1.2083333333333581
 50
307.52351320333912
 51
232.47648680464988
  0
ARC
  8
_0-1_線色１__水色__
  6
CONTINUOUS
 62
    4
 10
1051.2210351788281
 20
714.06463775005591
 40
1.2083333333333179
 50
127.52351320610693
 51
52.47648680188081
  0
ARC
  8
_0-1_線色１__水色__
  6
CONTINUOUS
 62
    4
 10
1052.6929953230319
 20
715.98130441686067
 40
1.2083333333333581
 50
307.52351320333912
 51
232.47648680464988
  0
LINE
  8
_0-2_線色２__白__
  6
CONTINUOUS
 62
    7
 10
641.48239966435085
 20
677.5229710933661
 11
1458.5176003356537
 21
677.5229710933661
  0
LINE
  8
_0-3_線色３__緑__
  6
CONTINUOUS
 62
    3
 10
1000
 20
717.5229710933661
 11
1100.0000000000023
 21
717.5229710933661
  0
LINE
  8
_0-3_線色３__緑__
  6
CONTINUOUS
 62
    3
 10
1100.0000000000023
 20
717.5229710933661
 11
1100.0000000000023
 21
719.52297109336655
  0
LINE
  8
_0-3_線色３__緑__
  6
CONTINUOUS
 62
    3
 10
1100.0000000000023
 20
719.52297109336655
 11
1000
 21
719.52297109336655
  0
LINE
  8
_0-3_線色３__緑__
  6
CONTINUOUS
 62
    3
 10
1000
 20
719.52297109336655
 11
1000
 21
717.5229710933661
  0
LINE
  8
_0-2_線色２__白__
  6
CONTINUOUS
 62
    7
 10
1105.8154992437608
 20
717.5229710933661
 11
1088.6849347666794
 21
723.41431894126231
  0
LINE
  8
_0-2_線色２__白__
  6
CONTINUOUS
 62
    7
 10
994.14909532712045
 20
717.5229710933661
 11
1011.3875420045679
 21
723.41554588008307
  0
LINE
  8
_0-4_線色４__黄__
  6
CONTINUOUS
 62
    2
 10
1089.2049349664603
 20
728.52290805199686
 11
1010.8710280196556
 21
728.52303401261111
  0
LINE
  8
_0-4_線色４__黄__
  6
CONTINUOUS
 62
    2
 10
641.48239966435085
 20
722.5229710933661
 11
993.31812993375934
 21
722.5229710933661
  0
LINE
  8
_0-4_線色４__黄__
  6
CONTINUOUS
 62
    2
 10
993.31812993375934
 20
722.5229710933661
 11
1010.8710280196556
 21
728.52303401261111
  0
LINE
  8
_0-4_線色４__黄__
  6
CONTINUOUS
 62
    2
 10
1106.6512493892174
 20
722.5229710933661
 11
1089.2049349664603
 21
728.52290805199686
  0
LINE
  8
_0-4_線色４__黄__
  6
CONTINUOUS
 62
    2
 10
1106.6512493892174
 20
722.5229710933661
 11
1458.5176003356537
 21
722.5229710933661
  0
LINE
  8
_0-2_線色２__白__
  6
CONTINUOUS
 62
    7
 10
1045
 20
717.5229710933661
 11
1045
 21
719.52297913334746
  0
LINE
  8
_0-2_線色２__白__
  6
CONTINUOUS
 62
    7
 10
1055
 20
717.5229710933661
 11
1055
 21
719.52297109336655
  0
LINE
  8
_0-d_断熱__ハッチ
  6
CONTINUOUS
 62
    4
 10
1054.2630514987513
 20
717.52297109336837
 11
1055
 21
718.25991959461703
  0
LINE
  8
_0-d_断熱__ハッチ
  6
CONTINUOUS
 62
    4
 10
1050.7275175928135
 20
717.5229710933661
 11
1053.0344372306695
 21
719.82989073121985
  0
LINE
  8
_0-d_断熱__ハッチ
  6
CONTINUOUS
 62
    4
 10
1054.7276042328258
 20
721.52305773337616
 11
1056.7275067750143
 21
723.52296027556463
  0
LINE
  8
_0-d_断熱__ハッチ
  6
CONTINUOUS
 62
    4
 10
1047.1919836868847
 20
717.52297109336837
 11
1053.1919785541959
 21
723.52296596068186
  0
LINE
  8
_0-d_断熱__ハッチ
  6
CONTINUOUS
 62
    4
 10
1045.0000000000045
 20
718.86652131242158
 11
1045.656449780945
 21
719.52297109336428
  0
LINE
  8
_0-d_断熱__ハッチ
  6
CONTINUOUS
 62
    4
 10
1046.8454912371976
 20
720.71201254961466
 11
1049.6564503333775
 21
723.52297164579682
  0
LINE
  8
_0-d_断熱__ハッチ
  6
CONTINUOUS
 62
    4
 10
1044.1209833949506
 20
721.5230386132987
 11
1046.1209221125682
 21
723.52297733091405
  0
LINE
  8
_0-d_断熱__ハッチ
  6
CONTINUOUS
 62
    4
 10
1042.0344535540607
 20
722.97204267833536
 11
1042.5853938917567
 21
723.52298301603128
  0
LINE
  8
_0-6_鋼板__アングル
  6
CONTINUOUS
 62
    2
 10
1031.4848001555765
 20
722.92304945082037
 11
1012.0344787128738
 21
722.92304450851475
  0
LINE
  8
_0-6_鋼板__アングル
  6
CONTINUOUS
 62
    2
 10
1010.6344645878926
 20
720.6230330751157
 11
1010.634458856839
 21
721.52305181110364
  0
LINE
  8
_0-6_鋼板__アングル
  6
CONTINUOUS
 62
    2
 10
1010.034501685484
 20
720.62304121813327
 11
1010.0344959544304
 21
721.52305995411893
  0
LINE
  8
_0-6_鋼板__アングル
  6
CONTINUOUS
 62
    2
 10
1006.5344856880802
 20
719.52304098574245
 11
1006.5344932310359
 21
719.62303475182921
  0
LINE
  8
_0-6_鋼板__アングル
  6
CONTINUOUS
 62
    2
 10
1009.5344945284955
 20
720.123035873047
 11
1007.0345003880243
 21
720.12304009691547
  0
LINE
  8
_0-6_鋼板__アングル
  6
CONTINUOUS
 62
    2
 10
1041.4344458019968
 20
722.92303907983637
 11
1038.5841391419194
 21
722.92303534233838
  0
LINE
  8
_0-6_鋼板__アングル
  6
CONTINUOUS
 62
    2
 10
1058.6344980223475
 20
722.92306864456236
 11
1061.4848043765392
 21
722.92303526734599
  0
LINE
  8
_0-6_鋼板__アングル
  6
CONTINUOUS
 62
    2
 10
1068.5841436687701
 20
722.92305827357836
 11
1088.0344651114751
 21
722.92306321588399
  0
LINE
  8
_0-6_鋼板__アングル
  6
CONTINUOUS
 62
    2
 10
1090.5344692080371
 20
720.12304613268384
 11
1093.0344633485061
 21
720.12304190881537
  0
LINE
  8
_0-6_鋼板__アングル
  6
CONTINUOUS
 62
    2
 10
1090.0344638629508
 20
720.62305328967227
 11
1090.0344578260092
 21
721.52303491094585
  0
LINE
  8
_0-6_鋼板__アングル
  6
CONTINUOUS
 62
    2
 10
1089.4345009605399
 20
720.62306143268756
 11
1089.4344949235983
 21
721.52304305396115
  0
ARC
  8
_0-6_鋼板__アングル
  6
CONTINUOUS
 62
    2
 10
1012.0344467291534
 20
721.52305694209304
 40
1.400000018042487
 50
89.999992557928124
 51
179.99999255792812
  0
ARC
  8
_0-6_鋼板__アングル
  6
CONTINUOUS
 62
    2
 10
1009.5344583197311
 20
720.62304242997357
 40
1.1000000141762398
 50
269.99999255792812
 51
359.99999255792812
  0
ARC
  8
_0-6_鋼板__アングル
  6
CONTINUOUS
 62
    2
 10
1009.5344583197311
 20
720.62304242997357
 40
0.5000000064437454
 50
269.99999255792812
 51
359.99999255792812
  0
ARC
  8
_0-6_鋼板__アングル
  6
CONTINUOUS
 62
    2
 10
1007.03446236736
 20
719.62303415176734
 40
0.5000000064437454
 50
89.999992557928124
 51
179.99999255792812
  0
ARC
  8
_0-6_鋼板__アングル
  6
CONTINUOUS
 62
    2
 10
1065.0344455097911
 20
723.5230656508304
 40
3.0000000386624723
 50
179.99999255792812
 51
359.99999255792812
  0
ARC
  8
_0-6_鋼板__アングル
  6
CONTINUOUS
 62
    2
 10
1065.0344455097911
 20
723.5230656508304
 40
3.6000000463949671
 50
189.59406299249841
 51
350.40592212335781
  0
ARC
  8
_0-6_鋼板__アングル
  6
CONTINUOUS
 62
    2
 10
1035.0344409829427
 20
723.52304271959269
 40
3.6000000463949671
 50
189.59406299249841
 51
350.40592212335781
  0
ARC
  8
_0-6_鋼板__アングル
  6
CONTINUOUS
 62
    2
 10
1035.0344409829427
 20
723.52304271959269
 40
3.0000000386624723
 50
179.99999255792812
 51
359.99999255792812
  0
ARC
  8
_0-6_鋼板__アングル
  6
CONTINUOUS
 62
    2
 10
1093.0344995572682
 20
719.6230353518888
 40
0.5000000064437454
 50
359.99999255792812
 51
89.999992557928124
  0
ARC
  8
_0-6_鋼板__アングル
  6
CONTINUOUS
 62
    2
 10
1090.5345072287014
 20
720.6230520778297
 40
0.5000000064437454
 50
179.99999255792812
 51
269.99999255792812
  0
ARC
  8
_0-6_鋼板__アングル
  6
CONTINUOUS
 62
    2
 10
1088.0345070512885
 20
721.52303792297175
 40
1.400000018042487
 50
359.99999255792812
 51
89.999992557928124
  0
ARC
  8
_0-6_鋼板__アングル
  6
CONTINUOUS
 62
    2
 10
1090.5345072287014
 20
720.6230520778297
 40
1.1000000141762398
 50
179.99999255792812
 51
269.99999255792812
  0
LINE
  8
_0-6_鋼板__アングル
  6
CONTINUOUS
 62
    2
 10
1046.0345009369394
 20
721.52303514623441
 11
1047.0344377035758
 21
720.52305855875034
  0
LINE
  8
_0-6_鋼板__アングル
  6
CONTINUOUS
 62
    2
 10
1046.0345009369394
 20
721.52303514623441
 11
1054.0344528005676
 21
721.52305898928375
  0
LINE
  8
_0-6_鋼板__アングル
  6
CONTINUOUS
 62
    2
 10
1046.4345049881877
 20
720.27452945446498
 11
1046.4344729892628
 21
719.52305419969548
  0
LINE
  8
_0-6_鋼板__アングル
  6
CONTINUOUS
 62
    2
 10
1045.7859184319091
 20
720.92304236269342
 11
1046.4345049881877
 21
720.27452945446498
  0
LINE
  8
_0-6_鋼板__アングル
  6
CONTINUOUS
 62
    2
 10
1045.7859184319091
 20
720.92304236269342
 11
1041.4344424626188
 21
720.92305082562802
  0
LINE
  8
_0-6_鋼板__アングル
  6
CONTINUOUS
 62
    2
 10
1041.4344457805328
 20
722.92303871506306
 11
1041.4344424626188
 21
720.92305082562802
  0
LINE
  8
_0-6_鋼板__アングル
  6
CONTINUOUS
 62
    2
 10
1042.034454552454
 20
723.52306739799246
 11
1042.0344509286474
 21
721.52304239384762
  0
LINE
  8
_0-6_鋼板__アングル
  6
CONTINUOUS
 62
    2
 10
1046.0345009369394
 20
721.52303514623441
 11
1042.0344509286474
 21
721.52304239384762
  0
LINE
  8
_0-6_鋼板__アングル
  6
CONTINUOUS
 62
    2
 10
1053.6345061113366
 20
720.27453941172666
 11
1053.634474112414
 21
719.52306415695716
  0
LINE
  8
_0-6_鋼板__アングル
  6
CONTINUOUS
 62
    2
 10
1054.2830184077866
 20
720.92305173857881
 11
1053.6345061113366
 21
720.27453941172666
  0
LINE
  8
_0-6_鋼板__アングル
  6
CONTINUOUS
 62
    2
 10
1054.2830184077866
 20
720.92305173857881
 11
1058.6344943770746
 21
720.9230432756442
  0
LINE
  8
_0-6_鋼板__アングル
  6
CONTINUOUS
 62
    2
 10
1058.6344980008835
 20
722.92306827978905
 11
1058.6344943770746
 21
720.9230432756442
  0
LINE
  8
_0-6_鋼板__アングル
  6
CONTINUOUS
 62
    2
 10
1058.0345061267758
 20
723.52303963110785
 11
1058.0345028088595
 21
721.52305174167282
  0
LINE
  8
_0-6_鋼板__アングル
  6
CONTINUOUS
 62
    2
 10
1058.0345028088595
 20
721.52305174167282
 11
1054.0344528005676
 21
721.52305898928375
  0
LINE
  8
_0-6_鋼板__アングル
  6
CONTINUOUS
 62
    2
 10
1054.0344528005676
 20
721.52305898928375
 11
1053.0344384865907
 21
720.5230482991135
  0
LINE
  8
_0-6_鋼板__アングル
  6
CONTINUOUS
 62
    2
 10
1053.0344384865907
 20
720.5230482991135
 11
1053.0344366746885
 21
719.52303579704108
  0
LINE
  8
_0-6_鋼板__アングル
  6
CONTINUOUS
 62
    2
 10
1047.0344377035758
 20
720.52305855875034
 11
1047.0344358916736
 21
719.52304605667791
  0
LINE
  8
_0-6_鋼板__アングル
  6
CONTINUOUS
 62
    2
 10
1093.5344611400842
 20
719.52290109012324
 11
1006.5344856880802
 21
719.52304098574245
  0
LINE
  8
_0-6_鋼板__アングル
  6
CONTINUOUS
 62
    2
 10
1093.5344611400842
 20
719.52290109012324
 11
1093.5344686935923
 21
719.62303475182694
  0
ARC
  8
_0-6_鋼板__アングル
  6
CONTINUOUS
 62
    2
 10
1012.0344467291534
 20
721.52305694209304
 40
2.0000000257749817
 50
90.285388593888896
 51
179.9999925579281
  0
LINE
  8
_0-6_鋼板__アングル
  6
CONTINUOUS
 62
    2
 10
1088.0571386227507
 20
723.52290989764128
 11
1012.024484828994
 21
723.52303215785128
  0
ARC
  8
_0-6_鋼板__アングル
  6
CONTINUOUS
 62
    2
 10
1088.0345070512885
 20
721.52303792297175
 40
2.0000000257749817
 50
359.99999255792812
 51
89.351639406775448
  0
LINE
  8
ADD_LINE
  6
DOT
 62
    4
 10
1050
 20
703.43266218219128
 11
1050
 21
737.1211671160097
  0
TEXT
  8
_0-a_文字
 62
    7
 10
801.2745612189874
 20
809.99623267557899
 40
15.000000000000568
 41
0.9999999999999701
 50
0
  1
塩ビシート機械的固定工法
  0
ARC
  8
_0-1_線色１__水色__
  6
CONTINUOUS
 62
    4
 10
640.54415490764313
 20
715.98130439469401
 40
1.2083333333333581
 50
320.93926410748708
 51
39.060735892512916
  0
ARC
  8
_0-1_線色１__水色__
  6
CONTINUOUS
 62
    4
 10
642.01611505211986
 20
714.06463772809389
 40
1.2083333333333179
 50
243.78788958924599
 51
52.476486801880853
  0
LINE
  8
_0-7_ビス
  6
CONTINUOUS
 62
    7
 10
1056.0000000000014
 20
723.1383557087554
 11
1056.0000000000014
 21
723.52297109337201
  0
LINE
  8
_0-7_ビス
  6
DASHED3
 62
    7
 10
1051.4674681162569
 20
720.97360156254354
 11
1052.5500158361501
 21
723.52297109337201
  0
LINE
  8
_0-7_ビス
  6
CONTINUOUS
 62
    7
 10
1044.0000000000009
 20
723.1383557087554
 11
1044.0000000000009
 21
723.52297109337201
  0
LINE
  8
_0-7_ビス
  6
DASHED3
 62
    7
 10
1048.5325318837477
 20
720.97360156254354
 11
1047.4499841638544
 21
723.52297109337201
  0
LINE
  8
_0-7_ビス
  6
CONTINUOUS
 62
    7
 10
1056.0000000000014
 20
723.1383557087554
 11
1044.0000000000009
 21
723.1383557087554
  0
LINE
  8
_0-7_ビス
  6
CONTINUOUS
 62
    7
 10
1056.0000000000014
 20
723.52297109337201
 11
1044.0000000000009
 21
723.52297109337201
  0
ARC
  8
_0-7_ビス
  6
DASHED3
 62
    7
 10
1050
 20
722.08414466081081
 40
1.8403175392666382
 50
217.11750793457031
 51
322.88247680664062
  0
LINE
  8
_0-7_ビス
  6
CONTINUOUS
 62
    7
 10
1054.0857864376267
 20
721.22414214638297
 11
1056.0000000000014
 21
723.1383557087554
  0
ARC
  8
_0-7_ビス
  6
CONTINUOUS
 62
    7
 10
1055.5000000000018
 20
719.80992858400896
 40
2
 50
135.00000000000153
 51
180.00000000000003
  0
LINE
  8
_0-7_ビス
  6
CONTINUOUS
 62
    7
 10
1045.9142135623733
 20
721.22414214638297
 11
1044.0000000000009
 21
723.1383557087554
  0
ARC
  8
_0-7_ビス
  6
CONTINUOUS
 62
    7
 10
1044.5000000000027
 20
719.80992858400896
 40
2
 50
0
 51
44.999999999998501
  0
LINE
  8
_0-7_ビス
  6
CONTINUOUS
 62
    7
 10
1053.5000000000014
 20
719.5229710933711
 11
1046.5000000000009
 21
719.5229710933711
  0
LINE
  8
ADD_LINE
  6
DOT
 62
    4
 10
1050
 20
635.4036064314198
 11
1050
 21
730.02032617403756
  0
LINE
  8
_0-7_ビス
  6
CONTINUOUS
 62
    7
 10
1046.5000000000009
 20
645.54369703553334
 11
1050
 21
643.52297109337201
  0
LINE
  8
_0-7_ビス
  6
CONTINUOUS
 62
    7
 10
1046.5000000000009
 20
719.80992858400896
 11
1046.5000000000009
 21
645.54369703553334
  0
LINE
  8
_0-7_ビス
  6
CONTINUOUS
 62
    7
 10
1053.5000000000014
 20
649.02297109337155
 11
1046.5000000000009
 21
649.02297109337155
  0
LINE
  8
_0-7_ビス
  6
CONTINUOUS
 62
    7
 10
1053.5000000000014
 20
645.54369703553562
 11
1050
 21
643.52297109337201
  0
LINE
  8
_0-7_ビス
  6
CONTINUOUS
 62
    7
 10
1053.5000000000014
 20
719.80992858400896
 11
1053.5000000000014
 21
645.54369703553562
  0
LINE
  8
_0-7_ビス
  6
CONTINUOUS
 62
    7
 10
1053.5000000000014
 20
703.52297109337201
 11
1046.5000000000009
 21
703.52297109337201
  0
LINE
  8
_0-7_ビス
  6
CONTINUOUS
 62
    4
 10
1046.5000000000009
 20
702.32316773397656
 11
1050.9775804419405
 21
703.52297109337201
  0
LINE
  8
_0-7_ビス
  6
CONTINUOUS
 62
    4
 10
1046.5000000000009
 20
690.01694720460023
 11
1053.5000000000014
 21
691.89265298468968
  0
LINE
  8
_0-7_ビス
  6
CONTINUOUS
 62
    4
 10
1046.5000000000009
 20
692.01694720460068
 11
1053.5000000000014
 21
693.89265298468899
  0
LINE
  8
_0-7_ビス
  6
CONTINUOUS
 62
    4
 10
1046.5000000000009
 20
694.0169472046
 11
1053.5000000000014
 21
695.89265298468831
  0
LINE
  8
_0-7_ビス
  6
CONTINUOUS
 62
    4
 10
1046.5000000000009
 20
696.01694720460046
 11
1053.5000000000014
 21
697.89265298468877
  0
LINE
  8
_0-7_ビス
  6
CONTINUOUS
 62
    4
 10
1046.5000000000009
 20
698.01694720459977
 11
1053.5000000000014
 21
699.89265298468922
  0
LINE
  8
_0-7_ビス
  6
CONTINUOUS
 62
    4
 10
1046.5000000000009
 20
700.01694720460023
 11
1053.5000000000014
 21
701.89265298468968
  0
LINE
  8
_0-7_ビス
  6
CONTINUOUS
 62
    4
 10
1046.5000000000009
 20
677.7107266752239
 11
1053.5000000000014
 21
679.58643245531221
  0
LINE
  8
_0-7_ビス
  6
CONTINUOUS
 62
    4
 10
1046.5000000000009
 20
679.71072667522321
 11
1053.5000000000014
 21
681.58643245531152
  0
LINE
  8
_0-7_ビス
  6
CONTINUOUS
 62
    4
 10
1046.5000000000009
 20
681.71072667522367
 11
1053.5000000000014
 21
683.58643245531198
  0
LINE
  8
_0-7_ビス
  6
CONTINUOUS
 62
    4
 10
1046.5000000000009
 20
683.71072667522299
 11
1053.5000000000014
 21
685.58643245531243
  0
LINE
  8
_0-7_ビス
  6
CONTINUOUS
 62
    4
 10
1046.5000000000009
 20
685.71072667522344
 11
1053.5000000000014
 21
687.58643245531175
  0
LINE
  8
_0-7_ビス
  6
CONTINUOUS
 62
    4
 10
1046.5000000000009
 20
687.7107266752239
 11
1053.5000000000014
 21
689.58643245531221
  0
LINE
  8
_0-7_ビス
  6
CONTINUOUS
 62
    4
 10
1046.5000000000009
 20
665.40450614584643
 11
1053.5000000000014
 21
667.28021192593474
  0
LINE
  8
_0-7_ビス
  6
CONTINUOUS
 62
    4
 10
1046.5000000000009
 20
667.40450614584688
 11
1053.5000000000014
 21
669.28021192593519
  0
LINE
  8
_0-7_ビス
  6
CONTINUOUS
 62
    4
 10
1046.5000000000009
 20
669.4045061458462
 11
1053.5000000000014
 21
671.28021192593451
  0
LINE
  8
_0-7_ビス
  6
CONTINUOUS
 62
    4
 10
1046.5000000000009
 20
671.40450614584665
 11
1053.5000000000014
 21
673.28021192593496
  0
LINE
  8
_0-7_ビス
  6
CONTINUOUS
 62
    4
 10
1046.5000000000009
 20
673.40450614584597
 11
1053.5000000000014
 21
675.28021192593542
  0
LINE
  8
_0-7_ビス
  6
CONTINUOUS
 62
    4
 10
1046.5000000000009
 20
675.40450614584643
 11
1053.5000000000014
 21
677.28021192593587
  0
LINE
  8
_0-7_ビス
  6
CONTINUOUS
 62
    4
 10
1046.5000000000009
 20
653.09828561646896
 11
1053.5000000000014
 21
654.9739913965584
  0
LINE
  8
_0-7_ビス
  6
CONTINUOUS
 62
    4
 10
1046.5000000000009
 20
655.09828561646941
 11
1053.5000000000014
 21
656.97399139655886
  0
LINE
  8
_0-7_ビス
  6
CONTINUOUS
 62
    4
 10
1046.5000000000009
 20
657.09828561646987
 11
1053.5000000000014
 21
658.97399139655704
  0
LINE
  8
_0-7_ビス
  6
CONTINUOUS
 62
    4
 10
1046.5000000000009
 20
659.09828561646918
 11
1053.5000000000014
 21
660.97399139655863
  0
LINE
  8
_0-7_ビス
  6
CONTINUOUS
 62
    4
 10
1046.5000000000009
 20
661.09828561646964
 11
1053.5000000000014
 21
662.97399139655795
  0
LINE
  8
_0-7_ビス
  6
CONTINUOUS
 62
    4
 10
1046.5000000000009
 20
663.09828561647009
 11
1053.5000000000014
 21
664.9739913965584
  0
LINE
  8
_0-7_ビス
  6
CONTINUOUS
 62
    4
 10
1046.5000000000009
 20
650.79206508709262
 11
1053.5000000000014
 21
652.66777086718207
  0
LINE
  8
_0-7_ビス
  6
CONTINUOUS
 62
    4
 10
1047.3617247230936
 20
649.02297109337155
 11
1053.5000000000014
 21
650.66777086718162
  0
LINE
  8
ADD_LINE
  6
DOT
 62
    4
 10
750
 20
565.5689800968571
 11
750
 21
694.22333094005921
  0
LINE
  8
ADD_LINE
  6
DOT
 62
    4
 10
950
 20
565.5689800968571
 11
950
 21
694.22333094005921
  0
LINE
  8
ADD_LINE
  6
DOT
 62
    4
 10
1150.0000000000023
 20
565.5689800968571
 11
1150.0000000000023
 21
694.22333094005921
  0
LINE
  8
ADD_LINE
  6
DOT
 62
    4
 10
1350.0000000000023
 20
565.5689800968571
 11
1350.0000000000023
 21
694.22333094005921
  0
LINE
  8
_0-5_金属
  6
CONTINUOUS
 62
    7
 10
641.48239966435085
 20
577.52301109336599
 11
1458.5176003356537
 21
577.52301109336599
  0
ARC
  8
_0-5_金属
  6
CONTINUOUS
 62
    7
 10
711.65992510000251
 20
673.72787109336628
 40
2.9999997999999999
 50
12.095412999999999
 51
90.000000000000028
  0
LINE
  8
_0-5_金属
  6
CONTINUOUS
 62
    7
 10
729.99988510000321
 20
589.52288089336548
 11
714.59332495040599
 21
674.35649189930132
  0
LINE
  8
_0-5_金属
  6
CONTINUOUS
 62
    7
 10
711.67445510000107
 20
673.72298109336612
 11
727.06648521668285
 21
588.89433024102232
  0
LINE
  8
_0-5_金属
  6
CONTINUOUS
 62
    7
 10
641.48239966435085
 20
586.52301109336577
 11
1458.5176003356537
 21
586.52301109336577
  0
ARC
  8
_0-5_金属
  6
CONTINUOUS
 62
    7
 10
730.00006500000154
 20
589.52295089336644
 40
2.9999997999999999
 50
192.09540999999999
 51
269.63762905713986
  0
ARC
  8
_0-5_金属
  6
CONTINUOUS
 62
    7
 10
788.35191010000017
 20
673.71896109336603
 40
2.9999997999999999
 50
90
 51
167.90458000000001
  0
LINE
  8
_0-5_金属
  6
CONTINUOUS
 62
    7
 10
730.00006500000154
 20
589.52288089336548
 11
769.99987370429153
 21
589.52288089336548
  0
LINE
  8
_0-5_金属
  6
CONTINUOUS
 62
    7
 10
769.99987370429153
 20
589.52288089336548
 11
785.41851032639897
 21
674.34758225768405
  0
LINE
  8
_0-5_金属
  6
CONTINUOUS
 62
    7
 10
788.3253201000025
 20
673.72298109336612
 11
772.9332898736061
 21
588.89441992905859
  0
ARC
  8
_0-5_金属
  6
CONTINUOUS
 62
    7
 10
769.99989010000263
 20
589.52304109336637
 40
2.9999997999999999
 50
270
 51
347.90458000020737
  0
ARC
  8
_0-5_金属
  6
CONTINUOUS
 62
    7
 10
988.35191010000017
 20
673.71896109336603
 40
2.9999997999999999
 50
90
 51
167.90458000000001
  0
ARC
  8
_0-5_金属
  6
CONTINUOUS
 62
    7
 10
911.63683010000113
 20
673.71440109336618
 40
2.9999997999999999
 50
12.095412999999999
 51
90.000000000000028
  0
ARC
  8
_0-5_金属
  6
CONTINUOUS
 62
    7
 10
930.00001010000233
 20
589.52304109336637
 40
2.9999997999999999
 50
192.09540999999999
 51
270
  0
ARC
  8
_0-5_金属
  6
CONTINUOUS
 62
    7
 10
969.99989010000263
 20
589.52304109336637
 40
2.9999997999999999
 50
270
 51
347.90458000000001
  0
LINE
  8
_0-5_金属
  6
CONTINUOUS
 62
    7
 10
988.3253201000025
 20
673.72298109336612
 11
972.93328987360383
 21
588.89441992904835
  0
LINE
  8
_0-5_金属
  6
CONTINUOUS
 62
    7
 10
914.57022995040461
 20
674.34302189930236
 11
930.00001559373914
 21
589.52288089336548
  0
LINE
  8
_0-5_金属
  6
CONTINUOUS
 62
    7
 10
930.00001559373914
 20
589.52288089336548
 11
969.99987370429153
 21
589.52288089336548
  0
LINE
  8
_0-5_金属
  6
CONTINUOUS
 62
    7
 10
969.99987370429153
 20
589.52288089336548
 11
985.41851032639897
 21
674.34758225768405
  0
ARC
  8
_0-5_金属
  6
CONTINUOUS
 62
    7
 10
1111.6601050000031
 20
673.72787109336628
 40
2.9999997999999999
 50
12.095412999999999
 51
90.000000000000028
  0
LINE
  8
_0-5_金属
  6
CONTINUOUS
 62
    7
 10
988.3253201000025
 20
673.72298109336612
 11
1111.6746350000017
 21
673.72298109336612
  0
LINE
  8
_0-5_金属
  6
CONTINUOUS
 62
    7
 10
1130.0000650000015
 20
589.52288089336548
 11
1114.5935048504043
 21
674.35649189930132
  0
LINE
  8
_0-5_金属
  6
CONTINUOUS
 62
    7
 10
1111.6746350000017
 20
673.72298109336612
 11
1127.0666651166857
 21
588.89433024102232
  0
ARC
  8
_0-5_金属
  6
CONTINUOUS
 62
    7
 10
1130.0000650000015
 20
589.52295089336644
 40
2.9999997999999999
 50
192.09540999999999
 51
269.63762905713986
  0
ARC
  8
_0-5_金属
  6
CONTINUOUS
 62
    7
 10
1188.3519101000024
 20
673.71896109336603
 40
2.9999997999999999
 50
90
 51
167.90458000000001
  0
LINE
  8
_0-5_金属
  6
CONTINUOUS
 62
    7
 10
1130.0000650000015
 20
589.52288089336548
 11
1169.9998737042938
 21
589.52288089336548
  0
LINE
  8
_0-5_金属
  6
CONTINUOUS
 62
    7
 10
1169.9998737042938
 20
589.52288089336548
 11
1185.418510326399
 21
674.34758225768405
  0
LINE
  8
_0-5_金属
  6
CONTINUOUS
 62
    7
 10
1188.3253201000025
 20
673.72298109336612
 11
1172.9332898736061
 21
588.89441992905859
  0
ARC
  8
_0-5_金属
  6
CONTINUOUS
 62
    7
 10
1169.9998901000026
 20
589.52304109336637
 40
2.9999997999999999
 50
270
 51
347.90458000020737
  0
ARC
  8
_0-5_金属
  6
CONTINUOUS
 62
    7
 10
1311.6599251000025
 20
673.72787109336628
 40
2.9999997999999999
 50
12.095412999999999
 51
90.000000000000028
  0
LINE
  8
_0-5_金属
  6
CONTINUOUS
 62
    7
 10
1188.3253201000025
 20
673.72298109336612
 11
1311.6744551000011
 21
673.72298109336612
  0
LINE
  8
_0-5_金属
  6
CONTINUOUS
 62
    7
 10
1329.9998851000032
 20
589.52288089336548
 11
1314.593324950406
 21
674.35649189930132
  0
LINE
  8
_0-5_金属
  6
CONTINUOUS
 62
    7
 10
1311.6744551000011
 20
673.72298109336612
 11
1327.0664852166851
 21
588.89433024102232
  0
ARC
  8
_0-5_金属
  6
CONTINUOUS
 62
    7
 10
1330.0000650000015
 20
589.52295089336644
 40
2.9999997999999999
 50
192.09540999999999
 51
269.63762905713986
  0
ARC
  8
_0-5_金属
  6
CONTINUOUS
 62
    7
 10
1388.3519101000024
 20
673.71896109336603
 40
2.9999997999999999
 50
90
 51
167.90458000000001
  0
LINE
  8
_0-5_金属
  6
CONTINUOUS
 62
    7
 10
1330.0000650000015
 20
589.52288089336548
 11
1369.9998737042938
 21
589.52288089336548
  0
LINE
  8
_0-5_金属
  6
CONTINUOUS
 62
    7
 10
1369.9998737042938
 20
589.52288089336548
 11
1385.418510326399
 21
674.34758225768405
  0
LINE
  8
_0-5_金属
  6
CONTINUOUS
 62
    7
 10
1388.3253201000025
 20
673.72298109336612
 11
1372.9332898736061
 21
588.89441992905859
  0
ARC
  8
_0-5_金属
  6
CONTINUOUS
 62
    7
 10
1369.9998901000026
 20
589.52304109336637
 40
2.9999997999999999
 50
270
 51
347.90458000020737
  0
LINE
  8
_0-5_金属
  6
CONTINUOUS
 62
    7
 10
788.3253201000025
 20
673.72298109336612
 11
911.67452010000261
 21
673.72298109336612
  0
LINE
  8
_0-5_金属
  6
CONTINUOUS
 62
    7
 10
927.06661021668424
 20
588.89442044102339
 11
911.67452010000261
 21
673.72298109336612
  0
LINE
  8
_0-5_金属
  6
CONTINUOUS
 62
    7
 10
1388.3253201000025
 20
673.72298109336612
 11
1458.5176003356537
 21
673.72298109336612
  0
LINE
  8
_0-5_金属
  6
CONTINUOUS
 62
    7
 10
641.48239966435085
 20
673.72298109336612
 11
711.67445510000107
 21
673.72298109336612
  0
ARC
  8
_0-5_金属
  6
CONTINUOUS
 62
    7
 10
736.04996000000028
 20
603.5729210933664
 40
1.0499997999999999
 50
90
 51
270
  0
ARC
  8
_0-5_金属
  6
CONTINUOUS
 62
    7
 10
736.04996000000028
 20
603.5729210933664
 40
0.2499999
 50
90
 51
270
  0
ARC
  8
_0-5_金属
  6
CONTINUOUS
 62
    7
 10
763.95003999999972
 20
603.5729210933664
 40
1.0499997999999999
 50
270
 51
90
  0
ARC
  8
_0-5_金属
  6
CONTINUOUS
 62
    7
 10
763.95003999999972
 20
603.5729210933664
 40
0.2499999
 50
270
 51
90
  0
ARC
  8
_0-5_金属
  6
CONTINUOUS
 62
    7
 10
748.40005000000019
 20
605.42297109336573
 40
0.7999998999999997
 50
270
 51
0
  0
ARC
  8
_0-5_金属
  6
CONTINUOUS
 62
    7
 10
748.40005000000019
 20
605.42297109336573
 40
1.5999999
 50
270
 51
0
  0
ARC
  8
_0-5_金属
  6
CONTINUOUS
 62
    7
 10
751.59994999999981
 20
605.42297109336573
 40
0.7999998999999997
 50
180
 51
270
  0
ARC
  8
_0-5_金属
  6
CONTINUOUS
 62
    7
 10
751.59994999999981
 20
605.42297109336573
 40
1.5999999
 50
180
 51
270
  0
ARC
  8
_0-5_金属
  6
CONTINUOUS
 62
    7
 10
748.40005000000019
 20
675.12299109336595
 40
0.7999998999999997
 50
0
 51
90
  0
ARC
  8
_0-5_金属
  6
CONTINUOUS
 62
    7
 10
748.40005000000019
 20
675.12299109336595
 40
1.5999999
 50
0
 51
90
  0
ARC
  8
_0-5_金属
  6
CONTINUOUS
 62
    7
 10
751.59994999999981
 20
675.92297109336641
 40
0.7999998999999997
 50
90
 51
180
  0
ARC
  8
_0-5_金属
  6
CONTINUOUS
 62
    7
 10
751.59994999999981
 20
675.92297109336641
 40
1.5999999
 50
90
 51
180
  0
LINE
  8
_0-5_金属
  6
CONTINUOUS
 62
    7
 10
750
 20
672.67185109336538
 11
750
 21
662.23101109336653
  0
LINE
  8
_0-5_金属
  6
CONTINUOUS
 62
    7
 10
748.43494000000192
 20
663.79600109336593
 11
750
 21
662.23101109336653
  0
LINE
  8
_0-5_金属
  6
CONTINUOUS
 62
    7
 10
750
 20
672.67185109336538
 11
748.43494000000192
 21
663.79600109336593
  0
LINE
  8
_0-5_金属
  6
CONTINUOUS
 62
    7
 10
750
 20
662.23101109336653
 11
750
 21
605.42297109336573
  0
LINE
  8
_0-5_金属
  6
CONTINUOUS
 62
    7
 10
747.57478000000219
 20
663.52481109336622
 11
749.20003000000179
 21
661.89956109336549
  0
LINE
  8
_0-5_金属
  6
CONTINUOUS
 62
    7
 10
749.20003000000179
 20
661.89956109336549
 11
749.20003000000179
 21
605.42297109336573
  0
LINE
  8
_0-5_金属
  6
CONTINUOUS
 62
    7
 10
749.20003000000179
 20
672.74200109336562
 11
747.57478000000219
 21
663.52481109336622
  0
LINE
  8
_0-5_金属
  6
CONTINUOUS
 62
    7
 10
750
 20
675.92297109336641
 11
750
 21
672.67185109336538
  0
LINE
  8
_0-5_金属
  6
CONTINUOUS
 62
    7
 10
749.20003000000179
 20
675.12299109336595
 11
749.20003000000179
 21
672.74200109336562
  0
LINE
  8
_0-5_金属
  6
CONTINUOUS
 62
    7
 10
750
 20
676.72300109336561
 11
750
 21
677.5229710933661
  0
LINE
  8
_0-5_金属
  6
CONTINUOUS
 62
    7
 10
735.00001000000339
 20
676.72300109336561
 11
735.00001000000339
 21
675.92303109336626
  0
LINE
  8
_0-5_金属
  6
CONTINUOUS
 62
    7
 10
735.00001000000339
 20
675.92303109336626
 11
748.40005000000019
 21
675.92303109336626
  0
LINE
  8
_0-5_金属
  6
CONTINUOUS
 62
    7
 10
750.79997000000276
 20
675.92297109336641
 11
750.79997000000276
 21
605.42297109336573
  0
LINE
  8
_0-5_金属
  6
CONTINUOUS
 62
    7
 10
736.04996000000028
 20
603.82296109336608
 11
748.40005000000019
 21
603.82296109336608
  0
LINE
  8
_0-5_金属
  6
CONTINUOUS
 62
    7
 10
736.04996000000028
 20
603.32289109336557
 11
763.95003999999972
 21
603.32289109336557
  0
LINE
  8
_0-5_金属
  6
CONTINUOUS
 62
    7
 10
736.04996000000028
 20
604.62287109336671
 11
748.40005000000019
 21
604.62287109336671
  0
LINE
  8
_0-5_金属
  6
CONTINUOUS
 62
    7
 10
751.59994999999981
 20
604.62287109336671
 11
763.95003999999972
 21
604.62287109336671
  0
LINE
  8
_0-5_金属
  6
CONTINUOUS
 62
    7
 10
751.59994999999981
 20
603.82296109336608
 11
763.95003999999972
 21
603.82296109336608
  0
LINE
  8
_0-5_金属
  6
CONTINUOUS
 62
    7
 10
736.04996000000028
 20
602.52292129336638
 11
763.95003999999972
 21
602.52292129336638
  0
ARC
  8
_0-5_金属
  6
CONTINUOUS
 62
    7
 10
963.94999009999992
 20
603.5729210933664
 40
1.0499997999999999
 50
270
 51
90
  0
ARC
  8
_0-5_金属
  6
CONTINUOUS
 62
    7
 10
963.94999009999992
 20
603.5729210933664
 40
0.2499999
 50
270
 51
90
  0
ARC
  8
_0-5_金属
  6
CONTINUOUS
 62
    7
 10
936.04991010000049
 20
603.5729210933664
 40
1.0499997999999999
 50
90
 51
270
  0
ARC
  8
_0-5_金属
  6
CONTINUOUS
 62
    7
 10
936.04991010000049
 20
603.5729210933664
 40
0.2499999
 50
90
 51
270
  0
ARC
  8
_0-5_金属
  6
CONTINUOUS
 62
    7
 10
951.59990010000001
 20
605.42297109336573
 40
0.7999998999999997
 50
180
 51
270
  0
ARC
  8
_0-5_金属
  6
CONTINUOUS
 62
    7
 10
951.59990010000001
 20
605.42297109336573
 40
1.5999999
 50
180
 51
270
  0
ARC
  8
_0-5_金属
  6
CONTINUOUS
 62
    7
 10
948.4000001000004
 20
605.42297109336573
 40
0.7999998999999997
 50
270
 51
0
  0
ARC
  8
_0-5_金属
  6
CONTINUOUS
 62
    7
 10
948.4000001000004
 20
605.42297109336573
 40
1.5999999
 50
270
 51
0
  0
ARC
  8
_0-5_金属
  6
CONTINUOUS
 62
    7
 10
951.59990010000001
 20
675.92297109336641
 40
0.7999998999999997
 50
90
 51
180
  0
ARC
  8
_0-5_金属
  6
CONTINUOUS
 62
    7
 10
951.59990010000001
 20
675.92297109336641
 40
1.5999999
 50
90
 51
180
  0
ARC
  8
_0-5_金属
  6
CONTINUOUS
 62
    7
 10
948.4000001000004
 20
675.92297109336641
 40
0.7999998999999997
 50
0
 51
90
  0
ARC
  8
_0-5_金属
  6
CONTINUOUS
 62
    7
 10
948.4000001000004
 20
675.92297109336641
 40
1.5999999
 50
0
 51
90
  0
LINE
  8
_0-5_金属
  6
CONTINUOUS
 62
    7
 10
950.79992010000296
 20
675.92297109336641
 11
950.79992010000296
 21
605.42297109336573
  0
LINE
  8
_0-5_金属
  6
CONTINUOUS
 62
    7
 10
949.19998010000199
 20
675.92297109336641
 11
949.19998010000199
 21
605.42297109336573
  0
LINE
  8
_0-5_金属
  6
CONTINUOUS
 62
    7
 10
949.99995010000021
 20
675.92297109336641
 11
949.99995010000021
 21
605.42297109336573
  0
LINE
  8
_0-5_金属
  6
CONTINUOUS
 62
    7
 10
963.94999009999992
 20
603.82296109336608
 11
951.59990010000001
 21
603.82296109336608
  0
LINE
  8
_0-5_金属
  6
CONTINUOUS
 62
    7
 10
963.94999009999992
 20
603.32289109336557
 11
936.04991010000049
 21
603.32289109336557
  0
LINE
  8
_0-5_金属
  6
CONTINUOUS
 62
    7
 10
963.94999009999992
 20
604.62287109336671
 11
951.59990010000001
 21
604.62287109336671
  0
LINE
  8
_0-5_金属
  6
CONTINUOUS
 62
    7
 10
948.4000001000004
 20
604.62287109336671
 11
936.04991010000049
 21
604.62287109336671
  0
LINE
  8
_0-5_金属
  6
CONTINUOUS
 62
    7
 10
948.4000001000004
 20
603.82296109336608
 11
936.04991010000049
 21
603.82296109336608
  0
LINE
  8
_0-5_金属
  6
CONTINUOUS
 62
    7
 10
936.04991010000049
 20
602.52292129336638
 11
963.94999009999992
 21
602.52292129336638
  0
LINE
  8
_0-5_金属
  6
CONTINUOUS
 62
    7
 10
1148.4000550000019
 20
676.72300109336561
 11
951.46010010000282
 21
676.72300109336561
  0
ARC
  8
_0-5_金属
  6
CONTINUOUS
 62
    7
 10
1163.9500450000014
 20
603.5729210933664
 40
1.0499997999999999
 50
270
 51
90
  0
ARC
  8
_0-5_金属
  6
CONTINUOUS
 62
    7
 10
1163.9500450000014
 20
603.5729210933664
 40
0.2499999
 50
270
 51
90
  0
ARC
  8
_0-5_金属
  6
CONTINUOUS
 62
    7
 10
1136.049965000002
 20
603.5729210933664
 40
1.0499997999999999
 50
90
 51
270
  0
ARC
  8
_0-5_金属
  6
CONTINUOUS
 62
    7
 10
1136.049965000002
 20
603.5729210933664
 40
0.2499999
 50
90
 51
270
  0
ARC
  8
_0-5_金属
  6
CONTINUOUS
 62
    7
 10
1151.5999450000027
 20
605.42297109336573
 40
0.7999998999999997
 50
180
 51
270
  0
ARC
  8
_0-5_金属
  6
CONTINUOUS
 62
    7
 10
1151.5999450000027
 20
605.42297109336573
 40
1.5999999
 50
180
 51
270
  0
ARC
  8
_0-5_金属
  6
CONTINUOUS
 62
    7
 10
1148.4000550000019
 20
605.42297109336573
 40
0.7999998999999997
 50
270
 51
0
  0
ARC
  8
_0-5_金属
  6
CONTINUOUS
 62
    7
 10
1148.4000550000019
 20
605.42297109336573
 40
1.5999999
 50
270
 51
0
  0
ARC
  8
_0-5_金属
  6
CONTINUOUS
 62
    7
 10
1151.5999450000027
 20
675.92297109336641
 40
0.7999998999999997
 50
90
 51
180
  0
ARC
  8
_0-5_金属
  6
CONTINUOUS
 62
    7
 10
1148.4000550000019
 20
675.92297109336641
 40
0.7999998999999997
 50
0
 51
90
  0
ARC
  8
_0-5_金属
  6
CONTINUOUS
 62
    7
 10
1148.4000550000019
 20
675.92297109336641
 40
1.5999999
 50
0
 51
90
  0
LINE
  8
_0-5_金属
  6
CONTINUOUS
 62
    7
 10
1114.999885000002
 20
677.5229710933661
 11
1148.4000550000019
 21
677.5229710933661
  0
LINE
  8
_0-5_金属
  6
CONTINUOUS
 62
    7
 10
1150.7999750000022
 20
675.92297109336641
 11
1150.7999750000022
 21
605.42297109336573
  0
LINE
  8
_0-5_金属
  6
CONTINUOUS
 62
    7
 10
1149.2000350000012
 20
675.92297109336641
 11
1149.2000350000012
 21
605.42297109336573
  0
LINE
  8
_0-5_金属
  6
CONTINUOUS
 62
    7
 10
1150.0000050000017
 20
675.92297109336641
 11
1150.0000050000017
 21
605.42297109336573
  0
LINE
  8
_0-5_金属
  6
CONTINUOUS
 62
    7
 10
1163.9500450000014
 20
603.82296109336608
 11
1151.5999450000027
 21
603.82296109336608
  0
LINE
  8
_0-5_金属
  6
CONTINUOUS
 62
    7
 10
1163.9500450000014
 20
603.32289109336557
 11
1136.049965000002
 21
603.32289109336557
  0
LINE
  8
_0-5_金属
  6
CONTINUOUS
 62
    7
 10
1163.9500450000014
 20
604.62287109336671
 11
1151.5999450000027
 21
604.62287109336671
  0
LINE
  8
_0-5_金属
  6
CONTINUOUS
 62
    7
 10
1148.4000550000019
 20
604.62287109336671
 11
1136.049965000002
 21
604.62287109336671
  0
LINE
  8
_0-5_金属
  6
CONTINUOUS
 62
    7
 10
1148.4000550000019
 20
603.82296109336608
 11
1136.049965000002
 21
603.82296109336608
  0
LINE
  8
_0-5_金属
  6
CONTINUOUS
 62
    7
 10
1136.049965000002
 20
602.52292129336638
 11
1163.9500450000014
 21
602.52292129336638
  0
LINE
  8
_0-5_金属
  6
CONTINUOUS
 62
    7
 10
951.59990010000001
 20
677.5229710933661
 11
1114.999885000002
 21
677.5229710933661
  0
ARC
  8
_0-5_金属
  6
CONTINUOUS
 62
    7
 10
1151.5999450000027
 20
675.92297109336641
 40
1.5999999
 50
90
 51
180
  0
ARC
  8
_0-5_金属
  6
CONTINUOUS
 62
    7
 10
1336.0499600000026
 20
603.5729210933664
 40
1.0499997999999999
 50
90
 51
270
  0
ARC
  8
_0-5_金属
  6
CONTINUOUS
 62
    7
 10
1336.0499600000026
 20
603.5729210933664
 40
0.2499999
 50
90
 51
270
  0
ARC
  8
_0-5_金属
  6
CONTINUOUS
 62
    7
 10
1363.950040000002
 20
603.5729210933664
 40
1.0499997999999999
 50
270
 51
90
  0
ARC
  8
_0-5_金属
  6
CONTINUOUS
 62
    7
 10
1363.950040000002
 20
603.5729210933664
 40
0.2499999
 50
270
 51
90
  0
ARC
  8
_0-5_金属
  6
CONTINUOUS
 62
    7
 10
1348.4000500000025
 20
605.42297109336573
 40
0.7999998999999997
 50
270
 51
0
  0
ARC
  8
_0-5_金属
  6
CONTINUOUS
 62
    7
 10
1348.4000500000025
 20
605.42297109336573
 40
1.5999999
 50
270
 51
0
  0
ARC
  8
_0-5_金属
  6
CONTINUOUS
 62
    7
 10
1351.5999500000021
 20
605.42297109336573
 40
0.7999998999999997
 50
180
 51
270
  0
ARC
  8
_0-5_金属
  6
CONTINUOUS
 62
    7
 10
1351.5999500000021
 20
605.42297109336573
 40
1.5999999
 50
180
 51
270
  0
ARC
  8
_0-5_金属
  6
CONTINUOUS
 62
    7
 10
1348.4000500000025
 20
675.12299109336595
 40
0.7999998999999997
 50
0
 51
90
  0
ARC
  8
_0-5_金属
  6
CONTINUOUS
 62
    7
 10
1348.4000500000025
 20
675.12299109336595
 40
1.5999999
 50
0
 51
90
  0
ARC
  8
_0-5_金属
  6
CONTINUOUS
 62
    7
 10
1351.5999500000021
 20
675.92297109336641
 40
0.7999998999999997
 50
90
 51
180
  0
ARC
  8
_0-5_金属
  6
CONTINUOUS
 62
    7
 10
1351.5999500000021
 20
675.92297109336641
 40
1.5999999
 50
90
 51
180
  0
LINE
  8
_0-5_金属
  6
CONTINUOUS
 62
    7
 10
1350.0000000000023
 20
672.67185109336538
 11
1350.0000000000023
 21
662.23101109336653
  0
LINE
  8
_0-5_金属
  6
CONTINUOUS
 62
    7
 10
1348.4349400000019
 20
663.79600109336593
 11
1350.0000000000023
 21
662.23101109336653
  0
LINE
  8
_0-5_金属
  6
CONTINUOUS
 62
    7
 10
1350.0000000000023
 20
672.67185109336538
 11
1348.4349400000019
 21
663.79600109336593
  0
LINE
  8
_0-5_金属
  6
CONTINUOUS
 62
    7
 10
1350.0000000000023
 20
662.23101109336653
 11
1350.0000000000023
 21
605.42297109336573
  0
LINE
  8
_0-5_金属
  6
CONTINUOUS
 62
    7
 10
1347.5747800000022
 20
663.52481109336622
 11
1349.2000300000018
 21
661.89956109336549
  0
LINE
  8
_0-5_金属
  6
CONTINUOUS
 62
    7
 10
1349.2000300000018
 20
661.89956109336549
 11
1349.2000300000018
 21
605.42297109336573
  0
LINE
  8
_0-5_金属
  6
CONTINUOUS
 62
    7
 10
1349.2000300000018
 20
672.74200109336562
 11
1347.5747800000022
 21
663.52481109336622
  0
LINE
  8
_0-5_金属
  6
CONTINUOUS
 62
    7
 10
1350.0000000000023
 20
675.92297109336641
 11
1350.0000000000023
 21
672.67185109336538
  0
LINE
  8
_0-5_金属
  6
CONTINUOUS
 62
    7
 10
1349.2000300000018
 20
675.12299109336595
 11
1349.2000300000018
 21
672.74200109336562
  0
LINE
  8
_0-5_金属
  6
CONTINUOUS
 62
    7
 10
1350.0000000000023
 20
676.72300109336561
 11
1350.0000000000023
 21
677.5229710933661
  0
LINE
  8
_0-5_金属
  6
CONTINUOUS
 62
    7
 10
1335.0000100000034
 20
676.72300109336561
 11
1335.0000100000034
 21
675.92303109336626
  0
LINE
  8
_0-5_金属
  6
CONTINUOUS
 62
    7
 10
1335.0000100000034
 20
675.92303109336626
 11
1348.4000500000025
 21
675.92303109336626
  0
LINE
  8
_0-5_金属
  6
CONTINUOUS
 62
    7
 10
1350.7999700000028
 20
675.92297109336641
 11
1350.7999700000028
 21
605.42297109336573
  0
LINE
  8
_0-5_金属
  6
CONTINUOUS
 62
    7
 10
1336.0499600000026
 20
603.82296109336608
 11
1348.4000500000025
 21
603.82296109336608
  0
LINE
  8
_0-5_金属
  6
CONTINUOUS
 62
    7
 10
1336.0499600000026
 20
603.32289109336557
 11
1363.950040000002
 21
603.32289109336557
  0
LINE
  8
_0-5_金属
  6
CONTINUOUS
 62
    7
 10
1336.0499600000026
 20
604.62287109336671
 11
1348.4000500000025
 21
604.62287109336671
  0
LINE
  8
_0-5_金属
  6
CONTINUOUS
 62
    7
 10
1351.5999500000021
 20
604.62287109336671
 11
1363.950040000002
 21
604.62287109336671
  0
LINE
  8
_0-5_金属
  6
CONTINUOUS
 62
    7
 10
1351.5999500000021
 20
603.82296109336608
 11
1363.950040000002
 21
603.82296109336608
  0
LINE
  8
_0-5_金属
  6
CONTINUOUS
 62
    7
 10
1336.0499600000026
 20
602.52292129336638
 11
1363.950040000002
 21
602.52292129336638
  0
LINE
  8
_0-5_金属
  6
CONTINUOUS
 62
    7
 10
1151.5999450000027
 20
677.5229710933661
 11
1350.0000000000023
 21
677.5229710933661
  0
LINE
  8
_0-5_金属
  6
CONTINUOUS
 62
    7
 10
1350.0000000000023
 20
676.72300109336561
 11
1151.5999450000027
 21
676.72300109336561
  0
LINE
  8
_0-5_金属
  6
CONTINUOUS
 62
    7
 10
948.4000001000004
 20
676.72300109336561
 11
751.68349999999919
 21
676.72300109336561
  0
LINE
  8
_0-5_金属
  6
CONTINUOUS
 62
    7
 10
948.4000001000004
 20
677.5229710933661
 11
751.45058000000063
 21
677.5229710933661
  0
LINE
  8
_0-5_金属
  6
CONTINUOUS
 62
    7
 10
1458.5176003356537
 20
677.5229710933661
 11
1351.4505800000029
 21
677.5229710933661
  0
LINE
  8
_0-5_金属
  6
CONTINUOUS
 62
    7
 10
1458.5176003356537
 20
676.72300109336561
 11
1351.6835000000015
 21
676.72300109336561
  0
LINE
  8
_0-5_金属
  6
CONTINUOUS
 62
    7
 10
641.48239966435085
 20
677.5229710933661
 11
750
 21
677.5229710933661
  0
LINE
  8
_0-5_金属
  6
CONTINUOUS
 62
    7
 10
750
 20
676.72300109336561
 11
641.48239966435085
 21
676.72300109336561
  0
LINE
  8
_0-a_文字
  6
CONTINUOUS
 62
    7
 10
798.1412982611505
 20
677.12298609336585
 11
898.94666392192278
 21
502.5229710933661
  0
LINE
  8
_0-a_文字
  6
CONTINUOUS
 62
    7
 10
898.94666392192278
 20
502.5229710933661
 11
918.94666392192278
 21
502.5229710933661
  0
TEXT
  8
_0-a_文字
 62
    7
 10
923.9466639219188
 20
495.0229710933661
 40
14.999999999999858
 41
1.0000000000000031
 50
0
  1
タイトフレーム（別途工事）
  0
LINE
  8
_0-a_文字
  6
CONTINUOUS
 62
    7
 10
872.96590180838734
 20
547.5229710933661
 11
918.94666392192278
 21
547.5229710933661
  0
LINE
  8
_0-2_線色２__白__
  6
CONTINUOUS
 62
    7
 10
1050
 20
712.5229710933661
 11
1050
 21
677.5229710933661
  0
LINE
  8
_0-d_断熱__ハッチ
  6
CONTINUOUS
 62
    4
 10
1017.1913648564805
 20
677.5229710933661
 11
1052.1913648564805
 21
712.5229710933661
  0
LINE
  8
_0-d_断熱__ハッチ
  6
CONTINUOUS
 62
    4
 10
1055.6763688235696
 20
712.5229710933661
 11
1090.6763688235696
 21
677.5229710933661
  0
LINE
  8
_0-d_断熱__ハッチ
  6
CONTINUOUS
 62
    4
 10
1073.759907351407
 20
677.5229710933661
 11
1108.759907351407
 21
712.5229710933661
  0
LINE
  8
_0-d_断熱__ハッチ
  6
CONTINUOUS
 62
    4
 10
999.10782632864539
 20
712.5229710933661
 11
1034.1078263286479
 21
677.5229710933661
  0
LINE
  8
_0-d_断熱__ハッチ
  6
CONTINUOUS
 62
    4
 10
1045.4756361039356
 20
677.5229710933661
 11
1080.4756361039404
 21
712.5229710933661
  0
LINE
  8
_0-d_断熱__ハッチ
  6
CONTINUOUS
 62
    4
 10
1027.392097576103
 20
712.5229710933661
 11
1062.3920975761005
 21
677.5229710933661
  0
LINE
  8
_0-a_文字
  6
CONTINUOUS
 62
    7
 10
1079.52741535526
 20
767.49623267557922
 11
1099.52741535526
 21
767.49623267557922
  0
TEXT
  8
_0-a_文字
 62
    7
 10
1104.5274153552591
 20
759.99623267557922
 40
15.000000000000213
 41
0.9999999999999986
 50
0
  1
ロンシーラントＳ
  0
LINE
  8
_0-a_文字
  6
CONTINUOUS
 62
    7
 10
1051.2199919917748
 20
718.46633717866212
 11
1079.52741535526
 21
767.49623267557922
  0
LINE
  8
_0-a_文字
  6
CONTINUOUS
 62
    7
 10
1079.52741535526
 20
817.49623267557922
 11
1099.52741535526
 21
817.49623267557922
  0
LINE
  8
_0-a_文字
  6
CONTINUOUS
 62
    7
 10
1065.0936586255193
 20
792.49623267557922
 11
1099.52741535526
 21
792.49623267557922
  0
TEXT
  8
_0-a_文字
 62
    7
 10
1104.5274153552596
 20
809.99623267557831
 40
15.000000000000568
 41
0.9999999999999745
 50
0
  1
ＵＤ－１ＰＶ
  0
TEXT
  8
_0-a_文字
 62
    7
 10
1104.5274153552591
 20
784.99623267557865
 40
15.000000000000213
 41
0.9999999999999987
 50
0
  1
ＵＤ緩衝用パッチ
  0
LINE
  8
_0-a_文字
  6
CONTINUOUS
 62
    7
 10
1022.2282657132291
 20
718.25119426509559
 11
1079.52741535526
 21
817.49623267557922
  0
TEXT
  8
_0-a_文字
 62
    7
 10
923.9466639219205
 20
540.0229710933661
 40
14.999999999999858
 41
1.0000000000000073
 50
0
  1
デッキプレート フラットタイプ H=75
  0
TEXT
  8
_0-a_文字
 62
    7
 10
923.94666392192016
 20
520.0229710933661
 40
14.999999999999858
 41
1.0000000000000111
 50
0
  1
t=1.2（別途工事）
  0
TEXT
  8
_0-a_文字
 62
    7
 10
405
 20
1115.0000000000005
 40
17.499999999999716
 41
1.0000000000000162
 50
0
  1
【デッキプレート フラットタイプ H=75 板厚1.2mm】
  0
TEXT
  8
_f-0_
 62
    7
 10
405.30228976001922
 20
1163.75
 40
17.499999999999993
 41
1
 50
0
  1
ＳＤ－Ｆ仕様 平場 ＵＤ工法（ディスク板 先付け工法）
  0
ENDSEC
  0
EOF
