  0
SECTION
  2
HEADER
  9
$ACADVER
  1
AC1009
  9
$INSBASE
 10
0
 20
0
 30
0
  9
$EXTMIN
 10
0
 20
0
  9
$EXTMAX
 10
2100
 20
1485
  9
$LIMMIN
 10
0
 20
0
  9
$LIMMAX
 10
2100
 20
1485
  9
$LTSCALE
 40
5
  0
ENDSEC
  0
SECTION
  2
TABLES
  0
TABLE
  2
LTYPE
 70
     9
  0
LTYPE
  2
CONTINUOUS
 70
    64
  3
実線
 72
    65
 73
     0
 40
0.0
  0
LTYPE
  2
DASHED1
 70
    64
  3
--  --  --  --  --  --  --  --  
 72
    65
 73
     2
 40
2.5
 49
1.25
 49
-1.25
  0
LTYPE
  2
DASHED2
 70
    64
  3
----    ----    ----    ----    
 72
    65
 73
     2
 40
5.0
 49
2.5
 49
-2.5
  0
LTYPE
  2
DASHED3
 70
    64
  3
------  ------  ------  ------  
 72
    65
 73
     2
 40
5.0
 49
3.75
 49
-1.25
  0
LTYPE
  2
CENTER1
 70
    64
  3
----- - ----- - ----- - ----- - 
 72
    65
 73
     4
 40
10.0
 49
6.25
 49
-1.25
 49
1.25
 49
-1.25
  0
LTYPE
  2
CENTER2
 70
    64
  3
----------  --  ----------  --  
 72
    65
 73
     4
 40
20.0
 49
12.5
 49
-2.5
 49
2.5
 49
-2.5
  0
LTYPE
  2
PHANTOM1
 70
    64
  3
--- - - --- - - --- - - --- - - 
 72
    65
 73
     6
 40
10.0
 49
3.25
 49
-1.25
 49
1.25
 49
-1.25
 49
1.25
 49
-1.25
  0
LTYPE
  2
PHANTOM2
 70
    64
  3
--------  -  -  --------  -  -  
 72
    65
 73
     6
 40
20.0
 49
10.0
 49
-2.5
 49
1.25
 49
-2.5
 49
1.25
 49
-2.5
  0
LTYPE
  2
DOT
 70
    64
  3
-   -   -   -   -   -   -   -   
 72
    65
 73
     2
 40
2.5
 49
0.625
 49
-1.875
  0
LTYPE
  2
DUMMY
 70
    64
  3
ダミー
 72
    65
 73
     0
 40
0.0
  0
LTYPE
  2
RAND1
 70
    64
  3
ランダム線1
 72
    65
 73
     4
 40
10.0
 49
1.0
 49
-2.0
 49
3.0
 49
-4.0
  0
LTYPE
  2
RAND2
 70
    64
  3
ランダム線2
 72
    65
 73
     4
 40
14.0
 49
2.0
 49
-3.0
 49
4.0
 49
-5.0
  0
LTYPE
  2
RAND3
 70
    64
  3
ランダム線3
 72
    65
 73
     4
 40
18.0
 49
3.0
 49
-4.0
 49
5.0
 49
-6.0
  0
LTYPE
  2
RAND4
 70
    64
  3
ランダム線4
 72
    65
 73
     4
 40
22.0
 49
4.0
 49
-5.0
 49
6.0
 49
-7.0
  0
LTYPE
  2
RAND5
 70
    64
  3
ランダム線5
 72
    65
 73
     4
 40
26.0
 49
5.0
 49
-6.0
 49
7.0
 49
-8.0
  0
LTYPE
  2
LONG1
 70
    64
  3
----------  --  ----------  --  
 72
    65
 73
     4
 40
40.0
 49
32.5
 49
-2.5
 49
2.5
 49
-2.5
  0
LTYPE
  2
LONG2
 70
    64
  3
--------  -  -  --------  -  -  
 72
    65
 73
     6
 40
40.0
 49
30.0
 49
-2.5
 49
1.25
 49
-2.5
 49
1.25
 49
-2.5
  0
LTYPE
  2
LONG3
 70
    64
  3
+++++++++++++++..+++++++++++++++
 72
    65
 73
     2
 40
40.0
 49
37.5
 49
-2.5
  0
LTYPE
  2
LONG4
 70
    64
  3
+++++++++++++++..+++++++++++++++
 72
    65
 73
     2
 40
80.0
 49
75.0
 49
-5.0
  0
LTYPE
  2
LONG5
 70
    64
  3
----------  --  ----------  --  
 72
    65
 73
     4
 40
60.0
 49
37.5
 49
-7.5
 49
7.5
 49
-7.5
  0
LTYPE
  2
dashed
 70
   64
  3
-------   -------------   ------
 72
   65
 73
    2
 40
7.5
 49
6
 49
-1.5
  0
LTYPE
  2
dashed_spaced
 70
   64
  3
----        --------        ----
 72
   65
 73
    2
 40
12
 49
6
 49
-6
  0
LTYPE
  2
long_dashed_dotted
 70
   64
  3
------------- --- --------------
 72
   65
 73
    4
 40
15.25
 49
12
 49
-1.5
 49
0.25
 49
-1.5
  0
LTYPE
  2
long_dashed_double-dotted
 70
   64
  3
----------- --- --- ------------
 72
   65
 73
    6
 40
17
 49
12
 49
-1.5
 49
0.25
 49
-1.5
 49
0.25
 49
-1.5
  0
LTYPE
  2
long_dashed_triplicate-dotted
 70
   64
  3
--------- --- --- --- ----------
 72
   65
 73
    8
 40
18.75
 49
12
 49
-1.5
 49
0.25
 49
-1.5
 49
0.25
 49
-1.5
 49
0.25
 49
-1.5
  0
LTYPE
  2
dotted
 70
   64
  3
   -       -       -       -    
 72
   65
 73
    2
 40
1.75
 49
0.25
 49
-1.5
  0
LTYPE
  2
chain
 70
   64
  3
-------------- -- --------------
 72
   65
 73
    4
 40
18.5
 49
12
 49
-1.5
 49
3.5
 49
-1.5
  0
LTYPE
  2
chain_double_dash
 70
   64
  3
------------ -- -- -------------
 72
   65
 73
    6
 40
23.5
 49
12
 49
-1.5
 49
3.5
 49
-1.5
 49
3.5
 49
-1.5
  0
LTYPE
  2
dashed_dotted
 70
   64
  3
-----------     -     ----------
 72
   65
 73
    4
 40
9.25
 49
6
 49
-1.5
 49
0.25
 49
-1.5
  0
LTYPE
  2
double-dashed_dotted
 70
   64
  3
------   -----------   -   -----
 72
   65
 73
    6
 40
16.75
 49
6
 49
-1.5
 49
6
 49
-1.5
 49
0.25
 49
-1.5
  0
LTYPE
  2
dashed_double-dotted
 70
   64
  3
---------    -    -    ---------
 72
   65
 73
    6
 40
11
 49
6
 49
-1.5
 49
0.25
 49
-1.5
 49
0.25
 49
-1.5
  0
LTYPE
  2
double-dashed_double-dotted
 70
   64
  3
-----   ---------   -   -   ----
 72
   65
 73
    8
 40
18.5
 49
6
 49
-1.5
 49
6
 49
-1.5
 49
0.25
 49
-1.5
 49
0.25
 49
-1.5
  0
LTYPE
  2
dashed_triplicate-dotted
 70
   64
  3
-------    -    -    -    ------
 72
   65
 73
    8
 40
12.75
 49
6
 49
-1.5
 49
0.25
 49
-1.5
 49
0.25
 49
-1.5
 49
0.25
 49
-1.5
  0
LTYPE
  2
double-dashed_triplicate-dotted
 70
   64
  3
-----  ---------  -  -  -  -----
 72
   65
 73
   10
 40
20.25
 49
6
 49
-1.5
 49
6
 49
-1.5
 49
0.25
 49
-1.5
 49
0.25
 49
-1.5
 49
0.25
 49
-1.5
  0
LTYPE
  2
undefined
 70
   64
  3
--------------------------------
 72
   65
 73
    0
 40
0
  0
ENDTAB
  0
TABLE
  2
STYLE
  5
3
100
AcDbSymbolTable
 70
     1
  0
STYLE
  5
10
100
AcDbSymbolTableRecord
100
AcDbTextStyleTableRecord
  2
STANDARD
 70
     0
 40
0.0
 41
1.0
 50
0.0
 71
     0
 42
0.2
  3
txt
  4
bigfont.shx
  0
STYLE
  5
26
100
AcDbSymbolTableRecord
100
AcDbTextStyleTableRecord
  2
TATEGAKI
 70
    68
 40
0.0
 41
1.0
 50
0.0
 71
     0
 42
1.0
  3
txt
  4
bigfont.shx
  0
ENDTAB
  0
TABLE
  2
LAYER
 70
   15
  0
LAYER
  2
_0-1_線色１__水色__
 70
   64
 62
    7
  6
CONTINUOUS
  0
LAYER
  2
_0-2_線色２__白__
 70
   64
 62
    7
  6
CONTINUOUS
  0
LAYER
  2
_0-4_線色４__黄__
 70
   64
 62
    7
  6
CONTINUOUS
  0
LAYER
  2
_0-5_金属
 70
   64
 62
    7
  6
CONTINUOUS
  0
LAYER
  2
_0-6_鋼板__アングル
 70
   64
 62
    7
  6
CONTINUOUS
  0
LAYER
  2
_0-7_ビス
 70
   64
 62
    7
  6
CONTINUOUS
  0
LAYER
  2
_0-a_文字
 70
   64
 62
    7
  6
CONTINUOUS
  0
LAYER
  2
_0-d_断熱__ハッチ
 70
   64
 62
    7
  6
CONTINUOUS
  0
LAYER
  2
_8-2_線色２__白__
 70
   64
 62
    7
  6
CONTINUOUS
  0
LAYER
  2
_8-7_Ａの部位__白__
 70
   64
 62
    7
  6
CONTINUOUS
  0
LAYER
  2
_8-a_文字
 70
   64
 62
    7
  6
CONTINUOUS
  0
LAYER
  2
_8-b_寸法
 70
   64
 62
    7
  6
CONTINUOUS
  0
LAYER
  2
_f-0_
 70
   64
 62
    7
  6
CONTINUOUS
  0
LAYER
  2
_f-f_
 70
   64
 62
    7
  6
CONTINUOUS
  0
LAYER
  2
ADD_LINE
 70
   64
 62
    7
  6
CONTINUOUS
  0
ENDTAB
  0
ENDSEC
  0
SECTION
  2
BLOCKS
  0
ENDSEC
  0
SECTION
  2
ENTITIES
  0
LINE
  8
_f-0_
  6
CONTINUOUS
 62
  136
 10
1714.9999999999989
 20
1192.5
 11
385
 21
1192.5
  0
LINE
  8
_f-0_
  6
CONTINUOUS
 62
  136
 10
385
 20
277.50000000000341
 11
1714.9999999999989
 21
277.50000000000341
  0
LINE
  8
_f-0_
  6
CONTINUOUS
 62
  136
 10
385
 20
1192.5
 11
385
 21
277.50000000000341
  0
LINE
  8
_f-0_
  6
CONTINUOUS
 62
  136
 10
1714.9999999999989
 20
1192.5
 11
1714.9999999999989
 21
277.50000000000341
  0
LINE
  8
_f-0_
  6
CONTINUOUS
 62
    6
 10
1714.9999999999989
 20
1152.5
 11
385
 21
1152.5
  0
LINE
  8
_f-f_
  6
CONTINUOUS
 62
    9
 10
310
 20
217.5
 11
310
 21
1267.5
  0
LINE
  8
_f-f_
  6
CONTINUOUS
 62
    9
 10
1790
 20
217.5
 11
310
 21
217.5
  0
LINE
  8
_f-f_
  6
CONTINUOUS
 62
    9
 10
1790
 20
1267.5
 11
310
 21
1267.5
  0
LINE
  8
_f-f_
  6
CONTINUOUS
 62
    9
 10
1790
 20
1267.5
 11
1790
 21
217.5
  0
LINE
  8
ADD_LINE
  6
DOT
 62
  136
 10
1764.9999999999989
 20
1242.5
 11
335
 21
1242.5
  0
LINE
  8
ADD_LINE
  6
DOT
 62
  136
 10
335
 20
242.50000000000227
 11
335
 21
1242.5
  0
LINE
  8
ADD_LINE
  6
DOT
 62
  136
 10
1765
 20
1242.5
 11
1765
 21
242.5
  0
LINE
  8
ADD_LINE
  6
DOT
 62
  136
 10
1765
 20
242.5
 11
335.00000000000114
 21
242.5
  0
TEXT
  8
_0-a_文字
 62
    7
 10
405
 20
287.50000000000313
 40
15.000000000000568
 41
0.9999999999999666
 50
0
  1
※ 本図面は防水納まりの参考図であり、下地等の構造を保証するものではありません
  0
TEXT
  8
_0-a_文字
 62
    7
 10
405
 20
307.50000000000313
 40
15.000000000000568
 41
0.9999999999999666
 50
0
  1
※ ラジアルシートＬ６００は、断熱材の種類がポリスチレンフォームの場合のみ使用
  0
LINE
  8
_0-d_断熱__ハッチ
  6
CONTINUOUS
 62
    4
 10
641.48239966434971
 20
702.4528715406575
 11
666.41230011164112
 21
677.52297109336382
  0
LINE
  8
_0-d_断熱__ハッチ
  6
CONTINUOUS
 62
    4
 10
1441.455433568409
 20
677.52297109336382
 11
1458.5176003356548
 21
694.58513786060962
  0
ARC
  8
_0-1_線色１__水色__
  6
CONTINUOUS
 62
    4
 10
640.54415490764427
 20
715.98130439469173
 40
1.2083333333333581
 50
320.93926410748708
 51
39.060735892512916
  0
ARC
  8
_0-1_線色１__水色__
  6
CONTINUOUS
 62
    4
 10
642.01611505211872
 20
714.06463772809161
 40
1.2083333333333179
 50
243.78788958924599
 51
52.476486801880853
  0
ARC
  8
_0-1_線色１__水色__
  6
CONTINUOUS
 62
    4
 10
656.73571649551263
 20
714.06463772913526
 40
1.2083333333333179
 50
127.52351320610693
 51
52.47648680188081
  0
ARC
  8
_0-1_線色１__水色__
  6
CONTINUOUS
 62
    4
 10
646.43199548498956
 20
715.9813043951192
 40
1.2083333333333581
 50
307.52351320333912
 51
232.47648680464988
  0
ARC
  8
_0-1_線色１__水色__
  6
CONTINUOUS
 62
    4
 10
650.84787591814688
 20
714.06463772872598
 40
1.2083333333333179
 50
127.52351320610693
 51
52.47648680188081
  0
ARC
  8
_0-1_線色１__水色__
  6
CONTINUOUS
 62
    4
 10
647.90395562946173
 20
714.06463772852135
 40
1.2083333333333179
 50
127.52351320610693
 51
52.47648680188081
  0
ARC
  8
_0-1_線色１__水色__
  6
CONTINUOUS
 62
    4
 10
649.37591577367016
 20
715.98130439532611
 40
1.2083333333333581
 50
307.52351320333912
 51
232.47648680464988
  0
ARC
  8
_0-1_線色１__水色__
  6
CONTINUOUS
 62
    4
 10
653.79179620682976
 20
714.06463772893062
 40
1.2083333333333179
 50
127.52351320610693
 51
52.47648680188081
  0
ARC
  8
_0-1_線色１__水色__
  6
CONTINUOUS
 62
    4
 10
652.31983606235531
 20
715.98130439553074
 40
1.2083333333333581
 50
307.52351320333912
 51
232.47648680464988
  0
ARC
  8
_0-1_線色１__水色__
  6
CONTINUOUS
 62
    4
 10
655.26375635103818
 20
715.98130439573538
 40
1.2083333333333581
 50
307.52351320333912
 51
232.47648680464988
  0
ARC
  8
_0-1_線色１__水色__
  6
CONTINUOUS
 62
    4
 10
643.48807519630441
 20
715.98130439491456
 40
1.2083333333333581
 50
307.52351320333912
 51
232.47648680464988
  0
ARC
  8
_0-1_線色１__水色__
  6
CONTINUOUS
 62
    4
 10
644.96003534078113
 20
714.06463772831444
 40
1.2083333333333179
 50
127.52351320610693
 51
52.47648680188081
  0
ARC
  8
_0-1_線色１__水色__
  6
CONTINUOUS
 62
    4
 10
684.70295923784647
 20
715.98130439719057
 40
1.2083333333333581
 50
307.52351320333912
 51
232.47648680464988
  0
ARC
  8
_0-1_線色１__水色__
  6
CONTINUOUS
 62
    4
 10
708.25432154731629
 20
715.98130439821603
 40
1.2083333333333581
 50
307.52351320333912
 51
232.47648680464988
  0
ARC
  8
_0-1_線色１__水色__
  6
CONTINUOUS
 62
    4
 10
709.72628169179075
 20
714.0646377316159
 40
1.2083333333333179
 50
127.52351320610693
 51
52.47648680188081
  0
ARC
  8
_0-1_線色１__水色__
  6
CONTINUOUS
 62
    4
 10
689.11883967100835
 20
714.06463773079508
 40
1.2083333333333179
 50
127.52351320610693
 51
52.47648680188081
  0
ARC
  8
_0-1_線色１__水色__
  6
CONTINUOUS
 62
    4
 10
686.17491938232547
 20
714.06463773059045
 40
1.2083333333333179
 50
127.52351320610693
 51
52.47648680188081
  0
ARC
  8
_0-1_線色１__水色__
  6
CONTINUOUS
 62
    4
 10
687.64687952653162
 20
715.98130439739521
 40
1.2083333333333581
 50
307.52351320333912
 51
232.47648680464988
  0
ARC
  8
_0-1_線色１__水色__
  6
CONTINUOUS
 62
    4
 10
692.06275995968895
 20
714.06463773099972
 40
1.2083333333333179
 50
127.52351320610693
 51
52.47648680188081
  0
ARC
  8
_0-1_線色１__水色__
  6
CONTINUOUS
 62
    4
 10
690.59079981521677
 20
715.98130439759984
 40
1.2083333333333581
 50
307.52351320333912
 51
232.47648680464988
  0
ARC
  8
_0-1_線色１__水色__
  6
CONTINUOUS
 62
    4
 10
695.0066802483741
 20
714.06463773120663
 40
1.2083333333333179
 50
127.52351320610693
 51
52.47648680188081
  0
ARC
  8
_0-1_線色１__水色__
  6
CONTINUOUS
 62
    4
 10
693.53472010389737
 20
715.98130439780448
 40
1.2083333333333581
 50
307.52351320333912
 51
232.47648680464988
  0
ARC
  8
_0-1_線色１__水色__
  6
CONTINUOUS
 62
    4
 10
697.95060053705697
 20
714.06463773141127
 40
1.2083333333333179
 50
127.52351320610693
 51
52.47648680188081
  0
ARC
  8
_0-1_線色１__水色__
  6
CONTINUOUS
 62
    4
 10
696.47864039258252
 20
715.98130439801139
 40
1.2083333333333581
 50
307.52351320333912
 51
232.47648680464988
  0
ARC
  8
_0-1_線色１__水色__
  6
CONTINUOUS
 62
    4
 10
700.89452082573985
 20
714.0646377316159
 40
1.2083333333333179
 50
127.52351320610693
 51
52.47648680188081
  0
ARC
  8
_0-1_線色１__水色__
  6
CONTINUOUS
 62
    4
 10
699.4225606812654
 20
715.98130439821603
 40
1.2083333333333581
 50
307.52351320333912
 51
232.47648680464988
  0
ARC
  8
_0-1_線色１__水色__
  6
CONTINUOUS
 62
    4
 10
703.838441114425
 20
714.06463773182054
 40
1.2083333333333179
 50
127.52351320610693
 51
52.47648680188081
  0
ARC
  8
_0-1_線色１__水色__
  6
CONTINUOUS
 62
    4
 10
702.36648096994827
 20
715.98130439842066
 40
1.2083333333333581
 50
307.52351320333912
 51
232.47648680464988
  0
ARC
  8
_0-1_線色１__水色__
  6
CONTINUOUS
 62
    4
 10
706.78236140310787
 20
714.06463773202518
 40
1.2083333333333179
 50
127.52351320610693
 51
52.47648680188081
  0
ARC
  8
_0-1_線色１__水色__
  6
CONTINUOUS
 62
    4
 10
705.31040125863342
 20
715.9813043986253
 40
1.2083333333333581
 50
307.52351320333912
 51
232.47648680464988
  0
ARC
  8
_0-1_線色１__水色__
  6
CONTINUOUS
 62
    4
 10
658.20767663969832
 20
715.9813043959582
 40
1.2083333333333581
 50
307.52351320333912
 51
232.47648680464988
  0
ARC
  8
_0-1_線色１__水色__
  6
CONTINUOUS
 62
    4
 10
681.75903894916587
 20
715.98130439698366
 40
1.2083333333333581
 50
307.52351320333912
 51
232.47648680464988
  0
ARC
  8
_0-1_線色１__水色__
  6
CONTINUOUS
 62
    4
 10
683.23099909363805
 20
714.06463773038581
 40
1.2083333333333179
 50
127.52351320610693
 51
52.47648680188081
  0
ARC
  8
_0-1_線色１__水色__
  6
CONTINUOUS
 62
    4
 10
662.62355707285565
 20
714.06463772956499
 40
1.2083333333333179
 50
127.52351320610693
 51
52.47648680188081
  0
ARC
  8
_0-1_線色１__水色__
  6
CONTINUOUS
 62
    4
 10
659.67963678417505
 20
714.06463772935808
 40
1.2083333333333179
 50
127.52351320610693
 51
52.47648680188081
  0
ARC
  8
_0-1_線色１__水色__
  6
CONTINUOUS
 62
    4
 10
661.15159692838347
 20
715.98130439616284
 40
1.2083333333333581
 50
307.52351320333912
 51
232.47648680464988
  0
ARC
  8
_0-1_線色１__水色__
  6
CONTINUOUS
 62
    4
 10
665.5674773615408
 20
714.06463772976963
 40
1.2083333333333179
 50
127.52351320610693
 51
52.47648680188081
  0
ARC
  8
_0-1_線色１__水色__
  6
CONTINUOUS
 62
    4
 10
664.09551721706407
 20
715.98130439636975
 40
1.2083333333333581
 50
307.52351320333912
 51
232.47648680464988
  0
ARC
  8
_0-1_線色１__水色__
  6
CONTINUOUS
 62
    4
 10
668.51139765022367
 20
714.06463772997427
 40
1.2083333333333179
 50
127.52351320610693
 51
52.47648680188081
  0
ARC
  8
_0-1_線色１__水色__
  6
CONTINUOUS
 62
    4
 10
667.03943750574922
 20
715.98130439657439
 40
1.2083333333333581
 50
307.52351320333912
 51
232.47648680464988
  0
ARC
  8
_0-1_線色１__水色__
  6
CONTINUOUS
 62
    4
 10
671.45531793890655
 20
714.0646377301789
 40
1.2083333333333179
 50
127.52351320610693
 51
52.47648680188081
  0
ARC
  8
_0-1_線色１__水色__
  6
CONTINUOUS
 62
    4
 10
669.9833577944321
 20
715.98130439677902
 40
1.2083333333333581
 50
307.52351320333912
 51
232.47648680464988
  0
ARC
  8
_0-1_線色１__水色__
  6
CONTINUOUS
 62
    4
 10
674.3992382275917
 20
714.06463773038581
 40
1.2083333333333179
 50
127.52351320610693
 51
52.47648680188081
  0
ARC
  8
_0-1_線色１__水色__
  6
CONTINUOUS
 62
    4
 10
672.92727808311497
 20
715.98130439698366
 40
1.2083333333333581
 50
307.52351320333912
 51
232.47648680464988
  0
ARC
  8
_0-1_線色１__水色__
  6
CONTINUOUS
 62
    4
 10
677.34315851627457
 20
714.06463773059045
 40
1.2083333333333179
 50
127.52351320610693
 51
52.47648680188081
  0
ARC
  8
_0-1_線色１__水色__
  6
CONTINUOUS
 62
    4
 10
675.87119837180012
 20
715.98130439719057
 40
1.2083333333333581
 50
307.52351320333912
 51
232.47648680464988
  0
ARC
  8
_0-1_線色１__水色__
  6
CONTINUOUS
 62
    4
 10
680.28707880495745
 20
714.06463773079508
 40
1.2083333333333179
 50
127.52351320610693
 51
52.47648680188081
  0
ARC
  8
_0-1_線色１__水色__
  6
CONTINUOUS
 62
    4
 10
678.81511866048299
 20
715.98130439739521
 40
1.2083333333333581
 50
307.52351320333912
 51
232.47648680464988
  0
ARC
  8
_0-1_線色１__水色__
  6
CONTINUOUS
 62
    4
 10
724.44588313518466
 20
714.06463773265955
 40
1.2083333333333179
 50
127.52351320610693
 51
52.47648680188081
  0
ARC
  8
_0-1_線色１__水色__
  6
CONTINUOUS
 62
    4
 10
714.14216212465931
 20
715.98130439864349
 40
1.2083333333333581
 50
307.52351320333912
 51
232.47648680464988
  0
ARC
  8
_0-1_線色１__水色__
  6
CONTINUOUS
 62
    4
 10
718.55804255781891
 20
714.06463773225028
 40
1.2083333333333179
 50
127.52351320610693
 51
52.47648680188081
  0
ARC
  8
_0-1_線色１__水色__
  6
CONTINUOUS
 62
    4
 10
715.61412226913376
 20
714.06463773204337
 40
1.2083333333333179
 50
127.52351320610693
 51
52.47648680188081
  0
ARC
  8
_0-1_線色１__水色__
  6
CONTINUOUS
 62
    4
 10
717.08608241334218
 20
715.98130439884812
 40
1.2083333333333581
 50
307.52351320333912
 51
232.47648680464988
  0
ARC
  8
_0-1_線色１__水色__
  6
CONTINUOUS
 62
    4
 10
721.50196284650178
 20
714.06463773245491
 40
1.2083333333333179
 50
127.52351320610693
 51
52.47648680188081
  0
ARC
  8
_0-1_線色１__水色__
  6
CONTINUOUS
 62
    4
 10
720.03000270202278
 20
715.98130439905503
 40
1.2083333333333581
 50
307.52351320333912
 51
232.47648680464988
  0
ARC
  8
_0-1_線色１__水色__
  6
CONTINUOUS
 62
    4
 10
722.97392299071021
 20
715.98130439925967
 40
1.2083333333333581
 50
307.52351320333912
 51
232.47648680464988
  0
ARC
  8
_0-1_線色１__水色__
  6
CONTINUOUS
 62
    4
 10
711.19824183597643
 20
715.98130439843885
 40
1.2083333333333581
 50
307.52351320333912
 51
232.47648680464988
  0
ARC
  8
_0-1_線色１__水色__
  6
CONTINUOUS
 62
    4
 10
712.67020198045088
 20
714.06463773183873
 40
1.2083333333333179
 50
127.52351320610693
 51
52.47648680188081
  0
ARC
  8
_0-1_線色１__水色__
  6
CONTINUOUS
 62
    4
 10
752.4131258775185
 20
715.98130440071259
 40
1.2083333333333581
 50
307.52351320333912
 51
232.47648680464988
  0
ARC
  8
_0-1_線色１__水色__
  6
CONTINUOUS
 62
    4
 10
775.96448818698605
 20
715.98130440174032
 40
1.2083333333333581
 50
307.52351320333912
 51
232.47648680464988
  0
ARC
  8
_0-1_線色１__水色__
  6
CONTINUOUS
 62
    4
 10
777.43644833146277
 20
714.0646377351402
 40
1.2083333333333179
 50
127.52351320610693
 51
52.47648680188081
  0
ARC
  8
_0-1_線色１__水色__
  6
CONTINUOUS
 62
    4
 10
756.8290063106781
 20
714.06463773431938
 40
1.2083333333333179
 50
127.52351320610693
 51
52.47648680188081
  0
ARC
  8
_0-1_線色１__水色__
  6
CONTINUOUS
 62
    4
 10
753.88508602199522
 20
714.06463773411474
 40
1.2083333333333179
 50
127.52351320610693
 51
52.47648680188081
  0
ARC
  8
_0-1_線色１__水色__
  6
CONTINUOUS
 62
    4
 10
755.35704616620365
 20
715.9813044009195
 40
1.2083333333333581
 50
307.52351320333912
 51
232.47648680464988
  0
ARC
  8
_0-1_線色１__水色__
  6
CONTINUOUS
 62
    4
 10
759.77292659936097
 20
714.06463773452401
 40
1.2083333333333179
 50
127.52351320610693
 51
52.47648680188081
  0
ARC
  8
_0-1_線色１__水色__
  6
CONTINUOUS
 62
    4
 10
758.30096645488652
 20
715.98130440112413
 40
1.2083333333333581
 50
307.52351320333912
 51
232.47648680464988
  0
ARC
  8
_0-1_線色１__水色__
  6
CONTINUOUS
 62
    4
 10
762.71684688804612
 20
714.06463773472865
 40
1.2083333333333179
 50
127.52351320610693
 51
52.47648680188081
  0
ARC
  8
_0-1_線色１__水色__
  6
CONTINUOUS
 62
    4
 10
761.2448867435694
 20
715.98130440132877
 40
1.2083333333333581
 50
307.52351320333912
 51
232.47648680464988
  0
ARC
  8
_0-1_線色１__水色__
  6
CONTINUOUS
 62
    4
 10
765.660767176729
 20
714.06463773493329
 40
1.2083333333333179
 50
127.52351320610693
 51
52.47648680188081
  0
ARC
  8
_0-1_線色１__水色__
  6
CONTINUOUS
 62
    4
 10
764.18880703225
 20
715.98130440153341
 40
1.2083333333333581
 50
307.52351320333912
 51
232.47648680464988
  0
ARC
  8
_0-1_線色１__水色__
  6
CONTINUOUS
 62
    4
 10
768.60468746541187
 20
714.0646377351402
 40
1.2083333333333179
 50
127.52351320610693
 51
52.47648680188081
  0
ARC
  8
_0-1_線色１__水色__
  6
CONTINUOUS
 62
    4
 10
767.13272732093742
 20
715.98130440174032
 40
1.2083333333333581
 50
307.52351320333912
 51
232.47648680464988
  0
ARC
  8
_0-1_線色１__水色__
  6
CONTINUOUS
 62
    4
 10
771.54860775409247
 20
714.06463773534483
 40
1.2083333333333179
 50
127.52351320610693
 51
52.47648680188081
  0
ARC
  8
_0-1_線色１__水色__
  6
CONTINUOUS
 62
    4
 10
770.0766476096203
 20
715.98130440194495
 40
1.2083333333333581
 50
307.52351320333912
 51
232.47648680464988
  0
ARC
  8
_0-1_線色１__水色__
  6
CONTINUOUS
 62
    4
 10
774.49252804277762
 20
714.06463773554947
 40
1.2083333333333179
 50
127.52351320610693
 51
52.47648680188081
  0
ARC
  8
_0-1_線色１__水色__
  6
CONTINUOUS
 62
    4
 10
773.0205678983009
 20
715.98130440214959
 40
1.2083333333333581
 50
307.52351320333912
 51
232.47648680464988
  0
ARC
  8
_0-1_線色１__水色__
  6
CONTINUOUS
 62
    4
 10
725.91784327937035
 20
715.9813043994825
 40
1.2083333333333581
 50
307.52351320333912
 51
232.47648680464988
  0
ARC
  8
_0-1_線色１__水色__
  6
CONTINUOUS
 62
    4
 10
749.46920558883562
 20
715.98130440050795
 40
1.2083333333333581
 50
307.52351320333912
 51
232.47648680464988
  0
ARC
  8
_0-1_線色１__水色__
  6
CONTINUOUS
 62
    4
 10
750.94116573331007
 20
714.06463773390783
 40
1.2083333333333179
 50
127.52351320610693
 51
52.47648680188081
  0
ARC
  8
_0-1_線色１__水色__
  6
CONTINUOUS
 62
    4
 10
730.33372371252767
 20
714.06463773308701
 40
1.2083333333333179
 50
127.52351320610693
 51
52.47648680188081
  0
ARC
  8
_0-1_線色１__水色__
  6
CONTINUOUS
 62
    4
 10
727.3898034238448
 20
714.06463773288237
 40
1.2083333333333179
 50
127.52351320610693
 51
52.47648680188081
  0
ARC
  8
_0-1_線色１__水色__
  6
CONTINUOUS
 62
    4
 10
728.86176356805322
 20
715.98130439968713
 40
1.2083333333333581
 50
307.52351320333912
 51
232.47648680464988
  0
ARC
  8
_0-1_線色１__水色__
  6
CONTINUOUS
 62
    4
 10
733.27764400120827
 20
714.06463773329392
 40
1.2083333333333179
 50
127.52351320610693
 51
52.47648680188081
  0
ARC
  8
_0-1_線色１__水色__
  6
CONTINUOUS
 62
    4
 10
731.8056838567361
 20
715.98130439989177
 40
1.2083333333333581
 50
307.52351320333912
 51
232.47648680464988
  0
ARC
  8
_0-1_線色１__水色__
  6
CONTINUOUS
 62
    4
 10
736.2215642898957
 20
714.06463773349856
 40
1.2083333333333179
 50
127.52351320610693
 51
52.47648680188081
  0
ARC
  8
_0-1_線色１__水色__
  6
CONTINUOUS
 62
    4
 10
734.7496041454167
 20
715.98130440009868
 40
1.2083333333333581
 50
307.52351320333912
 51
232.47648680464988
  0
ARC
  8
_0-1_線色１__水色__
  6
CONTINUOUS
 62
    4
 10
739.16548457857857
 20
714.06463773370319
 40
1.2083333333333179
 50
127.52351320610693
 51
52.47648680188081
  0
ARC
  8
_0-1_線色１__水色__
  6
CONTINUOUS
 62
    4
 10
737.69352443410412
 20
715.98130440030332
 40
1.2083333333333581
 50
307.52351320333912
 51
232.47648680464988
  0
ARC
  8
_0-1_線色１__水色__
  6
CONTINUOUS
 62
    4
 10
742.10940486725917
 20
714.06463773390783
 40
1.2083333333333179
 50
127.52351320610693
 51
52.47648680188081
  0
ARC
  8
_0-1_線色１__水色__
  6
CONTINUOUS
 62
    4
 10
740.637444722787
 20
715.98130440050795
 40
1.2083333333333581
 50
307.52351320333912
 51
232.47648680464988
  0
ARC
  8
_0-1_線色１__水色__
  6
CONTINUOUS
 62
    4
 10
745.05332515594432
 20
714.06463773411474
 40
1.2083333333333179
 50
127.52351320610693
 51
52.47648680188081
  0
ARC
  8
_0-1_線色１__水色__
  6
CONTINUOUS
 62
    4
 10
743.5813650114676
 20
715.98130440071259
 40
1.2083333333333581
 50
307.52351320333912
 51
232.47648680464988
  0
ARC
  8
_0-1_線色１__水色__
  6
CONTINUOUS
 62
    4
 10
747.99724544462947
 20
714.06463773431938
 40
1.2083333333333179
 50
127.52351320610693
 51
52.47648680188081
  0
ARC
  8
_0-1_線色１__水色__
  6
CONTINUOUS
 62
    4
 10
746.52528530015275
 20
715.9813044009195
 40
1.2083333333333581
 50
307.52351320333912
 51
232.47648680464988
  0
ARC
  8
_0-1_線色１__水色__
  6
CONTINUOUS
 62
    4
 10
792.15604977485441
 20
714.06463773618384
 40
1.2083333333333179
 50
127.52351320610693
 51
52.47648680188081
  0
ARC
  8
_0-1_線色１__水色__
  6
CONTINUOUS
 62
    4
 10
781.85232876432906
 20
715.98130440216778
 40
1.2083333333333581
 50
307.52351320333912
 51
232.47648680464988
  0
ARC
  8
_0-1_線色１__水色__
  6
CONTINUOUS
 62
    4
 10
786.26820919748639
 20
714.06463773577229
 40
1.2083333333333179
 50
127.52351320610693
 51
52.47648680188081
  0
ARC
  8
_0-1_線色１__水色__
  6
CONTINUOUS
 62
    4
 10
783.32428890880578
 20
714.06463773556766
 40
1.2083333333333179
 50
127.52351320610693
 51
52.47648680188081
  0
ARC
  8
_0-1_線色１__水色__
  6
CONTINUOUS
 62
    4
 10
784.79624905301421
 20
715.98130440237242
 40
1.2083333333333581
 50
307.52351320333912
 51
232.47648680464988
  0
ARC
  8
_0-1_線色１__水色__
  6
CONTINUOUS
 62
    4
 10
789.21212948617153
 20
714.0646377359792
 40
1.2083333333333179
 50
127.52351320610693
 51
52.47648680188081
  0
ARC
  8
_0-1_線色１__水色__
  6
CONTINUOUS
 62
    4
 10
787.74016934169481
 20
715.98130440257705
 40
1.2083333333333581
 50
307.52351320333912
 51
232.47648680464988
  0
ARC
  8
_0-1_線色１__水色__
  6
CONTINUOUS
 62
    4
 10
790.68408963037996
 20
715.98130440278396
 40
1.2083333333333581
 50
307.52351320333912
 51
232.47648680464988
  0
ARC
  8
_0-1_線色１__水色__
  6
CONTINUOUS
 62
    4
 10
778.90840847564391
 20
715.98130440196314
 40
1.2083333333333581
 50
307.52351320333912
 51
232.47648680464988
  0
ARC
  8
_0-1_線色１__水色__
  6
CONTINUOUS
 62
    4
 10
780.38036862012063
 20
714.06463773536302
 40
1.2083333333333179
 50
127.52351320610693
 51
52.47648680188081
  0
ARC
  8
_0-1_線色１__水色__
  6
CONTINUOUS
 62
    4
 10
820.12329251719052
 20
715.98130440423688
 40
1.2083333333333581
 50
307.52351320333912
 51
232.47648680464988
  0
ARC
  8
_0-1_線色１__水色__
  6
CONTINUOUS
 62
    4
 10
843.67465482665807
 20
715.98130440526461
 40
1.2083333333333581
 50
307.52351320333912
 51
232.47648680464988
  0
ARC
  8
_0-1_線色１__水色__
  6
CONTINUOUS
 62
    4
 10
845.14661497113252
 20
714.06463773866449
 40
1.2083333333333179
 50
127.52351320610693
 51
52.47648680188081
  0
ARC
  8
_0-1_線色１__水色__
  6
CONTINUOUS
 62
    4
 10
824.53917295035012
 20
714.06463773784367
 40
1.2083333333333179
 50
127.52351320610693
 51
52.47648680188081
  0
ARC
  8
_0-1_線色１__水色__
  6
CONTINUOUS
 62
    4
 10
821.5952526616627
 20
714.06463773763903
 40
1.2083333333333179
 50
127.52351320610693
 51
52.47648680188081
  0
ARC
  8
_0-1_線色１__水色__
  6
CONTINUOUS
 62
    4
 10
823.06721280587112
 20
715.98130440444379
 40
1.2083333333333581
 50
307.52351320333912
 51
232.47648680464988
  0
ARC
  8
_0-1_線色１__水色__
  6
CONTINUOUS
 62
    4
 10
827.483093239033
 20
714.0646377380483
 40
1.2083333333333179
 50
127.52351320610693
 51
52.47648680188081
  0
ARC
  8
_0-1_線色１__水色__
  6
CONTINUOUS
 62
    4
 10
826.01113309455627
 20
715.98130440464843
 40
1.2083333333333581
 50
307.52351320333912
 51
232.47648680464988
  0
ARC
  8
_0-1_線色１__水色__
  6
CONTINUOUS
 62
    4
 10
830.4270135277136
 20
714.06463773825294
 40
1.2083333333333179
 50
127.52351320610693
 51
52.47648680188081
  0
ARC
  8
_0-1_線色１__水色__
  6
CONTINUOUS
 62
    4
 10
828.95505338324142
 20
715.98130440485306
 40
1.2083333333333581
 50
307.52351320333912
 51
232.47648680464988
  0
ARC
  8
_0-1_線色１__水色__
  6
CONTINUOUS
 62
    4
 10
833.37093381639875
 20
714.06463773845758
 40
1.2083333333333179
 50
127.52351320610693
 51
52.47648680188081
  0
ARC
  8
_0-1_線色１__水色__
  6
CONTINUOUS
 62
    4
 10
831.89897367192202
 20
715.9813044050577
 40
1.2083333333333581
 50
307.52351320333912
 51
232.47648680464988
  0
ARC
  8
_0-1_線色１__水色__
  6
CONTINUOUS
 62
    4
 10
836.31485410508162
 20
714.06463773866449
 40
1.2083333333333179
 50
127.52351320610693
 51
52.47648680188081
  0
ARC
  8
_0-1_線色１__水色__
  6
CONTINUOUS
 62
    4
 10
834.84289396060717
 20
715.98130440526461
 40
1.2083333333333581
 50
307.52351320333912
 51
232.47648680464988
  0
ARC
  8
_0-1_線色１__水色__
  6
CONTINUOUS
 62
    4
 10
839.2587743937645
 20
714.06463773886912
 40
1.2083333333333179
 50
127.52351320610693
 51
52.47648680188081
  0
ARC
  8
_0-1_線色１__水色__
  6
CONTINUOUS
 62
    4
 10
837.78681424929005
 20
715.98130440546925
 40
1.2083333333333581
 50
307.52351320333912
 51
232.47648680464988
  0
ARC
  8
_0-1_線色１__水色__
  6
CONTINUOUS
 62
    4
 10
842.20269468244965
 20
714.06463773907376
 40
1.2083333333333179
 50
127.52351320610693
 51
52.47648680188081
  0
ARC
  8
_0-1_線色１__水色__
  6
CONTINUOUS
 62
    4
 10
840.73073453797292
 20
715.98130440567388
 40
1.2083333333333581
 50
307.52351320333912
 51
232.47648680464988
  0
ARC
  8
_0-1_線色１__水色__
  6
CONTINUOUS
 62
    4
 10
793.62800991903782
 20
715.98130440300679
 40
1.2083333333333581
 50
307.52351320333912
 51
232.47648680464988
  0
ARC
  8
_0-1_線色１__水色__
  6
CONTINUOUS
 62
    4
 10
817.17937222850765
 20
715.98130440403224
 40
1.2083333333333581
 50
307.52351320333912
 51
232.47648680464988
  0
ARC
  8
_0-1_線色１__水色__
  6
CONTINUOUS
 62
    4
 10
818.6513323729821
 20
714.06463773743212
 40
1.2083333333333179
 50
127.52351320610693
 51
52.47648680188081
  0
ARC
  8
_0-1_線色１__水色__
  6
CONTINUOUS
 62
    4
 10
798.0438903521997
 20
714.0646377366113
 40
1.2083333333333179
 50
127.52351320610693
 51
52.47648680188081
  0
ARC
  8
_0-1_線色１__水色__
  6
CONTINUOUS
 62
    4
 10
795.09997006351682
 20
714.06463773640667
 40
1.2083333333333179
 50
127.52351320610693
 51
52.47648680188081
  0
ARC
  8
_0-1_線色１__水色__
  6
CONTINUOUS
 62
    4
 10
796.57193020772297
 20
715.98130440321142
 40
1.2083333333333581
 50
307.52351320333912
 51
232.47648680464988
  0
ARC
  8
_0-1_線色１__水色__
  6
CONTINUOUS
 62
    4
 10
800.9878106408803
 20
714.06463773681821
 40
1.2083333333333179
 50
127.52351320610693
 51
52.47648680188081
  0
ARC
  8
_0-1_線色１__水色__
  6
CONTINUOUS
 62
    4
 10
799.51585049640812
 20
715.98130440341606
 40
1.2083333333333581
 50
307.52351320333912
 51
232.47648680464988
  0
ARC
  8
_0-1_線色１__水色__
  6
CONTINUOUS
 62
    4
 10
803.93173092956545
 20
714.06463773702285
 40
1.2083333333333179
 50
127.52351320610693
 51
52.47648680188081
  0
ARC
  8
_0-1_線色１__水色__
  6
CONTINUOUS
 62
    4
 10
802.45977078508872
 20
715.98130440362297
 40
1.2083333333333581
 50
307.52351320333912
 51
232.47648680464988
  0
ARC
  8
_0-1_線色１__水色__
  6
CONTINUOUS
 62
    4
 10
806.87565121824832
 20
714.06463773722749
 40
1.2083333333333179
 50
127.52351320610693
 51
52.47648680188081
  0
ARC
  8
_0-1_線色１__水色__
  6
CONTINUOUS
 62
    4
 10
805.40369107377387
 20
715.98130440382761
 40
1.2083333333333581
 50
307.52351320333912
 51
232.47648680464988
  0
ARC
  8
_0-1_線色１__水色__
  6
CONTINUOUS
 62
    4
 10
809.8195715069312
 20
714.06463773743212
 40
1.2083333333333179
 50
127.52351320610693
 51
52.47648680188081
  0
ARC
  8
_0-1_線色１__水色__
  6
CONTINUOUS
 62
    4
 10
808.34761136245675
 20
715.98130440403224
 40
1.2083333333333581
 50
307.52351320333912
 51
232.47648680464988
  0
ARC
  8
_0-1_線色１__水色__
  6
CONTINUOUS
 62
    4
 10
812.76349179561635
 20
714.06463773763903
 40
1.2083333333333179
 50
127.52351320610693
 51
52.47648680188081
  0
ARC
  8
_0-1_線色１__水色__
  6
CONTINUOUS
 62
    4
 10
811.29153165113962
 20
715.98130440423688
 40
1.2083333333333581
 50
307.52351320333912
 51
232.47648680464988
  0
ARC
  8
_0-1_線色１__水色__
  6
CONTINUOUS
 62
    4
 10
815.70741208429922
 20
714.06463773784367
 40
1.2083333333333179
 50
127.52351320610693
 51
52.47648680188081
  0
ARC
  8
_0-1_線色１__水色__
  6
CONTINUOUS
 62
    4
 10
814.23545193982477
 20
715.98130440444379
 40
1.2083333333333581
 50
307.52351320333912
 51
232.47648680464988
  0
ARC
  8
_0-1_線色１__水色__
  6
CONTINUOUS
 62
    4
 10
859.86621641452643
 20
714.06463773970813
 40
1.2083333333333179
 50
127.52351320610693
 51
52.47648680188081
  0
ARC
  8
_0-1_線色１__水色__
  6
CONTINUOUS
 62
    4
 10
849.56249540400108
 20
715.98130440569207
 40
1.2083333333333581
 50
307.52351320333912
 51
232.47648680464988
  0
ARC
  8
_0-1_線色１__水色__
  6
CONTINUOUS
 62
    4
 10
853.97837583715841
 20
714.06463773929659
 40
1.2083333333333179
 50
127.52351320610693
 51
52.47648680188081
  0
ARC
  8
_0-1_線色１__水色__
  6
CONTINUOUS
 62
    4
 10
851.03445554847553
 20
714.06463773909195
 40
1.2083333333333179
 50
127.52351320610693
 51
52.47648680188081
  0
ARC
  8
_0-1_線色１__水色__
  6
CONTINUOUS
 62
    4
 10
852.50641569268396
 20
715.98130440589671
 40
1.2083333333333581
 50
307.52351320333912
 51
232.47648680464988
  0
ARC
  8
_0-1_線色１__水色__
  6
CONTINUOUS
 62
    4
 10
856.92229612584356
 20
714.06463773950122
 40
1.2083333333333179
 50
127.52351320610693
 51
52.47648680188081
  0
ARC
  8
_0-1_線色１__水色__
  6
CONTINUOUS
 62
    4
 10
855.45033598136683
 20
715.98130440610134
 40
1.2083333333333581
 50
307.52351320333912
 51
232.47648680464988
  0
ARC
  8
_0-1_線色１__水色__
  6
CONTINUOUS
 62
    4
 10
858.39425627004744
 20
715.98130440630598
 40
1.2083333333333581
 50
307.52351320333912
 51
232.47648680464988
  0
ARC
  8
_0-1_線色１__水色__
  6
CONTINUOUS
 62
    4
 10
846.61857511531593
 20
715.98130440548516
 40
1.2083333333333581
 50
307.52351320333912
 51
232.47648680464988
  0
ARC
  8
_0-1_線色１__水色__
  6
CONTINUOUS
 62
    4
 10
848.09053525979266
 20
714.06463773888731
 40
1.2083333333333179
 50
127.52351320610693
 51
52.47648680188081
  0
ARC
  8
_0-1_線色１__水色__
  6
CONTINUOUS
 62
    4
 10
887.83345915686027
 20
715.98130440776117
 40
1.2083333333333581
 50
307.52351320333912
 51
232.47648680464988
  0
ARC
  8
_0-1_線色１__水色__
  6
CONTINUOUS
 62
    4
 10
911.38482146632555
 20
715.98130440878663
 40
1.2083333333333581
 50
307.52351320333912
 51
232.47648680464988
  0
ARC
  8
_0-1_線色１__水色__
  6
CONTINUOUS
 62
    4
 10
912.85678161080227
 20
714.06463774218651
 40
1.2083333333333179
 50
127.52351320610693
 51
52.47648680188081
  0
ARC
  8
_0-1_線色１__水色__
  6
CONTINUOUS
 62
    4
 10
892.24933959001987
 20
714.06463774136796
 40
1.2083333333333179
 50
127.52351320610693
 51
52.47648680188081
  0
ARC
  8
_0-1_線色１__水色__
  6
CONTINUOUS
 62
    4
 10
889.30541930133472
 20
714.06463774116105
 40
1.2083333333333179
 50
127.52351320610693
 51
52.47648680188081
  0
ARC
  8
_0-1_線色１__水色__
  6
CONTINUOUS
 62
    4
 10
890.77737944554315
 20
715.98130440796581
 40
1.2083333333333581
 50
307.52351320333912
 51
232.47648680464988
  0
ARC
  8
_0-1_線色１__水色__
  6
CONTINUOUS
 62
    4
 10
895.19325987870275
 20
714.0646377415726
 40
1.2083333333333179
 50
127.52351320610693
 51
52.47648680188081
  0
ARC
  8
_0-1_線色１__水色__
  6
CONTINUOUS
 62
    4
 10
893.7212997342283
 20
715.98130440817272
 40
1.2083333333333581
 50
307.52351320333912
 51
232.47648680464988
  0
ARC
  8
_0-1_線色１__水色__
  6
CONTINUOUS
 62
    4
 10
898.13718016738562
 20
714.06463774177723
 40
1.2083333333333179
 50
127.52351320610693
 51
52.47648680188081
  0
ARC
  8
_0-1_線色１__水色__
  6
CONTINUOUS
 62
    4
 10
896.66522002291117
 20
715.98130440837735
 40
1.2083333333333581
 50
307.52351320333912
 51
232.47648680464988
  0
ARC
  8
_0-1_線色１__水色__
  6
CONTINUOUS
 62
    4
 10
901.08110045607077
 20
714.06463774198187
 40
1.2083333333333179
 50
127.52351320610693
 51
52.47648680188081
  0
ARC
  8
_0-1_線色１__水色__
  6
CONTINUOUS
 62
    4
 10
899.60914031159405
 20
715.98130440858199
 40
1.2083333333333581
 50
307.52351320333912
 51
232.47648680464988
  0
ARC
  8
_0-1_線色１__水色__
  6
CONTINUOUS
 62
    4
 10
904.02502074475365
 20
714.06463774218651
 40
1.2083333333333179
 50
127.52351320610693
 51
52.47648680188081
  0
ARC
  8
_0-1_線色１__水色__
  6
CONTINUOUS
 62
    4
 10
902.55306060027465
 20
715.98130440878663
 40
1.2083333333333581
 50
307.52351320333912
 51
232.47648680464988
  0
ARC
  8
_0-1_線色１__水色__
  6
CONTINUOUS
 62
    4
 10
906.96894103343652
 20
714.06463774239342
 40
1.2083333333333179
 50
127.52351320610693
 51
52.47648680188081
  0
ARC
  8
_0-1_線色１__水色__
  6
CONTINUOUS
 62
    4
 10
905.49698088896207
 20
715.98130440899354
 40
1.2083333333333581
 50
307.52351320333912
 51
232.47648680464988
  0
ARC
  8
_0-1_線色１__水色__
  6
CONTINUOUS
 62
    4
 10
909.91286132211712
 20
714.06463774259805
 40
1.2083333333333179
 50
127.52351320610693
 51
52.47648680188081
  0
ARC
  8
_0-1_線色１__水色__
  6
CONTINUOUS
 62
    4
 10
908.44090117764495
 20
715.98130440919817
 40
1.2083333333333581
 50
307.52351320333912
 51
232.47648680464988
  0
ARC
  8
_0-1_線色１__水色__
  6
CONTINUOUS
 62
    4
 10
861.33817655870985
 20
715.98130440653108
 40
1.2083333333333581
 50
307.52351320333912
 51
232.47648680464988
  0
ARC
  8
_0-1_線色１__水色__
  6
CONTINUOUS
 62
    4
 10
884.8895388681774
 20
715.98130440755654
 40
1.2083333333333581
 50
307.52351320333912
 51
232.47648680464988
  0
ARC
  8
_0-1_線色１__水色__
  6
CONTINUOUS
 62
    4
 10
886.36149901265185
 20
714.06463774095641
 40
1.2083333333333179
 50
127.52351320610693
 51
52.47648680188081
  0
ARC
  8
_0-1_線色１__水色__
  6
CONTINUOUS
 62
    4
 10
865.75405699186945
 20
714.06463774013559
 40
1.2083333333333179
 50
127.52351320610693
 51
52.47648680188081
  0
ARC
  8
_0-1_線色１__水色__
  6
CONTINUOUS
 62
    4
 10
862.81013670318657
 20
714.06463773993096
 40
1.2083333333333179
 50
127.52351320610693
 51
52.47648680188081
  0
ARC
  8
_0-1_線色１__水色__
  6
CONTINUOUS
 62
    4
 10
864.282096847395
 20
715.98130440673572
 40
1.2083333333333581
 50
307.52351320333912
 51
232.47648680464988
  0
ARC
  8
_0-1_線色１__水色__
  6
CONTINUOUS
 62
    4
 10
868.69797728055232
 20
714.06463774034023
 40
1.2083333333333179
 50
127.52351320610693
 51
52.47648680188081
  0
ARC
  8
_0-1_線色１__水色__
  6
CONTINUOUS
 62
    4
 10
867.22601713607787
 20
715.98130440694035
 40
1.2083333333333581
 50
307.52351320333912
 51
232.47648680464988
  0
ARC
  8
_0-1_線色１__水色__
  6
CONTINUOUS
 62
    4
 10
871.64189756923292
 20
714.06463774054714
 40
1.2083333333333179
 50
127.52351320610693
 51
52.47648680188081
  0
ARC
  8
_0-1_線色１__水色__
  6
CONTINUOUS
 62
    4
 10
870.16993742476075
 20
715.98130440714499
 40
1.2083333333333581
 50
307.52351320333912
 51
232.47648680464988
  0
ARC
  8
_0-1_線色１__水色__
  6
CONTINUOUS
 62
    4
 10
874.58581785792035
 20
714.06463774075178
 40
1.2083333333333179
 50
127.52351320610693
 51
52.47648680188081
  0
ARC
  8
_0-1_線色１__水色__
  6
CONTINUOUS
 62
    4
 10
873.11385771344135
 20
715.9813044073519
 40
1.2083333333333581
 50
307.52351320333912
 51
232.47648680464988
  0
ARC
  8
_0-1_線色１__水色__
  6
CONTINUOUS
 62
    4
 10
877.52973814660322
 20
714.06463774095641
 40
1.2083333333333179
 50
127.52351320610693
 51
52.47648680188081
  0
ARC
  8
_0-1_線色１__水色__
  6
CONTINUOUS
 62
    4
 10
876.05777800212877
 20
715.98130440755654
 40
1.2083333333333581
 50
307.52351320333912
 51
232.47648680464988
  0
ARC
  8
_0-1_線色１__水色__
  6
CONTINUOUS
 62
    4
 10
880.47365843528382
 20
714.06463774116105
 40
1.2083333333333179
 50
127.52351320610693
 51
52.47648680188081
  0
ARC
  8
_0-1_線色１__水色__
  6
CONTINUOUS
 62
    4
 10
879.00169829081165
 20
715.98130440776117
 40
1.2083333333333581
 50
307.52351320333912
 51
232.47648680464988
  0
ARC
  8
_0-1_線色１__水色__
  6
CONTINUOUS
 62
    4
 10
883.41757872396897
 20
714.06463774136796
 40
1.2083333333333179
 50
127.52351320610693
 51
52.47648680188081
  0
ARC
  8
_0-1_線色１__水色__
  6
CONTINUOUS
 62
    4
 10
881.94561857949225
 20
715.98130440796581
 40
1.2083333333333581
 50
307.52351320333912
 51
232.47648680464988
  0
ARC
  8
_0-1_線色１__水色__
  6
CONTINUOUS
 62
    4
 10
927.57638305419619
 20
714.06463774323015
 40
1.2083333333333179
 50
127.52351320610693
 51
52.47648680188081
  0
ARC
  8
_0-1_線色１__水色__
  6
CONTINUOUS
 62
    4
 10
917.27266204366856
 20
715.98130440921409
 40
1.2083333333333581
 50
307.52351320333912
 51
232.47648680464988
  0
ARC
  8
_0-1_線色１__水色__
  6
CONTINUOUS
 62
    4
 10
921.68854247683043
 20
714.06463774282088
 40
1.2083333333333179
 50
127.52351320610693
 51
52.47648680188081
  0
ARC
  8
_0-1_線色１__水色__
  6
CONTINUOUS
 62
    4
 10
918.74462218814529
 20
714.06463774261624
 40
1.2083333333333179
 50
127.52351320610693
 51
52.47648680188081
  0
ARC
  8
_0-1_線色１__水色__
  6
CONTINUOUS
 62
    4
 10
920.21658233235371
 20
715.981304409421
 40
1.2083333333333581
 50
307.52351320333912
 51
232.47648680464988
  0
ARC
  8
_0-1_線色１__水色__
  6
CONTINUOUS
 62
    4
 10
924.63246276551104
 20
714.06463774302551
 40
1.2083333333333179
 50
127.52351320610693
 51
52.47648680188081
  0
ARC
  8
_0-1_線色１__水色__
  6
CONTINUOUS
 62
    4
 10
923.16050262103658
 20
715.98130440962564
 40
1.2083333333333581
 50
307.52351320333912
 51
232.47648680464988
  0
ARC
  8
_0-1_線色１__水色__
  6
CONTINUOUS
 62
    4
 10
926.10442290971946
 20
715.98130440983027
 40
1.2083333333333581
 50
307.52351320333912
 51
232.47648680464988
  0
ARC
  8
_0-1_線色１__水色__
  6
CONTINUOUS
 62
    4
 10
914.32874175498796
 20
715.98130440900945
 40
1.2083333333333581
 50
307.52351320333912
 51
232.47648680464988
  0
ARC
  8
_0-1_線色１__水色__
  6
CONTINUOUS
 62
    4
 10
915.80070189946014
 20
714.06463774240933
 40
1.2083333333333179
 50
127.52351320610693
 51
52.47648680188081
  0
ARC
  8
_0-1_線色１__水色__
  6
CONTINUOUS
 62
    4
 10
955.5436257965323
 20
715.98130441128546
 40
1.2083333333333581
 50
307.52351320333912
 51
232.47648680464988
  0
ARC
  8
_0-1_線色１__水色__
  6
CONTINUOUS
 62
    4
 10
979.09498810599757
 20
715.98130441231092
 40
1.2083333333333581
 50
307.52351320333912
 51
232.47648680464988
  0
ARC
  8
_0-1_線色１__水色__
  6
CONTINUOUS
 62
    4
 10
980.5669482504743
 20
714.0646377457108
 40
1.2083333333333179
 50
127.52351320610693
 51
52.47648680188081
  0
ARC
  8
_0-1_線色１__水色__
  6
CONTINUOUS
 62
    4
 10
959.95950622968735
 20
714.06463774488998
 40
1.2083333333333179
 50
127.52351320610693
 51
52.47648680188081
  0
ARC
  8
_0-1_線色１__水色__
  6
CONTINUOUS
 62
    4
 10
957.01558594100675
 20
714.06463774468534
 40
1.2083333333333179
 50
127.52351320610693
 51
52.47648680188081
  0
ARC
  8
_0-1_線色１__水色__
  6
CONTINUOUS
 62
    4
 10
958.48754608521517
 20
715.9813044114901
 40
1.2083333333333581
 50
307.52351320333912
 51
232.47648680464988
  0
ARC
  8
_0-1_線色１__水色__
  6
CONTINUOUS
 62
    4
 10
962.9034265183725
 20
714.06463774509689
 40
1.2083333333333179
 50
127.52351320610693
 51
52.47648680188081
  0
ARC
  8
_0-1_線色１__水色__
  6
CONTINUOUS
 62
    4
 10
961.43146637389577
 20
715.98130441169474
 40
1.2083333333333581
 50
307.52351320333912
 51
232.47648680464988
  0
ARC
  8
_0-1_線色１__水色__
  6
CONTINUOUS
 62
    4
 10
965.84734680705765
 20
714.06463774530152
 40
1.2083333333333179
 50
127.52351320610693
 51
52.47648680188081
  0
ARC
  8
_0-1_線色１__水色__
  6
CONTINUOUS
 62
    4
 10
964.37538666258092
 20
715.98130441190165
 40
1.2083333333333581
 50
307.52351320333912
 51
232.47648680464988
  0
ARC
  8
_0-1_線色１__水色__
  6
CONTINUOUS
 62
    4
 10
968.79126709573825
 20
714.06463774550616
 40
1.2083333333333179
 50
127.52351320610693
 51
52.47648680188081
  0
ARC
  8
_0-1_線色１__水色__
  6
CONTINUOUS
 62
    4
 10
967.31930695126607
 20
715.98130441210628
 40
1.2083333333333581
 50
307.52351320333912
 51
232.47648680464988
  0
ARC
  8
_0-1_線色１__水色__
  6
CONTINUOUS
 62
    4
 10
971.7351873844234
 20
714.0646377457108
 40
1.2083333333333179
 50
127.52351320610693
 51
52.47648680188081
  0
ARC
  8
_0-1_線色１__水色__
  6
CONTINUOUS
 62
    4
 10
970.26322723994667
 20
715.98130441231092
 40
1.2083333333333581
 50
307.52351320333912
 51
232.47648680464988
  0
ARC
  8
_0-1_線色１__水色__
  6
CONTINUOUS
 62
    4
 10
974.67910767310627
 20
714.06463774591543
 40
1.2083333333333179
 50
127.52351320610693
 51
52.47648680188081
  0
ARC
  8
_0-1_線色１__水色__
  6
CONTINUOUS
 62
    4
 10
973.20714752863182
 20
715.98130441251556
 40
1.2083333333333581
 50
307.52351320333912
 51
232.47648680464988
  0
ARC
  8
_0-1_線色１__水色__
  6
CONTINUOUS
 62
    4
 10
977.62302796178915
 20
714.06463774612234
 40
1.2083333333333179
 50
127.52351320610693
 51
52.47648680188081
  0
ARC
  8
_0-1_線色１__水色__
  6
CONTINUOUS
 62
    4
 10
976.1510678173147
 20
715.98130441272247
 40
1.2083333333333581
 50
307.52351320333912
 51
232.47648680464988
  0
ARC
  8
_0-1_線色１__水色__
  6
CONTINUOUS
 62
    4
 10
929.04834319838187
 20
715.9813044100531
 40
1.2083333333333581
 50
307.52351320333912
 51
232.47648680464988
  0
ARC
  8
_0-1_線色１__水色__
  6
CONTINUOUS
 62
    4
 10
952.59970550784942
 20
715.98130441108083
 40
1.2083333333333581
 50
307.52351320333912
 51
232.47648680464988
  0
ARC
  8
_0-1_線色１__水色__
  6
CONTINUOUS
 62
    4
 10
954.07166565232387
 20
714.06463774448071
 40
1.2083333333333179
 50
127.52351320610693
 51
52.47648680188081
  0
ARC
  8
_0-1_線色１__水色__
  6
CONTINUOUS
 62
    4
 10
933.46422363154147
 20
714.06463774365989
 40
1.2083333333333179
 50
127.52351320610693
 51
52.47648680188081
  0
ARC
  8
_0-1_線色１__水色__
  6
CONTINUOUS
 62
    4
 10
930.52030334285405
 20
714.06463774345525
 40
1.2083333333333179
 50
127.52351320610693
 51
52.47648680188081
  0
ARC
  8
_0-1_線色１__水色__
  6
CONTINUOUS
 62
    4
 10
931.99226348706247
 20
715.98130441026001
 40
1.2083333333333581
 50
307.52351320333912
 51
232.47648680464988
  0
ARC
  8
_0-1_線色１__水色__
  6
CONTINUOUS
 62
    4
 10
936.40814392022435
 20
714.06463774386452
 40
1.2083333333333179
 50
127.52351320610693
 51
52.47648680188081
  0
ARC
  8
_0-1_線色１__水色__
  6
CONTINUOUS
 62
    4
 10
934.93618377574762
 20
715.98130441046465
 40
1.2083333333333581
 50
307.52351320333912
 51
232.47648680464988
  0
ARC
  8
_0-1_線色１__水色__
  6
CONTINUOUS
 62
    4
 10
939.35206420890495
 20
714.06463774406916
 40
1.2083333333333179
 50
127.52351320610693
 51
52.47648680188081
  0
ARC
  8
_0-1_線色１__水色__
  6
CONTINUOUS
 62
    4
 10
937.88010406443277
 20
715.98130441066928
 40
1.2083333333333581
 50
307.52351320333912
 51
232.47648680464988
  0
ARC
  8
_0-1_線色１__水色__
  6
CONTINUOUS
 62
    4
 10
942.2959844975901
 20
714.06463774427607
 40
1.2083333333333179
 50
127.52351320610693
 51
52.47648680188081
  0
ARC
  8
_0-1_線色１__水色__
  6
CONTINUOUS
 62
    4
 10
940.82402435311337
 20
715.98130441087392
 40
1.2083333333333581
 50
307.52351320333912
 51
232.47648680464988
  0
ARC
  8
_0-1_線色１__水色__
  6
CONTINUOUS
 62
    4
 10
945.23990478627297
 20
714.06463774448071
 40
1.2083333333333179
 50
127.52351320610693
 51
52.47648680188081
  0
ARC
  8
_0-1_線色１__水色__
  6
CONTINUOUS
 62
    4
 10
943.76794464179852
 20
715.98130441108083
 40
1.2083333333333581
 50
307.52351320333912
 51
232.47648680464988
  0
ARC
  8
_0-1_線色１__水色__
  6
CONTINUOUS
 62
    4
 10
948.18382507495585
 20
714.06463774468534
 40
1.2083333333333179
 50
127.52351320610693
 51
52.47648680188081
  0
ARC
  8
_0-1_線色１__水色__
  6
CONTINUOUS
 62
    4
 10
946.7118649304814
 20
715.98130441128546
 40
1.2083333333333581
 50
307.52351320333912
 51
232.47648680464988
  0
ARC
  8
_0-1_線色１__水色__
  6
CONTINUOUS
 62
    4
 10
951.127745363641
 20
714.06463774488998
 40
1.2083333333333179
 50
127.52351320610693
 51
52.47648680188081
  0
ARC
  8
_0-1_線色１__水色__
  6
CONTINUOUS
 62
    4
 10
949.65578521916427
 20
715.9813044114901
 40
1.2083333333333581
 50
307.52351320333912
 51
232.47648680464988
  0
ARC
  8
_0-1_線色１__水色__
  6
CONTINUOUS
 62
    4
 10
995.28654969386366
 20
714.06463774675444
 40
1.2083333333333179
 50
127.52351320610693
 51
52.47648680188081
  0
ARC
  8
_0-1_線色１__水色__
  6
CONTINUOUS
 62
    4
 10
984.98282868334059
 20
715.98130441273838
 40
1.2083333333333581
 50
307.52351320333912
 51
232.47648680464988
  0
ARC
  8
_0-1_線色１__水色__
  6
CONTINUOUS
 62
    4
 10
989.39870911650019
 20
714.06463774634517
 40
1.2083333333333179
 50
127.52351320610693
 51
52.47648680188081
  0
ARC
  8
_0-1_線色１__水色__
  6
CONTINUOUS
 62
    4
 10
986.45478882781731
 20
714.06463774614053
 40
1.2083333333333179
 50
127.52351320610693
 51
52.47648680188081
  0
ARC
  8
_0-1_線色１__水色__
  6
CONTINUOUS
 62
    4
 10
987.92674897202573
 20
715.98130441294529
 40
1.2083333333333581
 50
307.52351320333912
 51
232.47648680464988
  0
ARC
  8
_0-1_線色１__水色__
  6
CONTINUOUS
 62
    4
 10
992.34262940518306
 20
714.06463774654981
 40
1.2083333333333179
 50
127.52351320610693
 51
52.47648680188081
  0
ARC
  8
_0-1_線色１__水色__
  6
CONTINUOUS
 62
    4
 10
990.87066926070861
 20
715.98130441314993
 40
1.2083333333333581
 50
307.52351320333912
 51
232.47648680464988
  0
ARC
  8
_0-1_線色１__水色__
  6
CONTINUOUS
 62
    4
 10
993.81458954939148
 20
715.98130441335456
 40
1.2083333333333581
 50
307.52351320333912
 51
232.47648680464988
  0
ARC
  8
_0-1_線色１__水色__
  6
CONTINUOUS
 62
    4
 10
982.03890839465771
 20
715.98130441253375
 40
1.2083333333333581
 50
307.52351320333912
 51
232.47648680464988
  0
ARC
  8
_0-1_線色１__水色__
  6
CONTINUOUS
 62
    4
 10
983.51086853913216
 20
714.06463774593362
 40
1.2083333333333179
 50
127.52351320610693
 51
52.47648680188081
  0
ARC
  8
_0-1_線色１__水色__
  6
CONTINUOUS
 62
    4
 10
1023.253792436202
 20
715.98130441480976
 40
1.2083333333333581
 50
307.52351320333912
 51
232.47648680464988
  0
ARC
  8
_0-1_線色１__水色__
  6
CONTINUOUS
 62
    4
 10
1027.6696728693594
 20
714.06463774841427
 40
1.2083333333333179
 50
127.52351320610693
 51
52.47648680188081
  0
ARC
  8
_0-1_線色１__水色__
  6
CONTINUOUS
 62
    4
 10
1024.7257525806765
 20
714.06463774820963
 40
1.2083333333333179
 50
127.52351320610693
 51
52.47648680188081
  0
ARC
  8
_0-1_線色１__水色__
  6
CONTINUOUS
 62
    4
 10
1026.1977127248849
 20
715.98130441501439
 40
1.2083333333333581
 50
307.52351320333912
 51
232.47648680464988
  0
ARC
  8
_0-1_線色１__水色__
  6
CONTINUOUS
 62
    4
 10
1030.6135931580445
 20
714.06463774861891
 40
1.2083333333333179
 50
127.52351320610693
 51
52.47648680188081
  0
ARC
  8
_0-1_線色１__水色__
  6
CONTINUOUS
 62
    4
 10
1029.1416330135678
 20
715.98130441521903
 40
1.2083333333333581
 50
307.52351320333912
 51
232.47648680464988
  0
ARC
  8
_0-1_線色１__水色__
  6
CONTINUOUS
 62
    4
 10
1033.5575134467274
 20
714.06463774882582
 40
1.2083333333333179
 50
127.52351320610693
 51
52.47648680188081
  0
ARC
  8
_0-1_線色１__水色__
  6
CONTINUOUS
 62
    4
 10
1032.0855533022529
 20
715.98130441542366
 40
1.2083333333333581
 50
307.52351320333912
 51
232.47648680464988
  0
ARC
  8
_0-1_線色１__水色__
  6
CONTINUOUS
 62
    4
 10
1036.5014337354103
 20
714.06463774903045
 40
1.2083333333333179
 50
127.52351320610693
 51
52.47648680188081
  0
ARC
  8
_0-1_線色１__水色__
  6
CONTINUOUS
 62
    4
 10
1035.0294735909358
 20
715.98130441563058
 40
1.2083333333333581
 50
307.52351320333912
 51
232.47648680464988
  0
ARC
  8
_0-1_線色１__水色__
  6
CONTINUOUS
 62
    4
 10
1039.4453540240909
 20
714.06463774923509
 40
1.2083333333333179
 50
127.52351320610693
 51
52.47648680188081
  0
ARC
  8
_0-1_線色１__水色__
  6
CONTINUOUS
 62
    4
 10
1037.9733938796187
 20
715.98130441583521
 40
1.2083333333333581
 50
307.52351320333912
 51
232.47648680464988
  0
ARC
  8
_0-1_線色１__水色__
  6
CONTINUOUS
 62
    4
 10
1042.3892743127783
 20
714.06463774943973
 40
1.2083333333333179
 50
127.52351320610693
 51
52.47648680188081
  0
ARC
  8
_0-1_線色１__水色__
  6
CONTINUOUS
 62
    4
 10
1040.9173141682993
 20
715.98130441603985
 40
1.2083333333333581
 50
307.52351320333912
 51
232.47648680464988
  0
ARC
  8
_0-1_線色１__水色__
  6
CONTINUOUS
 62
    4
 10
1043.8612344569844
 20
715.98130441624448
 40
1.2083333333333581
 50
307.52351320333912
 51
232.47648680464988
  0
ARC
  8
_0-1_線色１__水色__
  6
CONTINUOUS
 62
    4
 10
996.75850983805162
 20
715.98130441357739
 40
1.2083333333333581
 50
307.52351320333912
 51
232.47648680464988
  0
ARC
  8
_0-1_線色１__水色__
  6
CONTINUOUS
 62
    4
 10
1020.3098721475169
 20
715.98130441460285
 40
1.2083333333333581
 50
307.52351320333912
 51
232.47648680464988
  0
ARC
  8
_0-1_線色１__水色__
  6
CONTINUOUS
 62
    4
 10
1021.7818322919936
 20
714.064637748005
 40
1.2083333333333179
 50
127.52351320610693
 51
52.47648680188081
  0
ARC
  8
_0-1_線色１__水色__
  6
CONTINUOUS
 62
    4
 10
1001.1743902712112
 20
714.06463774718418
 40
1.2083333333333179
 50
127.52351320610693
 51
52.47648680188081
  0
ARC
  8
_0-1_線色１__水色__
  6
CONTINUOUS
 62
    4
 10
998.23046998252607
 20
714.06463774697727
 40
1.2083333333333179
 50
127.52351320610693
 51
52.47648680188081
  0
ARC
  8
_0-1_線色１__水色__
  6
CONTINUOUS
 62
    4
 10
999.7024301267345
 20
715.98130441378203
 40
1.2083333333333581
 50
307.52351320333912
 51
232.47648680464988
  0
ARC
  8
_0-1_線色１__水色__
  6
CONTINUOUS
 62
    4
 10
1004.1183105598941
 20
714.06463774738882
 40
1.2083333333333179
 50
127.52351320610693
 51
52.47648680188081
  0
ARC
  8
_0-1_線色１__水色__
  6
CONTINUOUS
 62
    4
 10
1002.6463504154196
 20
715.98130441398894
 40
1.2083333333333581
 50
307.52351320333912
 51
232.47648680464988
  0
ARC
  8
_0-1_線色１__水色__
  6
CONTINUOUS
 62
    4
 10
1007.062230848577
 20
714.06463774759345
 40
1.2083333333333179
 50
127.52351320610693
 51
52.47648680188081
  0
ARC
  8
_0-1_線色１__水色__
  6
CONTINUOUS
 62
    4
 10
1005.5902707041025
 20
715.98130441419357
 40
1.2083333333333581
 50
307.52351320333912
 51
232.47648680464988
  0
ARC
  8
_0-1_線色１__水色__
  6
CONTINUOUS
 62
    4
 10
1010.0061511372576
 20
714.06463774779809
 40
1.2083333333333179
 50
127.52351320610693
 51
52.47648680188081
  0
ARC
  8
_0-1_線色１__水色__
  6
CONTINUOUS
 62
    4
 10
1008.5341909927854
 20
715.98130441439821
 40
1.2083333333333581
 50
307.52351320333912
 51
232.47648680464988
  0
ARC
  8
_0-1_線色１__水色__
  6
CONTINUOUS
 62
    4
 10
1012.950071425945
 20
714.064637748005
 40
1.2083333333333179
 50
127.52351320610693
 51
52.47648680188081
  0
ARC
  8
_0-1_線色１__水色__
  6
CONTINUOUS
 62
    4
 10
1011.478111281466
 20
715.98130441460285
 40
1.2083333333333581
 50
307.52351320333912
 51
232.47648680464988
  0
ARC
  8
_0-1_線色１__水色__
  6
CONTINUOUS
 62
    4
 10
1015.8939917146279
 20
714.06463774820963
 40
1.2083333333333179
 50
127.52351320610693
 51
52.47648680188081
  0
ARC
  8
_0-1_線色１__水色__
  6
CONTINUOUS
 62
    4
 10
1014.4220315701511
 20
715.98130441480976
 40
1.2083333333333581
 50
307.52351320333912
 51
232.47648680464988
  0
ARC
  8
_0-1_線色１__水色__
  6
CONTINUOUS
 62
    4
 10
1018.8379120033085
 20
714.06463774841427
 40
1.2083333333333179
 50
127.52351320610693
 51
52.47648680188081
  0
ARC
  8
_0-1_線色１__水色__
  6
CONTINUOUS
 62
    4
 10
1017.3659518588363
 20
715.98130441501439
 40
1.2083333333333581
 50
307.52351320333912
 51
232.47648680464988
  0
ARC
  8
_0-1_線色１__水色__
  6
CONTINUOUS
 62
    4
 10
1062.9967163335357
 20
714.06463775027873
 40
1.2083333333333179
 50
127.52351320610693
 51
52.47648680188081
  0
ARC
  8
_0-1_線色１__水色__
  6
CONTINUOUS
 62
    4
 10
1057.1088757561699
 20
714.06463774986946
 40
1.2083333333333179
 50
127.52351320610693
 51
52.47648680188081
  0
ARC
  8
_0-1_線色１__水色__
  6
CONTINUOUS
 62
    4
 10
1055.6369156116932
 20
715.98130441646731
 40
1.2083333333333581
 50
307.52351320333912
 51
232.47648680464988
  0
ARC
  8
_0-1_線色１__水色__
  6
CONTINUOUS
 62
    4
 10
1060.0527960448551
 20
714.0646377500741
 40
1.2083333333333179
 50
127.52351320610693
 51
52.47648680188081
  0
ARC
  8
_0-1_線色１__水色__
  6
CONTINUOUS
 62
    4
 10
1058.5808359003784
 20
715.98130441667422
 40
1.2083333333333581
 50
307.52351320333912
 51
232.47648680464988
  0
ARC
  8
_0-1_線色１__水色__
  6
CONTINUOUS
 62
    4
 10
1061.5247561890612
 20
715.98130441687886
 40
1.2083333333333581
 50
307.52351320333912
 51
232.47648680464988
  0
ARC
  8
_0-1_線色１__水色__
  6
CONTINUOUS
 62
    4
 10
1090.9639590758718
 20
715.98130441833177
 40
1.2083333333333581
 50
307.52351320333912
 51
232.47648680464988
  0
ARC
  8
_0-1_線色１__水色__
  6
CONTINUOUS
 62
    4
 10
1114.5153213853393
 20
715.9813044193595
 40
1.2083333333333581
 50
307.52351320333912
 51
232.47648680464988
  0
ARC
  8
_0-1_線色１__水色__
  6
CONTINUOUS
 62
    4
 10
1095.3798395090314
 20
714.06463775193856
 40
1.2083333333333179
 50
127.52351320610693
 51
52.47648680188081
  0
ARC
  8
_0-1_線色１__水色__
  6
CONTINUOUS
 62
    4
 10
1092.4359192203485
 20
714.06463775173393
 40
1.2083333333333179
 50
127.52351320610693
 51
52.47648680188081
  0
ARC
  8
_0-1_線色１__水色__
  6
CONTINUOUS
 62
    4
 10
1093.9078793645569
 20
715.98130441853868
 40
1.2083333333333581
 50
307.52351320333912
 51
232.47648680464988
  0
ARC
  8
_0-1_線色１__水色__
  6
CONTINUOUS
 62
    4
 10
1098.3237597977143
 20
714.0646377521432
 40
1.2083333333333179
 50
127.52351320610693
 51
52.47648680188081
  0
ARC
  8
_0-1_線色１__水色__
  6
CONTINUOUS
 62
    4
 10
1096.8517996532398
 20
715.98130441874332
 40
1.2083333333333581
 50
307.52351320333912
 51
232.47648680464988
  0
ARC
  8
_0-1_線色１__水色__
  6
CONTINUOUS
 62
    4
 10
1101.2676800863971
 20
714.06463775234783
 40
1.2083333333333179
 50
127.52351320610693
 51
52.47648680188081
  0
ARC
  8
_0-1_線色１__水色__
  6
CONTINUOUS
 62
    4
 10
1099.7957199419227
 20
715.98130441894796
 40
1.2083333333333581
 50
307.52351320333912
 51
232.47648680464988
  0
ARC
  8
_0-1_線色１__水色__
  6
CONTINUOUS
 62
    4
 10
1104.2116003750823
 20
714.06463775255247
 40
1.2083333333333179
 50
127.52351320610693
 51
52.47648680188081
  0
ARC
  8
_0-1_線色１__水色__
  6
CONTINUOUS
 62
    4
 10
1102.7396402306056
 20
715.98130441915259
 40
1.2083333333333581
 50
307.52351320333912
 51
232.47648680464988
  0
ARC
  8
_0-1_線色１__水色__
  6
CONTINUOUS
 62
    4
 10
1107.1555206637652
 20
714.06463775275938
 40
1.2083333333333179
 50
127.52351320610693
 51
52.47648680188081
  0
ARC
  8
_0-1_線色１__水色__
  6
CONTINUOUS
 62
    4
 10
1105.6835605192907
 20
715.9813044193595
 40
1.2083333333333581
 50
307.52351320333912
 51
232.47648680464988
  0
ARC
  8
_0-1_線色１__水色__
  6
CONTINUOUS
 62
    4
 10
1110.099440952448
 20
714.06463775296402
 40
1.2083333333333179
 50
127.52351320610693
 51
52.47648680188081
  0
ARC
  8
_0-1_線色１__水色__
  6
CONTINUOUS
 62
    4
 10
1108.6274808079736
 20
715.98130441956414
 40
1.2083333333333581
 50
307.52351320333912
 51
232.47648680464988
  0
ARC
  8
_0-1_線色１__水色__
  6
CONTINUOUS
 62
    4
 10
1113.0433612411309
 20
714.06463775316865
 40
1.2083333333333179
 50
127.52351320610693
 51
52.47648680188081
  0
ARC
  8
_0-1_線色１__水色__
  6
CONTINUOUS
 62
    4
 10
1111.5714010966565
 20
715.98130441976878
 40
1.2083333333333581
 50
307.52351320333912
 51
232.47648680464988
  0
ARC
  8
_0-1_線色１__水色__
  6
CONTINUOUS
 62
    4
 10
1064.4686764777236
 20
715.98130441710168
 40
1.2083333333333581
 50
307.52351320333912
 51
232.47648680464988
  0
ARC
  8
_0-1_線色１__水色__
  6
CONTINUOUS
 62
    4
 10
1088.0200387871889
 20
715.98130441812714
 40
1.2083333333333581
 50
307.52351320333912
 51
232.47648680464988
  0
ARC
  8
_0-1_線色１__水色__
  6
CONTINUOUS
 62
    4
 10
1089.4919989316656
 20
714.06463775152702
 40
1.2083333333333179
 50
127.52351320610693
 51
52.47648680188081
  0
ARC
  8
_0-1_線色１__水色__
  6
CONTINUOUS
 62
    4
 10
1068.884556910881
 20
714.0646377507062
 40
1.2083333333333179
 50
127.52351320610693
 51
52.47648680188081
  0
ARC
  8
_0-1_線色１__水色__
  6
CONTINUOUS
 62
    4
 10
1065.9406366221981
 20
714.06463775050156
 40
1.2083333333333179
 50
127.52351320610693
 51
52.47648680188081
  0
ARC
  8
_0-1_線色１__水色__
  6
CONTINUOUS
 62
    4
 10
1067.4125967664065
 20
715.98130441730632
 40
1.2083333333333581
 50
307.52351320333912
 51
232.47648680464988
  0
ARC
  8
_0-1_線色１__水色__
  6
CONTINUOUS
 62
    4
 10
1071.8284771995638
 20
714.06463775091311
 40
1.2083333333333179
 50
127.52351320610693
 51
52.47648680188081
  0
ARC
  8
_0-1_線色１__水色__
  6
CONTINUOUS
 62
    4
 10
1070.3565170550894
 20
715.98130441751096
 40
1.2083333333333581
 50
307.52351320333912
 51
232.47648680464988
  0
ARC
  8
_0-1_線色１__水色__
  6
CONTINUOUS
 62
    4
 10
1074.772397488249
 20
714.06463775111774
 40
1.2083333333333179
 50
127.52351320610693
 51
52.47648680188081
  0
ARC
  8
_0-1_線色１__水色__
  6
CONTINUOUS
 62
    4
 10
1073.3004373437723
 20
715.98130441771787
 40
1.2083333333333581
 50
307.52351320333912
 51
232.47648680464988
  0
ARC
  8
_0-1_線色１__水色__
  6
CONTINUOUS
 62
    4
 10
1077.7163177769319
 20
714.06463775132238
 40
1.2083333333333179
 50
127.52351320610693
 51
52.47648680188081
  0
ARC
  8
_0-1_線色１__水色__
  6
CONTINUOUS
 62
    4
 10
1076.2443576324574
 20
715.9813044179225
 40
1.2083333333333581
 50
307.52351320333912
 51
232.47648680464988
  0
ARC
  8
_0-1_線色１__水色__
  6
CONTINUOUS
 62
    4
 10
1080.6602380656147
 20
714.06463775152702
 40
1.2083333333333179
 50
127.52351320610693
 51
52.47648680188081
  0
ARC
  8
_0-1_線色１__水色__
  6
CONTINUOUS
 62
    4
 10
1079.1882779211403
 20
715.98130441812714
 40
1.2083333333333581
 50
307.52351320333912
 51
232.47648680464988
  0
ARC
  8
_0-1_線色１__水色__
  6
CONTINUOUS
 62
    4
 10
1083.6041583542976
 20
714.06463775173393
 40
1.2083333333333179
 50
127.52351320610693
 51
52.47648680188081
  0
ARC
  8
_0-1_線色１__水色__
  6
CONTINUOUS
 62
    4
 10
1082.1321982098232
 20
715.98130441833177
 40
1.2083333333333581
 50
307.52351320333912
 51
232.47648680464988
  0
ARC
  8
_0-1_線色１__水色__
  6
CONTINUOUS
 62
    4
 10
1086.5480786429828
 20
714.06463775193856
 40
1.2083333333333179
 50
127.52351320610693
 51
52.47648680188081
  0
ARC
  8
_0-1_線色１__水色__
  6
CONTINUOUS
 62
    4
 10
1085.076118498506
 20
715.98130441853868
 40
1.2083333333333581
 50
307.52351320333912
 51
232.47648680464988
  0
LINE
  8
_0-a_文字
  6
CONTINUOUS
 62
    7
 10
776.27456121898717
 20
817.49623267557922
 11
796.27456121898717
 21
817.49623267557922
  0
LINE
  8
_0-a_文字
  6
CONTINUOUS
 62
    7
 10
761.84080448924647
 20
792.49623267557922
 11
796.27456121898717
 21
792.49623267557922
  0
LINE
  8
_0-a_文字
  6
CONTINUOUS
 62
    7
 10
747.40704775950576
 20
767.49623267557922
 11
796.27456121898717
 21
767.49623267557922
  0
TEXT
  8
_0-a_文字
 62
    7
 10
801.27456121898808
 20
784.99623267557934
 40
14.999999999999503
 41
1.0000000000000495
 50
0
  1
ラジアルシートＬ６００
  0
LINE
  8
_0-d_断熱__ハッチ
  6
CONTINUOUS
 62
    4
 10
641.48239966434971
 20
697.79380336570398
 11
656.21156739200956
 21
712.5229710933661
  0
LINE
  8
_0-d_断熱__ハッチ
  6
CONTINUOUS
 62
    4
 10
1451.6561662880292
 20
712.5229710933661
 11
1458.5176003356526
 21
705.66153704574276
  0
LINE
  8
_0-d_断熱__ハッチ
  6
CONTINUOUS
 62
    4
 10
1423.3718950405716
 20
712.5229710933661
 11
1458.3718950405716
 21
677.5229710933661
  0
LINE
  8
_0-d_断熱__ハッチ
  6
CONTINUOUS
 62
    4
 10
1395.0876237931141
 20
712.5229710933661
 11
1430.0876237931141
 21
677.5229710933661
  0
LINE
  8
_0-d_断熱__ハッチ
  6
CONTINUOUS
 62
    4
 10
1310.2348100507231
 20
712.5229710933661
 11
1345.2348100507231
 21
677.5229710933661
  0
LINE
  8
_0-d_断熱__ハッチ
  6
CONTINUOUS
 62
    4
 10
1281.9505388032655
 20
712.5229710933661
 11
1316.9505388032655
 21
677.5229710933661
  0
LINE
  8
_0-d_断熱__ハッチ
  6
CONTINUOUS
 62
    4
 10
1253.6662675557989
 20
712.5229710933661
 11
1288.6662675557989
 21
677.5229710933661
  0
LINE
  8
_0-d_断熱__ハッチ
  6
CONTINUOUS
 62
    4
 10
1225.3819963083413
 20
712.5229710933661
 11
1260.3819963083413
 21
677.5229710933661
  0
LINE
  8
_0-d_断熱__ハッチ
  6
CONTINUOUS
 62
    4
 10
1140.5291825659504
 20
712.5229710933661
 11
1175.5291825659504
 21
677.5229710933661
  0
LINE
  8
_0-d_断熱__ハッチ
  6
CONTINUOUS
 62
    4
 10
1112.2449113184928
 20
712.5229710933661
 11
1147.244911318495
 21
677.52297109336382
  0
LINE
  8
_0-d_断熱__ハッチ
  6
CONTINUOUS
 62
    4
 10
1083.9606400710261
 20
712.5229710933661
 11
1118.9606400710261
 21
677.5229710933661
  0
LINE
  8
_0-d_断熱__ハッチ
  6
CONTINUOUS
 62
    4
 10
942.53928383371999
 20
712.5229710933661
 11
977.53928383371999
 21
677.52297109336382
  0
LINE
  8
_0-d_断熱__ハッチ
  6
CONTINUOUS
 62
    4
 10
914.25501258625332
 20
712.5229710933661
 11
949.25501258625332
 21
677.5229710933661
  0
LINE
  8
_0-d_断熱__ハッチ
  6
CONTINUOUS
 62
    4
 10
885.97074133879573
 20
712.5229710933661
 11
920.97074133879573
 21
677.5229710933661
  0
LINE
  8
_0-d_断熱__ハッチ
  6
CONTINUOUS
 62
    4
 10
857.68647009133815
 20
712.5229710933661
 11
892.68647009133815
 21
677.5229710933661
  0
LINE
  8
_0-d_断熱__ハッチ
  6
CONTINUOUS
 62
    4
 10
829.40219884387147
 20
712.5229710933661
 11
864.40219884387147
 21
677.5229710933661
  0
LINE
  8
_0-d_断熱__ハッチ
  6
CONTINUOUS
 62
    4
 10
801.11792759641389
 20
712.5229710933661
 11
836.11792759641389
 21
677.5229710933661
  0
LINE
  8
_0-d_断熱__ハッチ
  6
CONTINUOUS
 62
    4
 10
772.83365634894722
 20
712.5229710933661
 11
807.83365634894722
 21
677.5229710933661
  0
LINE
  8
_0-d_断熱__ハッチ
  6
CONTINUOUS
 62
    4
 10
744.54938510148963
 20
712.5229710933661
 11
779.54938510148963
 21
677.52297109336382
  0
LINE
  8
_0-d_断熱__ハッチ
  6
CONTINUOUS
 62
    4
 10
716.26511385402296
 20
712.5229710933661
 11
751.26511385402296
 21
677.5229710933661
  0
LINE
  8
_0-d_断熱__ハッチ
  6
CONTINUOUS
 62
    4
 10
687.98084260656537
 20
712.5229710933661
 11
722.98084260656537
 21
677.52297109336382
  0
LINE
  8
_0-d_断熱__ハッチ
  6
CONTINUOUS
 62
    4
 10
659.6965713590987
 20
712.5229710933661
 11
694.6965713590987
 21
677.5229710933661
  0
LINE
  8
_0-d_断熱__ハッチ
  6
CONTINUOUS
 62
    4
 10
649.49583863946714
 20
677.52297109336382
 11
684.49583863946714
 21
712.5229710933661
  0
LINE
  8
_0-d_断熱__ハッチ
  6
CONTINUOUS
 62
    4
 10
677.78010988693381
 20
677.5229710933661
 11
712.78010988693381
 21
712.5229710933661
  0
LINE
  8
_0-d_断熱__ハッチ
  6
CONTINUOUS
 62
    4
 10
706.0643811343914
 20
677.52297109336382
 11
741.0643811343914
 21
712.5229710933661
  0
LINE
  8
_0-d_断熱__ハッチ
  6
CONTINUOUS
 62
    4
 10
734.34865238185807
 20
677.5229710933661
 11
769.34865238185807
 21
712.5229710933661
  0
LINE
  8
_0-d_断熱__ハッチ
  6
CONTINUOUS
 62
    4
 10
762.63292362931566
 20
677.52297109336382
 11
797.63292362931566
 21
712.5229710933661
  0
LINE
  8
_0-d_断熱__ハッチ
  6
CONTINUOUS
 62
    4
 10
790.91719487678233
 20
677.5229710933661
 11
825.91719487678233
 21
712.5229710933661
  0
LINE
  8
_0-d_断熱__ハッチ
  6
CONTINUOUS
 62
    4
 10
819.20146612423991
 20
677.52297109336382
 11
854.20146612423991
 21
712.5229710933661
  0
LINE
  8
_0-d_断熱__ハッチ
  6
CONTINUOUS
 62
    4
 10
847.48573737170659
 20
677.5229710933661
 11
882.48573737170659
 21
712.5229710933661
  0
LINE
  8
_0-d_断熱__ハッチ
  6
CONTINUOUS
 62
    4
 10
875.77000861916417
 20
677.52297109336382
 11
910.77000861916417
 21
712.5229710933661
  0
LINE
  8
_0-d_断熱__ハッチ
  6
CONTINUOUS
 62
    4
 10
904.05427986663085
 20
677.5229710933661
 11
939.05427986663085
 21
712.5229710933661
  0
LINE
  8
_0-d_断熱__ハッチ
  6
CONTINUOUS
 62
    4
 10
932.33855111408843
 20
677.52297109336382
 11
967.33855111408843
 21
712.5229710933661
  0
LINE
  8
_0-d_断熱__ハッチ
  6
CONTINUOUS
 62
    4
 10
960.62282236155511
 20
677.5229710933661
 11
995.62282236155511
 21
712.5229710933661
  0
LINE
  8
_0-d_断熱__ハッチ
  6
CONTINUOUS
 62
    4
 10
988.90709360901269
 20
677.52297109336382
 11
1023.9070936090127
 21
712.5229710933661
  0
LINE
  8
_0-d_断熱__ハッチ
  6
CONTINUOUS
 62
    4
 10
1102.0441785988635
 20
677.5229710933661
 11
1137.0441785988635
 21
712.5229710933661
  0
LINE
  8
_0-d_断熱__ハッチ
  6
CONTINUOUS
 62
    4
 10
1130.3284498463211
 20
677.5229710933661
 11
1165.3284498463211
 21
712.5229710933661
  0
LINE
  8
_0-d_断熱__ハッチ
  6
CONTINUOUS
 62
    4
 10
1158.6127210937877
 20
677.5229710933661
 11
1193.6127210937877
 21
712.5229710933661
  0
LINE
  8
_0-d_断熱__ハッチ
  6
CONTINUOUS
 62
    4
 10
1215.181263588712
 20
677.5229710933661
 11
1250.181263588712
 21
712.5229710933661
  0
LINE
  8
_0-d_断熱__ハッチ
  6
CONTINUOUS
 62
    4
 10
1243.4655348361696
 20
677.5229710933661
 11
1278.4655348361696
 21
712.5229710933661
  0
LINE
  8
_0-d_断熱__ハッチ
  6
CONTINUOUS
 62
    4
 10
1271.7498060836363
 20
677.5229710933661
 11
1306.7498060836363
 21
712.5229710933661
  0
LINE
  8
_0-d_断熱__ハッチ
  6
CONTINUOUS
 62
    4
 10
1356.6026198260158
 20
677.52297109336382
 11
1391.6026198260181
 21
712.5229710933661
  0
LINE
  8
_0-d_断熱__ハッチ
  6
CONTINUOUS
 62
    4
 10
1384.8868910734848
 20
677.5229710933661
 11
1419.8868910734848
 21
712.5229710933661
  0
LINE
  8
_0-d_断熱__ハッチ
  6
CONTINUOUS
 62
    4
 10
1413.1711623209401
 20
677.52297109336382
 11
1448.1711623209424
 21
712.5229710933661
  0
TEXT
  8
_0-a_文字
 62
    7
 10
801.27456121898808
 20
759.99623267557934
 40
14.999999999999503
 41
0.9999999999999934
 50
0
  1
断熱材
  0
LINE
  8
_0-d_断熱__ハッチ
  6
CONTINUOUS
 62
    4
 10
970.82355508117757
 20
712.5229710933661
 11
1005.8235550811776
 21
677.5229710933661
  0
LINE
  8
_0-d_断熱__ハッチ
  6
CONTINUOUS
 62
    4
 10
1055.6763688235685
 20
712.5229710933661
 11
1090.6763688235685
 21
677.5229710933661
  0
ARC
  8
_0-1_線色１__水色__
  6
CONTINUOUS
 62
    4
 10
1054.1649554675098
 20
714.06463774964436
 40
1.2083333333333179
 50
127.52351320610693
 51
52.47648680188081
  0
ARC
  8
_0-1_線色１__水色__
  6
CONTINUOUS
 62
    4
 10
1045.3331946014612
 20
714.06463774964436
 40
1.2083333333333179
 50
127.52351320610693
 51
52.47648680188081
  0
ARC
  8
_0-1_線色１__水色__
  6
CONTINUOUS
 62
    4
 10
1046.8051547456673
 20
715.98130441645139
 40
1.2083333333333581
 50
307.52351320333912
 51
232.47648680464988
  0
ARC
  8
_0-1_線色１__水色__
  6
CONTINUOUS
 62
    4
 10
1048.2771148901418
 20
714.06463774985127
 40
1.2083333333333179
 50
127.52351320610693
 51
52.47648680188081
  0
ARC
  8
_0-1_線色１__水色__
  6
CONTINUOUS
 62
    4
 10
1049.7490750343502
 20
715.98130441665603
 40
1.2083333333333581
 50
307.52351320333912
 51
232.47648680464988
  0
ARC
  8
_0-1_線色１__水色__
  6
CONTINUOUS
 62
    4
 10
1051.2210351788269
 20
714.06463775005591
 40
1.2083333333333179
 50
127.52351320610693
 51
52.47648680188081
  0
ARC
  8
_0-1_線色１__水色__
  6
CONTINUOUS
 62
    4
 10
1052.6929953230308
 20
715.98130441686067
 40
1.2083333333333581
 50
307.52351320333912
 51
232.47648680464988
  0
LINE
  8
_0-4_線色４__黄__
  6
CONTINUOUS
 62
    2
 10
974.99999999999886
 20
727.5229710933661
 11
997.49999999999886
 21
727.5229710933661
  0
LINE
  8
_0-2_線色２__白__
  6
CONTINUOUS
 62
    7
 10
1092.5000000000011
 20
727.5229710933661
 11
1007.4999999999989
 21
727.5229710933661
  0
LINE
  8
_0-2_線色２__白__
  6
CONTINUOUS
 62
    7
 10
1007.4999999999989
 20
727.5229710933661
 11
1007.4999999999989
 21
722.5229710933661
  0
LINE
  8
_0-2_線色２__白__
  6
CONTINUOUS
 62
    7
 10
1092.5000000000011
 20
722.5229710933661
 11
1092.5000000000011
 21
727.5229710933661
  0
LINE
  8
_0-2_線色２__白__
  6
CONTINUOUS
 62
    7
 10
1092.5000000000011
 20
727.5229710933661
 11
1101.1602540378442
 21
722.5229710933661
  0
LINE
  8
_0-2_線色２__白__
  6
CONTINUOUS
 62
    7
 10
1080.0000000000011
 20
729.4467820809848
 11
1084.1256259767022
 21
727.5229710933661
  0
LINE
  8
_0-2_線色２__白__
  6
CONTINUOUS
 62
    7
 10
1007.4999999999989
 20
727.5229710933661
 11
998.8397459621558
 21
722.5229710933661
  0
LINE
  8
_0-2_線色２__白__
  6
CONTINUOUS
 62
    7
 10
1019.9999999999989
 20
729.4467820809848
 11
1015.8743740232956
 21
727.5229710933661
  0
LINE
  8
_0-4_線色４__黄__
  6
CONTINUOUS
 62
    2
 10
1093.8397459621558
 20
732.5229710933661
 11
1102.5000000000011
 21
727.5229710933661
  0
LINE
  8
_0-4_線色４__黄__
  6
CONTINUOUS
 62
    2
 10
1093.8397459621558
 20
732.5229710933661
 11
1085.2340992899178
 21
732.5229710933661
  0
LINE
  8
_0-4_線色４__黄__
  6
CONTINUOUS
 62
    2
 10
1077.1084733132159
 20
736.3120127136051
 11
1085.2340992899178
 21
732.5229710933661
  0
LINE
  8
_0-4_線色４__黄__
  6
CONTINUOUS
 62
    2
 10
1077.1084733132159
 20
736.3120127136051
 11
1022.8915266867864
 21
736.3120127136051
  0
LINE
  8
_0-4_線色４__黄__
  6
CONTINUOUS
 62
    2
 10
1022.8915266867864
 20
736.3120127136051
 11
1014.7659007100845
 21
732.5229710933661
  0
LINE
  8
_0-4_線色４__黄__
  6
CONTINUOUS
 62
    2
 10
1014.7659007100845
 20
732.5229710933661
 11
1006.1602540378442
 21
732.5229710933661
  0
LINE
  8
_0-4_線色４__黄__
  6
CONTINUOUS
 62
    2
 10
1006.1602540378442
 20
732.5229710933661
 11
997.49999999999886
 21
727.5229710933661
  0
LINE
  8
_0-4_線色４__黄__
  6
CONTINUOUS
 62
    2
 10
1102.5000000000011
 20
727.5229710933661
 11
1125.0000000000011
 21
727.5229710933661
  0
LINE
  8
_0-2_線色２__白__
  6
CONTINUOUS
 62
    7
 10
980.99713206693082
 20
727.5229710933661
 11
980.97891327941056
 21
727.65387604004559
  0
LINE
  8
_0-2_線色２__白__
  6
CONTINUOUS
 62
    7
 10
980.97891327941056
 20
727.65387604004559
 11
980.9458464997499
 21
727.87894997506669
  0
LINE
  8
_0-2_線色２__白__
  6
CONTINUOUS
 62
    7
 10
980.9458464997499
 20
727.87894997506669
 11
980.9081822838823
 21
728.10228988532458
  0
LINE
  8
_0-2_線色２__白__
  6
CONTINUOUS
 62
    7
 10
980.9081822838823
 20
728.10228988532458
 11
980.86301086205708
 21
728.32279828679361
  0
LINE
  8
_0-2_線色２__白__
  6
CONTINUOUS
 62
    7
 10
980.86301086205708
 20
728.32279828679361
 11
980.80742246452814
 21
728.53937769545269
  0
LINE
  8
_0-2_線色２__白__
  6
CONTINUOUS
 62
    7
 10
980.80742246452814
 20
728.53937769545269
 11
980.73850732153801
 21
728.7509306272716
  0
LINE
  8
_0-2_線色２__白__
  6
CONTINUOUS
 62
    7
 10
980.73850732153801
 20
728.7509306272716
 11
980.69128362324477
 21
728.87089573026401
  0
LINE
  8
_0-2_線色２__白__
  6
CONTINUOUS
 62
    7
 10
980.69128362324477
 20
728.87089573026401
 11
980.65034256198373
 21
728.96301256985566
  0
LINE
  8
_0-2_線色２__白__
  6
CONTINUOUS
 62
    7
 10
980.65034256198373
 20
728.96301256985566
 11
980.57192738929984
 21
729.11872687286746
  0
LINE
  8
_0-2_線色２__白__
  6
CONTINUOUS
 62
    7
 10
980.57192738929984
 20
729.11872687286746
 11
980.48482037497593
 21
729.27073047574936
  0
LINE
  8
_0-2_線色２__白__
  6
CONTINUOUS
 62
    7
 10
980.48482037497593
 20
729.27073047574936
 11
980.39043538582405
 21
729.41928299154938
  0
LINE
  8
_0-2_線色２__白__
  6
CONTINUOUS
 62
    7
 10
980.39043538582405
 20
729.41928299154938
 11
980.29018628868357
 21
729.56464403332006
  0
LINE
  8
_0-2_線色２__白__
  6
CONTINUOUS
 62
    7
 10
980.29018628868357
 20
729.56464403332006
 11
980.18548695036657
 21
729.70707321411624
  0
LINE
  8
_0-2_線色２__白__
  6
CONTINUOUS
 62
    7
 10
980.18548695036657
 20
729.70707321411624
 11
980.1232793706879
 21
729.78844106132215
  0
LINE
  8
_0-2_線色２__白__
  6
CONTINUOUS
 62
    7
 10
980.1232793706879
 20
729.78844106132215
 11
980.04906309675221
 21
729.88312465412378
  0
LINE
  8
_0-2_線色２__白__
  6
CONTINUOUS
 62
    7
 10
980.04906309675221
 20
729.88312465412378
 11
979.91883815664437
 21
730.04384344798495
  0
LINE
  8
_0-2_線色２__白__
  6
CONTINUOUS
 62
    7
 10
979.91883815664437
 20
730.04384344798495
 11
979.78598633742763
 21
730.20171021037527
  0
LINE
  8
_0-2_線色２__白__
  6
CONTINUOUS
 62
    7
 10
979.78598633742763
 20
730.20171021037527
 11
979.65078819929545
 21
730.35713070384304
  0
LINE
  8
_0-2_線色２__白__
  6
CONTINUOUS
 62
    7
 10
979.65078819929545
 20
730.35713070384304
 11
979.51352430247312
 21
730.51051069092978
  0
LINE
  8
_0-2_線色２__白__
  6
CONTINUOUS
 62
    7
 10
979.51352430247312
 20
730.51051069092978
 11
979.37447520716773
 21
730.66225593418608
  0
LINE
  8
_0-2_線色２__白__
  6
CONTINUOUS
 62
    7
 10
979.37447520716773
 20
730.66225593418608
 11
979.29311930925337
 21
730.74967902719095
  0
LINE
  8
_0-2_線色２__白__
  6
CONTINUOUS
 62
    7
 10
979.29311930925337
 20
730.74967902719095
 11
979.20748423583859
 21
730.84074920158969
  0
LINE
  8
_0-2_線色２__白__
  6
CONTINUOUS
 62
    7
 10
979.20748423583859
 20
730.84074920158969
 11
979.05828687753342
 21
730.9964509504232
  0
LINE
  8
_0-2_線色２__白__
  6
CONTINUOUS
 62
    7
 10
979.05828687753342
 20
730.9964509504232
 11
978.90653666396133
 21
731.1497969288223
  0
LINE
  8
_0-2_線色２__白__
  6
CONTINUOUS
 62
    7
 10
978.90653666396133
 20
731.1497969288223
 11
978.75154758446001
 21
731.29998456774388
  0
LINE
  8
_0-2_線色２__白__
  6
CONTINUOUS
 62
    7
 10
978.75154758446001
 20
731.29998456774388
 11
978.5926336283535
 21
731.44621129814027
  0
LINE
  8
_0-2_線色２__白__
  6
CONTINUOUS
 62
    7
 10
978.5926336283535
 20
731.44621129814027
 11
978.42910878497037
 21
731.58767455096836
  0
LINE
  8
_0-2_線色２__白__
  6
CONTINUOUS
 62
    7
 10
978.42910878497037
 20
731.58767455096836
 11
978.33188134338229
 21
731.66722435824909
  0
LINE
  8
_0-2_線色２__白__
  6
CONTINUOUS
 62
    7
 10
978.33188134338229
 20
731.66722435824909
 11
978.24422764384167
 21
731.73594971074522
  0
LINE
  8
_0-2_線色２__白__
  6
CONTINUOUS
 62
    7
 10
978.24422764384167
 20
731.73594971074522
 11
978.08961454392261
 21
731.85016247854605
  0
LINE
  8
_0-2_線色２__白__
  6
CONTINUOUS
 62
    7
 10
978.08961454392261
 20
731.85016247854605
 11
977.93064940073123
 21
731.95813516747762
  0
LINE
  8
_0-2_線色２__白__
  6
CONTINUOUS
 62
    7
 10
977.93064940073123
 20
731.95813516747762
 11
977.76740274350573
 21
732.05891039890389
  0
LINE
  8
_0-2_線色２__白__
  6
CONTINUOUS
 62
    7
 10
977.76740274350573
 20
732.05891039890389
 11
977.59994510147294
 21
732.15153079418883
  0
LINE
  8
_0-2_線色２__白__
  6
CONTINUOUS
 62
    7
 10
977.59994510147294
 20
732.15153079418883
 11
977.42834700386879
 21
732.23503897470096
  0
LINE
  8
_0-2_線色２__白__
  6
CONTINUOUS
 62
    7
 10
977.42834700386879
 20
732.23503897470096
 11
977.32695074270282
 21
732.27892124562118
  0
LINE
  8
_0-2_線色２__白__
  6
CONTINUOUS
 62
    7
 10
977.32695074270282
 20
732.27892124562118
 11
977.21304524996299
 21
732.32344995888411
  0
LINE
  8
_0-2_線色２__白__
  6
CONTINUOUS
 62
    7
 10
977.21304524996299
 20
732.32344995888411
 11
977.01315679210779
 21
732.39076058729893
  0
LINE
  8
_0-2_線色２__白__
  6
CONTINUOUS
 62
    7
 10
977.01315679210779
 20
732.39076058729893
 11
976.80945469324683
 21
732.4473641387965
  0
LINE
  8
_0-2_線色２__白__
  6
CONTINUOUS
 62
    7
 10
976.80945469324683
 20
732.4473641387965
 11
976.60265561644223
 21
732.49473901252827
  0
LINE
  8
_0-2_線色２__白__
  6
CONTINUOUS
 62
    7
 10
976.60265561644223
 20
732.49473901252827
 11
976.39347622473338
 21
732.53436360763658
  0
LINE
  8
_0-2_線色２__白__
  6
CONTINUOUS
 62
    7
 10
976.39347622473338
 20
732.53436360763658
 11
976.18263318117556
 21
732.56771632327286
  0
LINE
  8
_0-2_線色２__白__
  6
CONTINUOUS
 62
    7
 10
976.18263318117556
 20
732.56771632327286
 11
976.0598643331457
 21
732.58476968930722
  0
LINE
  8
_0-2_線色２__白__
  6
CONTINUOUS
 62
    7
 10
976.0598643331457
 20
732.58476968930722
 11
975.91140736306329
 21
732.60348668857318
  0
LINE
  8
_0-2_線色２__白__
  6
CONTINUOUS
 62
    7
 10
975.91140736306329
 20
732.60348668857318
 11
975.65508709777873
 21
732.63039344966387
  0
LINE
  8
_0-2_線色２__白__
  6
CONTINUOUS
 62
    7
 10
975.65508709777873
 20
732.63039344966387
 11
975.39869176919524
 21
732.64925169696312
  0
LINE
  8
_0-2_線色２__白__
  6
CONTINUOUS
 62
    7
 10
975.39869176919524
 20
732.64925169696312
 11
975.14266393256435
 21
732.65859778814843
  0
LINE
  8
_0-2_線色２__白__
  6
CONTINUOUS
 62
    7
 10
975.14266393256435
 20
732.65859778814843
 11
974.88744614313305
 21
732.65696808090183
  0
LINE
  8
_0-2_線色２__白__
  6
CONTINUOUS
 62
    7
 10
974.88744614313305
 20
732.65696808090183
 11
974.63348095614151
 21
732.64289893289856
  0
LINE
  8
_0-2_線色２__白__
  6
CONTINUOUS
 62
    7
 10
974.63348095614151
 20
732.64289893289856
 11
974.4869294799048
 21
732.62846232412016
  0
LINE
  8
_0-2_線色２__白__
  6
CONTINUOUS
 62
    7
 10
974.4869294799048
 20
732.62846232412016
 11
974.37958528833747
 21
732.61477253803264
  0
LINE
  8
_0-2_線色２__白__
  6
CONTINUOUS
 62
    7
 10
974.37958528833747
 20
732.61477253803264
 11
974.19513522756802
 21
732.58581290679217
  0
LINE
  8
_0-2_線色２__白__
  6
CONTINUOUS
 62
    7
 10
974.19513522756802
 20
732.58581290679217
 11
974.01116437012774
 21
732.55149742525532
  0
LINE
  8
_0-2_線色２__白__
  6
CONTINUOUS
 62
    7
 10
974.01116437012774
 20
732.55149742525532
 11
973.8273083342699
 21
732.51348259922793
  0
LINE
  8
_0-2_線色２__白__
  6
CONTINUOUS
 62
    7
 10
973.8273083342699
 20
732.51348259922793
 11
973.64320273824774
 21
732.47342493452038
  0
LINE
  8
_0-2_線色２__白__
  6
CONTINUOUS
 62
    7
 10
973.64320273824774
 20
732.47342493452038
 11
973.45848320031905
 21
732.43298093694534
  0
LINE
  8
_0-2_線色２__白__
  6
CONTINUOUS
 62
    7
 10
973.45848320031905
 20
732.43298093694534
 11
973.3509209747865
 21
732.40999915005773
  0
LINE
  8
_0-2_線色２__白__
  6
CONTINUOUS
 62
    7
 10
973.3509209747865
 20
732.40999915005773
 11
973.22880974345821
 21
732.38472542855902
  0
LINE
  8
_0-2_線色２__白__
  6
CONTINUOUS
 62
    7
 10
973.22880974345821
 20
732.38472542855902
 11
973.01801171989496
 21
732.34137591232525
  0
LINE
  8
_0-2_線色２__白__
  6
CONTINUOUS
 62
    7
 10
973.01801171989496
 20
732.34137591232525
 11
972.80830649605718
 21
732.29524275417475
  0
LINE
  8
_0-2_線色２__白__
  6
CONTINUOUS
 62
    7
 10
972.80830649605718
 20
732.29524275417475
 11
972.60134954678847
 21
732.24275671247256
  0
LINE
  8
_0-2_線色２__白__
  6
CONTINUOUS
 62
    7
 10
972.60134954678847
 20
732.24275671247256
 11
972.39879634693239
 21
732.18034854557459
  0
LINE
  8
_0-2_線色２__白__
  6
CONTINUOUS
 62
    7
 10
972.39879634693239
 20
732.18034854557459
 11
972.20230237133251
 21
732.10444901183905
  0
LINE
  8
_0-2_線色２__白__
  6
CONTINUOUS
 62
    7
 10
972.20230237133251
 20
732.10444901183905
 11
972.09176454521071
 21
732.05283907118314
  0
LINE
  8
_0-2_線色２__白__
  6
CONTINUOUS
 62
    7
 10
972.09176454521071
 20
732.05283907118314
 11
971.99244231403441
 21
731.99975359926043
  0
LINE
  8
_0-2_線色２__白__
  6
CONTINUOUS
 62
    7
 10
971.99244231403441
 20
731.99975359926043
 11
971.82701839884317
 21
731.89646731815969
  0
LINE
  8
_0-2_線色２__白__
  6
CONTINUOUS
 62
    7
 10
971.82701839884317
 20
731.89646731815969
 11
971.66896682748188
 21
731.77991768642983
  0
LINE
  8
_0-2_線色２__白__
  6
CONTINUOUS
 62
    7
 10
971.66896682748188
 20
731.77991768642983
 11
971.51829178106595
 21
731.65199101311487
  0
LINE
  8
_0-2_線色２__白__
  6
CONTINUOUS
 62
    7
 10
971.51829178106595
 20
731.65199101311487
 11
971.37499744070169
 21
731.51457360726795
  0
LINE
  8
_0-2_線色２__白__
  6
CONTINUOUS
 62
    7
 10
971.37499744070169
 20
731.51457360726795
 11
971.2390879874954
 21
731.36955177793766
  0
LINE
  8
_0-2_線色２__白__
  6
CONTINUOUS
 62
    7
 10
971.2390879874954
 20
731.36955177793766
 11
971.16364590751232
 21
731.28269807394076
  0
LINE
  8
_0-2_線色２__白__
  6
CONTINUOUS
 62
    7
 10
971.16364590751232
 20
731.28269807394076
 11
971.07935088314093
 21
731.18013068594905
  0
LINE
  8
_0-2_線色２__白__
  6
CONTINUOUS
 62
    7
 10
971.07935088314093
 20
731.18013068594905
 11
970.94117902387211
 21
730.99884567621189
  0
LINE
  8
_0-2_線色２__白__
  6
CONTINUOUS
 62
    7
 10
970.94117902387211
 20
730.99884567621189
 11
970.8110687568535
 21
730.81262100159279
  0
LINE
  8
_0-2_線色２__白__
  6
CONTINUOUS
 62
    7
 10
970.8110687568535
 20
730.81262100159279
 11
970.68784885486707
 21
730.62225494050267
  0
LINE
  8
_0-2_線色２__白__
  6
CONTINUOUS
 62
    7
 10
970.68784885486707
 20
730.62225494050267
 11
970.57034809069478
 21
730.42854577135927
  0
LINE
  8
_0-2_線色２__白__
  6
CONTINUOUS
 62
    7
 10
970.57034809069478
 20
730.42854577135927
 11
970.45739523712541
 21
730.23229177257804
  0
LINE
  8
_0-2_線色２__白__
  6
CONTINUOUS
 62
    7
 10
970.45739523712541
 20
730.23229177257804
 11
970.39350491026767
 21
730.11761297554699
  0
LINE
  8
_0-2_線色２__白__
  6
CONTINUOUS
 62
    7
 10
970.39350491026767
 20
730.11761297554699
 11
970.32623754276187
 21
729.99454638341263
  0
LINE
  8
_0-2_線色２__白__
  6
CONTINUOUS
 62
    7
 10
970.32623754276187
 20
729.99454638341263
 11
970.21225630155527
 21
729.78133962704419
  0
LINE
  8
_0-2_線色２__白__
  6
CONTINUOUS
 62
    7
 10
970.21225630155527
 20
729.78133962704419
 11
970.10014175319043
 21
729.56704262750804
  0
LINE
  8
_0-2_線色２__白__
  6
CONTINUOUS
 62
    7
 10
970.10014175319043
 20
729.56704262750804
 11
969.98912514394192
 21
729.35189336643248
  0
LINE
  8
_0-2_線色２__白__
  6
CONTINUOUS
 62
    7
 10
969.98912514394192
 20
729.35189336643248
 11
969.87843772008432
 21
729.1361298254526
  0
LINE
  8
_0-2_線色２__白__
  6
CONTINUOUS
 62
    7
 10
969.87843772008432
 20
729.1361298254526
 11
969.76731072788766
 21
728.9199899861967
  0
LINE
  8
_0-2_線色２__白__
  6
CONTINUOUS
 62
    7
 10
969.76731072788766
 20
728.9199899861967
 11
969.70235273325557
 21
728.79455023669493
  0
LINE
  8
_0-2_線色２__白__
  6
CONTINUOUS
 62
    7
 10
969.70235273325557
 20
728.79455023669493
 11
969.61393927907807
 21
728.62572205368792
  0
LINE
  8
_0-2_線色２__白__
  6
CONTINUOUS
 62
    7
 10
969.61393927907807
 20
728.62572205368792
 11
969.45743446315078
 21
728.33632628780265
  0
LINE
  8
_0-2_線色２__白__
  6
CONTINUOUS
 62
    7
 10
969.45743446315078
 20
728.33632628780265
 11
969.29321286992376
 21
728.05161811155017
  0
LINE
  8
_0-2_線色２__白__
  6
CONTINUOUS
 62
    7
 10
969.29321286992376
 20
728.05161811155017
 11
969.11828888253581
 21
727.77456468353307
  0
LINE
  8
_0-2_線色２__白__
  6
CONTINUOUS
 62
    7
 10
969.11828888253581
 20
727.77456468353307
 11
968.92967688413478
 21
727.50813316234485
  0
LINE
  8
_0-2_線色２__白__
  6
CONTINUOUS
 62
    7
 10
968.92967688413478
 20
727.50813316234485
 11
968.72439125786173
 21
727.25529070658808
  0
LINE
  8
_0-2_線色２__白__
  6
CONTINUOUS
 62
    7
 10
968.72439125786173
 20
727.25529070658808
 11
968.59650925003621
 21
727.11603780680775
  0
LINE
  8
_0-2_線色２__白__
  6
CONTINUOUS
 62
    7
 10
968.59650925003621
 20
727.11603780680775
 11
968.55029407773031
 21
727.0689328008973
  0
LINE
  8
_0-2_線色２__白__
  6
CONTINUOUS
 62
    7
 10
968.55029407773031
 20
727.0689328008973
 11
968.46859481619163
 21
726.98958770586273
  0
LINE
  8
_0-2_線色２__白__
  6
CONTINUOUS
 62
    7
 10
968.46859481619163
 20
726.98958770586273
 11
968.38439242385789
 21
726.91278759642159
  0
LINE
  8
_0-2_線色２__白__
  6
CONTINUOUS
 62
    7
 10
968.38439242385789
 20
726.91278759642159
 11
968.29774644836448
 21
726.83873869309423
  0
LINE
  8
_0-2_線色２__白__
  6
CONTINUOUS
 62
    7
 10
968.29774644836448
 20
726.83873869309423
 11
968.20871643732858
 21
726.76764721640552
  0
LINE
  8
_0-2_線色２__白__
  6
CONTINUOUS
 62
    7
 10
968.20871643732858
 20
726.76764721640552
 11
968.11736193837874
 21
726.69971938687581
  0
LINE
  8
_0-2_線色２__白__
  6
CONTINUOUS
 62
    7
 10
968.11736193837874
 20
726.69971938687581
 11
968.06333471348239
 21
726.66185209048422
  0
LINE
  8
_0-2_線色２__白__
  6
CONTINUOUS
 62
    7
 10
968.06333471348239
 20
726.66185209048422
 11
967.97373330239566
 21
726.60255940010643
  0
LINE
  8
_0-2_線色２__白__
  6
CONTINUOUS
 62
    7
 10
967.97373330239566
 20
726.60255940010643
 11
967.81554185822529
 21
726.50614613591301
  0
LINE
  8
_0-2_線色２__白__
  6
CONTINUOUS
 62
    7
 10
967.81554185822529
 20
726.50614613591301
 11
967.65413057118963
 21
726.41481772684187
  0
LINE
  8
_0-2_線色２__白__
  6
CONTINUOUS
 62
    7
 10
967.65413057118963
 20
726.41481772684187
 11
967.49121062289873
 21
726.32592701839144
  0
LINE
  8
_0-2_線色２__白__
  6
CONTINUOUS
 62
    7
 10
967.49121062289873
 20
726.32592701839144
 11
967.32849319494449
 21
726.23682685605559
  0
LINE
  8
_0-2_線色２__白__
  6
CONTINUOUS
 62
    7
 10
967.32849319494449
 20
726.23682685605559
 11
967.16768946893239
 21
726.14487008532819
  0
LINE
  8
_0-2_線色２__白__
  6
CONTINUOUS
 62
    7
 10
967.16768946893239
 20
726.14487008532819
 11
967.07597446060731
 21
726.0891831438164
  0
LINE
  8
_0-2_線色２__白__
  6
CONTINUOUS
 62
    7
 10
967.07597446060731
 20
726.0891831438164
 11
966.98356346821015
 21
726.02981837394623
  0
LINE
  8
_0-2_線色２__白__
  6
CONTINUOUS
 62
    7
 10
966.98356346821015
 20
726.02981837394623
 11
966.8276204660549
 21
725.92231661217852
  0
LINE
  8
_0-2_線色２__白__
  6
CONTINUOUS
 62
    7
 10
966.8276204660549
 20
725.92231661217852
 11
966.67529792383334
 21
725.80933342220874
  0
LINE
  8
_0-2_線色２__白__
  6
CONTINUOUS
 62
    7
 10
966.67529792383334
 20
725.80933342220874
 11
966.52582143509676
 21
725.69207336981322
  0
LINE
  8
_0-2_線色２__白__
  6
CONTINUOUS
 62
    7
 10
966.52582143509676
 20
725.69207336981322
 11
966.37841659340552
 21
725.57174102076601
  0
LINE
  8
_0-2_線色２__白__
  6
CONTINUOUS
 62
    7
 10
966.37841659340552
 20
725.57174102076601
 11
966.23230899230862
 21
725.44954094084119
  0
LINE
  8
_0-2_線色２__白__
  6
CONTINUOUS
 62
    7
 10
966.23230899230862
 20
725.44954094084119
 11
966.14785582290665
 21
725.37828376174843
  0
LINE
  8
_0-2_線色２__白__
  6
CONTINUOUS
 62
    7
 10
966.14785582290665
 20
725.37828376174843
 11
966.04201395928499
 21
725.28880317784683
  0
LINE
  8
_0-2_線色２__白__
  6
CONTINUOUS
 62
    7
 10
966.04201395928499
 20
725.28880317784683
 11
965.86044118097448
 21
725.13372012405284
  0
LINE
  8
_0-2_線色２__白__
  6
CONTINUOUS
 62
    7
 10
965.86044118097448
 20
725.13372012405284
 11
965.68126652835304
 21
724.97633095581136
  0
LINE
  8
_0-2_線色２__白__
  6
CONTINUOUS
 62
    7
 10
965.68126652835304
 20
724.97633095581136
 11
965.50593440212538
 21
724.81514075788368
  0
LINE
  8
_0-2_線色２__白__
  6
CONTINUOUS
 62
    7
 10
965.50593440212538
 20
724.81514075788368
 11
965.33588920301895
 21
724.64865461503564
  0
LINE
  8
_0-2_線色２__白__
  6
CONTINUOUS
 62
    7
 10
965.33588920301895
 20
724.64865461503564
 11
965.17257533174075
 21
724.47537761202625
  0
LINE
  8
_0-2_線色２__白__
  6
CONTINUOUS
 62
    7
 10
965.17257533174075
 20
724.47537761202625
 11
965.08150674980129
 21
724.37117630381522
  0
LINE
  8
_0-2_線色２__白__
  6
CONTINUOUS
 62
    7
 10
965.08150674980129
 20
724.37117630381522
 11
965.02984747716141
 21
724.30908902829174
  0
LINE
  8
_0-2_線色２__白__
  6
CONTINUOUS
 62
    7
 10
965.02984747716141
 20
724.30908902829174
 11
964.94352236685586
 21
724.19961628845499
  0
LINE
  8
_0-2_線色２__白__
  6
CONTINUOUS
 62
    7
 10
964.94352236685586
 20
724.19961628845499
 11
964.86116249472502
 21
724.08711503069412
  0
LINE
  8
_0-2_線色２__白__
  6
CONTINUOUS
 62
    7
 10
964.86116249472502
 20
724.08711503069412
 11
964.78334180398065
 21
723.97163409798281
  0
LINE
  8
_0-2_線色２__白__
  6
CONTINUOUS
 62
    7
 10
964.78334180398065
 20
723.97163409798281
 11
964.71063423783448
 21
723.8532223332902
  0
LINE
  8
_0-2_線色２__白__
  6
CONTINUOUS
 62
    7
 10
964.71063423783448
 20
723.8532223332902
 11
964.64361373950737
 21
723.7319285795877
  0
LINE
  8
_0-2_線色２__白__
  6
CONTINUOUS
 62
    7
 10
964.64361373950737
 20
723.7319285795877
 11
964.60757382841962
 21
723.66027692174498
  0
LINE
  8
_0-2_線色２__白__
  6
CONTINUOUS
 62
    7
 10
964.60757382841962
 20
723.66027692174498
 11
964.56092197506109
 21
723.5588010306958
  0
LINE
  8
_0-2_線色２__白__
  6
CONTINUOUS
 62
    7
 10
964.56092197506109
 20
723.5588010306958
 11
964.48943521670913
 21
723.38003665164365
  0
LINE
  8
_0-2_線色２__白__
  6
CONTINUOUS
 62
    7
 10
964.48943521670913
 20
723.38003665164365
 11
964.4274838780882
 21
723.19721623349437
  0
LINE
  8
_0-2_線色２__白__
  6
CONTINUOUS
 62
    7
 10
964.4274838780882
 20
723.19721623349437
 11
964.37298598982011
 21
723.01122537430615
  0
LINE
  8
_0-2_線色２__白__
  6
CONTINUOUS
 62
    7
 10
964.37298598982011
 20
723.01122537430615
 11
964.32385958253349
 21
722.82294967213033
  0
LINE
  8
_0-2_線色２__白__
  6
CONTINUOUS
 62
    7
 10
964.32385958253349
 20
722.82294967213033
 11
964.27802268685468
 21
722.63327472502738
  0
LINE
  8
_0-2_線色２__白__
  6
CONTINUOUS
 62
    7
 10
964.27802268685468
 20
722.63327472502738
 11
964.25212413738222
 21
722.5229710933661
  0
LINE
  8
_0-2_線色２__白__
  6
CONTINUOUS
 62
    7
 10
1119.0028679330669
 20
727.5229710933661
 11
1119.0210867205917
 21
727.65387604004559
  0
LINE
  8
_0-2_線色２__白__
  6
CONTINUOUS
 62
    7
 10
1119.0210867205917
 20
727.65387604004559
 11
1119.0541535002524
 21
727.87894997506669
  0
LINE
  8
_0-2_線色２__白__
  6
CONTINUOUS
 62
    7
 10
1119.0541535002524
 20
727.87894997506669
 11
1119.0918177161177
 21
728.10228988532458
  0
LINE
  8
_0-2_線色２__白__
  6
CONTINUOUS
 62
    7
 10
1119.0918177161177
 20
728.10228988532458
 11
1119.1369891379406
 21
728.32279828679361
  0
LINE
  8
_0-2_線色２__白__
  6
CONTINUOUS
 62
    7
 10
1119.1369891379406
 20
728.32279828679361
 11
1119.1925775354719
 21
728.53937769545269
  0
LINE
  8
_0-2_線色２__白__
  6
CONTINUOUS
 62
    7
 10
1119.1925775354719
 20
728.53937769545269
 11
1119.261492678462
 21
728.7509306272716
  0
LINE
  8
_0-2_線色２__白__
  6
CONTINUOUS
 62
    7
 10
1119.261492678462
 20
728.7509306272716
 11
1119.308716376753
 21
728.87089573026401
  0
LINE
  8
_0-2_線色２__白__
  6
CONTINUOUS
 62
    7
 10
1119.308716376753
 20
728.87089573026401
 11
1119.3496574380163
 21
728.96301256985566
  0
LINE
  8
_0-2_線色２__白__
  6
CONTINUOUS
 62
    7
 10
1119.3496574380163
 20
728.96301256985566
 11
1119.4280726106979
 21
729.11872687286746
  0
LINE
  8
_0-2_線色２__白__
  6
CONTINUOUS
 62
    7
 10
1119.4280726106979
 20
729.11872687286746
 11
1119.5151796250263
 21
729.27073047574936
  0
LINE
  8
_0-2_線色２__白__
  6
CONTINUOUS
 62
    7
 10
1119.5151796250263
 20
729.27073047574936
 11
1119.6095646141737
 21
729.41928299154938
  0
LINE
  8
_0-2_線色２__白__
  6
CONTINUOUS
 62
    7
 10
1119.6095646141737
 20
729.41928299154938
 11
1119.7098137113187
 21
729.56464403332006
  0
LINE
  8
_0-2_線色２__白__
  6
CONTINUOUS
 62
    7
 10
1119.7098137113187
 20
729.56464403332006
 11
1119.8145130496357
 21
729.70707321411624
  0
LINE
  8
_0-2_線色２__白__
  6
CONTINUOUS
 62
    7
 10
1119.8145130496357
 20
729.70707321411624
 11
1119.8767206293144
 21
729.78844106132215
  0
LINE
  8
_0-2_線色２__白__
  6
CONTINUOUS
 62
    7
 10
1119.8767206293144
 20
729.78844106132215
 11
1119.9509369032501
 21
729.88312465412378
  0
LINE
  8
_0-2_線色２__白__
  6
CONTINUOUS
 62
    7
 10
1119.9509369032501
 20
729.88312465412378
 11
1120.0811618433534
 21
730.04384344798495
  0
LINE
  8
_0-2_線色２__白__
  6
CONTINUOUS
 62
    7
 10
1120.0811618433534
 20
730.04384344798495
 11
1120.2140136625746
 21
730.20171021037527
  0
LINE
  8
_0-2_線色２__白__
  6
CONTINUOUS
 62
    7
 10
1120.2140136625746
 20
730.20171021037527
 11
1120.3492118007023
 21
730.35713070384304
  0
LINE
  8
_0-2_線色２__白__
  6
CONTINUOUS
 62
    7
 10
1120.3492118007023
 20
730.35713070384304
 11
1120.4864756975246
 21
730.51051069092978
  0
LINE
  8
_0-2_線色２__白__
  6
CONTINUOUS
 62
    7
 10
1120.4864756975246
 20
730.51051069092978
 11
1120.6255247928345
 21
730.66225593418608
  0
LINE
  8
_0-2_線色２__白__
  6
CONTINUOUS
 62
    7
 10
1120.6255247928345
 20
730.66225593418608
 11
1120.7068806907466
 21
730.74967902719095
  0
LINE
  8
_0-2_線色２__白__
  6
CONTINUOUS
 62
    7
 10
1120.7068806907466
 20
730.74967902719095
 11
1120.7925157641614
 21
730.84074920158969
  0
LINE
  8
_0-2_線色２__白__
  6
CONTINUOUS
 62
    7
 10
1120.7925157641614
 20
730.84074920158969
 11
1120.9417131224689
 21
730.9964509504232
  0
LINE
  8
_0-2_線色２__白__
  6
CONTINUOUS
 62
    7
 10
1120.9417131224689
 20
730.9964509504232
 11
1121.0934633360387
 21
731.1497969288223
  0
LINE
  8
_0-2_線色２__白__
  6
CONTINUOUS
 62
    7
 10
1121.0934633360387
 20
731.1497969288223
 11
1121.2484524155423
 21
731.29998456774388
  0
LINE
  8
_0-2_線色２__白__
  6
CONTINUOUS
 62
    7
 10
1121.2484524155423
 20
731.29998456774388
 11
1121.4073663716488
 21
731.44621129814027
  0
LINE
  8
_0-2_線色２__白__
  6
CONTINUOUS
 62
    7
 10
1121.4073663716488
 20
731.44621129814027
 11
1121.5708912150296
 21
731.58767455096836
  0
LINE
  8
_0-2_線色２__白__
  6
CONTINUOUS
 62
    7
 10
1121.5708912150296
 20
731.58767455096836
 11
1121.6681186566154
 21
731.66722435824909
  0
LINE
  8
_0-2_線色２__白__
  6
CONTINUOUS
 62
    7
 10
1121.6681186566154
 20
731.66722435824909
 11
1121.7557723561583
 21
731.73594971074522
  0
LINE
  8
_0-2_線色２__白__
  6
CONTINUOUS
 62
    7
 10
1121.7557723561583
 20
731.73594971074522
 11
1121.9103854560797
 21
731.85016247854605
  0
LINE
  8
_0-2_線色２__白__
  6
CONTINUOUS
 62
    7
 10
1121.9103854560797
 20
731.85016247854605
 11
1122.0693505992688
 21
731.95813516747762
  0
LINE
  8
_0-2_線色２__白__
  6
CONTINUOUS
 62
    7
 10
1122.0693505992688
 20
731.95813516747762
 11
1122.2325972564943
 21
732.05891039890389
  0
LINE
  8
_0-2_線色２__白__
  6
CONTINUOUS
 62
    7
 10
1122.2325972564943
 20
732.05891039890389
 11
1122.4000548985271
 21
732.15153079418883
  0
LINE
  8
_0-2_線色２__白__
  6
CONTINUOUS
 62
    7
 10
1122.4000548985271
 20
732.15153079418883
 11
1122.5716529961289
 21
732.23503897470096
  0
LINE
  8
_0-2_線色２__白__
  6
CONTINUOUS
 62
    7
 10
1122.5716529961289
 20
732.23503897470096
 11
1122.6730492572995
 21
732.27892124562118
  0
LINE
  8
_0-2_線色２__白__
  6
CONTINUOUS
 62
    7
 10
1122.6730492572995
 20
732.27892124562118
 11
1122.786954750037
 21
732.32344995888411
  0
LINE
  8
_0-2_線色２__白__
  6
CONTINUOUS
 62
    7
 10
1122.786954750037
 20
732.32344995888411
 11
1122.9868432078922
 21
732.39076058729893
  0
LINE
  8
_0-2_線色２__白__
  6
CONTINUOUS
 62
    7
 10
1122.9868432078922
 20
732.39076058729893
 11
1123.1905453067509
 21
732.4473641387965
  0
LINE
  8
_0-2_線色２__白__
  6
CONTINUOUS
 62
    7
 10
1123.1905453067509
 20
732.4473641387965
 11
1123.39734438356
 21
732.49473901252827
  0
LINE
  8
_0-2_線色２__白__
  6
CONTINUOUS
 62
    7
 10
1123.39734438356
 20
732.49473901252827
 11
1123.6065237752689
 21
732.53436360763658
  0
LINE
  8
_0-2_線色２__白__
  6
CONTINUOUS
 62
    7
 10
1123.6065237752689
 20
732.53436360763658
 11
1123.8173668188244
 21
732.56771632327286
  0
LINE
  8
_0-2_線色２__白__
  6
CONTINUOUS
 62
    7
 10
1123.8173668188244
 20
732.56771632327286
 11
1123.9401356668543
 21
732.58476968930722
  0
LINE
  8
_0-2_線色２__白__
  6
CONTINUOUS
 62
    7
 10
1123.9401356668543
 20
732.58476968930722
 11
1124.0885926369367
 21
732.60348668857318
  0
LINE
  8
_0-2_線色２__白__
  6
CONTINUOUS
 62
    7
 10
1124.0885926369367
 20
732.60348668857318
 11
1124.3449129022213
 21
732.63039344966387
  0
LINE
  8
_0-2_線色２__白__
  6
CONTINUOUS
 62
    7
 10
1124.3449129022213
 20
732.63039344966387
 11
1124.6013082308025
 21
732.64925169696312
  0
LINE
  8
_0-2_線色２__白__
  6
CONTINUOUS
 62
    7
 10
1124.6013082308025
 20
732.64925169696312
 11
1124.8573360674334
 21
732.65859778814843
  0
LINE
  8
_0-2_線色２__白__
  6
CONTINUOUS
 62
    7
 10
1124.8573360674334
 20
732.65859778814843
 11
1125.1125538568692
 21
732.65696808090183
  0
LINE
  8
_0-2_線色２__白__
  6
CONTINUOUS
 62
    7
 10
1125.1125538568692
 20
732.65696808090183
 11
1125.3665190438608
 21
732.64289893289856
  0
LINE
  8
_0-2_線色２__白__
  6
CONTINUOUS
 62
    7
 10
1125.3665190438608
 20
732.64289893289856
 11
1125.5130705200952
 21
732.62846232412016
  0
LINE
  8
_0-2_線色２__白__
  6
CONTINUOUS
 62
    7
 10
1125.5130705200952
 20
732.62846232412016
 11
1125.6204147116625
 21
732.61477253803264
  0
LINE
  8
_0-2_線色２__白__
  6
CONTINUOUS
 62
    7
 10
1125.6204147116625
 20
732.61477253803264
 11
1125.804864772432
 21
732.58581290679217
  0
LINE
  8
_0-2_線色２__白__
  6
CONTINUOUS
 62
    7
 10
1125.804864772432
 20
732.58581290679217
 11
1125.9888356298723
 21
732.55149742525532
  0
LINE
  8
_0-2_線色２__白__
  6
CONTINUOUS
 62
    7
 10
1125.9888356298723
 20
732.55149742525532
 11
1126.1726916657301
 21
732.51348259922793
  0
LINE
  8
_0-2_線色２__白__
  6
CONTINUOUS
 62
    7
 10
1126.1726916657301
 20
732.51348259922793
 11
1126.35679726175
 21
732.47342493452038
  0
LINE
  8
_0-2_線色２__白__
  6
CONTINUOUS
 62
    7
 10
1126.35679726175
 20
732.47342493452038
 11
1126.5415167996787
 21
732.43298093694534
  0
LINE
  8
_0-2_線色２__白__
  6
CONTINUOUS
 62
    7
 10
1126.5415167996787
 20
732.43298093694534
 11
1126.6490790252158
 21
732.40999915005773
  0
LINE
  8
_0-2_線色２__白__
  6
CONTINUOUS
 62
    7
 10
1126.6490790252158
 20
732.40999915005773
 11
1126.7711902565441
 21
732.38472542855902
  0
LINE
  8
_0-2_線色２__白__
  6
CONTINUOUS
 62
    7
 10
1126.7711902565441
 20
732.38472542855902
 11
1126.9819882801073
 21
732.34137591232525
  0
LINE
  8
_0-2_線色２__白__
  6
CONTINUOUS
 62
    7
 10
1126.9819882801073
 20
732.34137591232525
 11
1127.1916935039451
 21
732.29524275417475
  0
LINE
  8
_0-2_線色２__白__
  6
CONTINUOUS
 62
    7
 10
1127.1916935039451
 20
732.29524275417475
 11
1127.3986504532115
 21
732.24275671247256
  0
LINE
  8
_0-2_線色２__白__
  6
CONTINUOUS
 62
    7
 10
1127.3986504532115
 20
732.24275671247256
 11
1127.6012036530676
 21
732.18034854557459
  0
LINE
  8
_0-2_線色２__白__
  6
CONTINUOUS
 62
    7
 10
1127.6012036530676
 20
732.18034854557459
 11
1127.7976976286652
 21
732.10444901183905
  0
LINE
  8
_0-2_線色２__白__
  6
CONTINUOUS
 62
    7
 10
1127.7976976286652
 20
732.10444901183905
 11
1127.908235454787
 21
732.05283907118314
  0
LINE
  8
_0-2_線色２__白__
  6
CONTINUOUS
 62
    7
 10
1127.908235454787
 20
732.05283907118314
 11
1128.0075576859656
 21
731.99975359926043
  0
LINE
  8
_0-2_線色２__白__
  6
CONTINUOUS
 62
    7
 10
1128.0075576859656
 20
731.99975359926043
 11
1128.1729816011568
 21
731.89646731815969
  0
LINE
  8
_0-2_線色２__白__
  6
CONTINUOUS
 62
    7
 10
1128.1729816011568
 20
731.89646731815969
 11
1128.3310331725158
 21
731.77991768642983
  0
LINE
  8
_0-2_線色２__白__
  6
CONTINUOUS
 62
    7
 10
1128.3310331725158
 20
731.77991768642983
 11
1128.481708218934
 21
731.65199101311487
  0
LINE
  8
_0-2_線色２__白__
  6
CONTINUOUS
 62
    7
 10
1128.481708218934
 20
731.65199101311487
 11
1128.6250025592983
 21
731.51457360726795
  0
LINE
  8
_0-2_線色２__白__
  6
CONTINUOUS
 62
    7
 10
1128.6250025592983
 20
731.51457360726795
 11
1128.7609120125023
 21
731.36955177793766
  0
LINE
  8
_0-2_線色２__白__
  6
CONTINUOUS
 62
    7
 10
1128.7609120125023
 20
731.36955177793766
 11
1128.83635409249
 21
731.28269807394076
  0
LINE
  8
_0-2_線色２__白__
  6
CONTINUOUS
 62
    7
 10
1128.83635409249
 20
731.28269807394076
 11
1128.9206491168613
 21
731.18013068594905
  0
LINE
  8
_0-2_線色２__白__
  6
CONTINUOUS
 62
    7
 10
1128.9206491168613
 20
731.18013068594905
 11
1129.0588209761279
 21
730.99884567621189
  0
LINE
  8
_0-2_線色２__白__
  6
CONTINUOUS
 62
    7
 10
1129.0588209761279
 20
730.99884567621189
 11
1129.1889312431488
 21
730.81262100159279
  0
LINE
  8
_0-2_線色２__白__
  6
CONTINUOUS
 62
    7
 10
1129.1889312431488
 20
730.81262100159279
 11
1129.3121511451352
 21
730.62225494050267
  0
LINE
  8
_0-2_線色２__白__
  6
CONTINUOUS
 62
    7
 10
1129.3121511451352
 20
730.62225494050267
 11
1129.4296519093029
 21
730.42854577135927
  0
LINE
  8
_0-2_線色２__白__
  6
CONTINUOUS
 62
    7
 10
1129.4296519093029
 20
730.42854577135927
 11
1129.5426047628723
 21
730.23229177257804
  0
LINE
  8
_0-2_線色２__白__
  6
CONTINUOUS
 62
    7
 10
1129.5426047628723
 20
730.23229177257804
 11
1129.6064950897323
 21
730.11761297554699
  0
LINE
  8
_0-2_線色２__白__
  6
CONTINUOUS
 62
    7
 10
1129.6064950897323
 20
730.11761297554699
 11
1129.6737624572381
 21
729.99454638341263
  0
LINE
  8
_0-2_線色２__白__
  6
CONTINUOUS
 62
    7
 10
1129.6737624572381
 20
729.99454638341263
 11
1129.787743698447
 21
729.78133962704419
  0
LINE
  8
_0-2_線色２__白__
  6
CONTINUOUS
 62
    7
 10
1129.787743698447
 20
729.78133962704419
 11
1129.8998582468096
 21
729.56704262750804
  0
LINE
  8
_0-2_線色２__白__
  6
CONTINUOUS
 62
    7
 10
1129.8998582468096
 20
729.56704262750804
 11
1130.0108748560581
 21
729.35189336643248
  0
LINE
  8
_0-2_線色２__白__
  6
CONTINUOUS
 62
    7
 10
1130.0108748560581
 20
729.35189336643248
 11
1130.1215622799157
 21
729.1361298254526
  0
LINE
  8
_0-2_線色２__白__
  6
CONTINUOUS
 62
    7
 10
1130.1215622799157
 20
729.1361298254526
 11
1130.2326892721146
 21
728.9199899861967
  0
LINE
  8
_0-2_線色２__白__
  6
CONTINUOUS
 62
    7
 10
1130.2326892721146
 20
728.9199899861967
 11
1130.2976472667444
 21
728.79455023669493
  0
LINE
  8
_0-2_線色２__白__
  6
CONTINUOUS
 62
    7
 10
1130.2976472667444
 20
728.79455023669493
 11
1130.3860607209197
 21
728.62572205368792
  0
LINE
  8
_0-2_線色２__白__
  6
CONTINUOUS
 62
    7
 10
1130.3860607209197
 20
728.62572205368792
 11
1130.5425655368492
 21
728.33632628780265
  0
LINE
  8
_0-2_線色２__白__
  6
CONTINUOUS
 62
    7
 10
1130.5425655368492
 20
728.33632628780265
 11
1130.7067871300785
 21
728.05161811155017
  0
LINE
  8
_0-2_線色２__白__
  6
CONTINUOUS
 62
    7
 10
1130.7067871300785
 20
728.05161811155017
 11
1130.8817111174619
 21
727.77456468353307
  0
LINE
  8
_0-2_線色２__白__
  6
CONTINUOUS
 62
    7
 10
1130.8817111174619
 20
727.77456468353307
 11
1131.0703231158629
 21
727.50813316234485
  0
LINE
  8
_0-2_線色２__白__
  6
CONTINUOUS
 62
    7
 10
1131.0703231158629
 20
727.50813316234485
 11
1131.2756087421383
 21
727.25529070658808
  0
LINE
  8
_0-2_線色２__白__
  6
CONTINUOUS
 62
    7
 10
1131.2756087421383
 20
727.25529070658808
 11
1131.4034907499638
 21
727.11603780680775
  0
LINE
  8
_0-2_線色２__白__
  6
CONTINUOUS
 62
    7
 10
1131.4034907499638
 20
727.11603780680775
 11
1131.4497059222697
 21
727.0689328008973
  0
LINE
  8
_0-2_線色２__白__
  6
CONTINUOUS
 62
    7
 10
1131.4497059222697
 20
727.0689328008973
 11
1131.5314051838106
 21
726.98958770586273
  0
LINE
  8
_0-2_線色２__白__
  6
CONTINUOUS
 62
    7
 10
1131.5314051838106
 20
726.98958770586273
 11
1131.6156075761398
 21
726.91278759642159
  0
LINE
  8
_0-2_線色２__白__
  6
CONTINUOUS
 62
    7
 10
1131.6156075761398
 20
726.91278759642159
 11
1131.7022535516355
 21
726.83873869309423
  0
LINE
  8
_0-2_線色２__白__
  6
CONTINUOUS
 62
    7
 10
1131.7022535516355
 20
726.83873869309423
 11
1131.7912835626714
 21
726.76764721640552
  0
LINE
  8
_0-2_線色２__白__
  6
CONTINUOUS
 62
    7
 10
1131.7912835626714
 20
726.76764721640552
 11
1131.8826380616235
 21
726.69971938687581
  0
LINE
  8
_0-2_線色２__白__
  6
CONTINUOUS
 62
    7
 10
1131.8826380616235
 20
726.69971938687581
 11
1131.9366652865176
 21
726.66185209048422
  0
LINE
  8
_0-2_線色２__白__
  6
CONTINUOUS
 62
    7
 10
1131.9366652865176
 20
726.66185209048422
 11
1132.0262666976043
 21
726.60255940010643
  0
LINE
  8
_0-2_線色２__白__
  6
CONTINUOUS
 62
    7
 10
1132.0262666976043
 20
726.60255940010643
 11
1132.184458141777
 21
726.50614613591301
  0
LINE
  8
_0-2_線色２__白__
  6
CONTINUOUS
 62
    7
 10
1132.184458141777
 20
726.50614613591301
 11
1132.3458694288081
 21
726.41481772684187
  0
LINE
  8
_0-2_線色２__白__
  6
CONTINUOUS
 62
    7
 10
1132.3458694288081
 20
726.41481772684187
 11
1132.5087893771013
 21
726.32592701839144
  0
LINE
  8
_0-2_線色２__白__
  6
CONTINUOUS
 62
    7
 10
1132.5087893771013
 20
726.32592701839144
 11
1132.6715068050555
 21
726.23682685605559
  0
LINE
  8
_0-2_線色２__白__
  6
CONTINUOUS
 62
    7
 10
1132.6715068050555
 20
726.23682685605559
 11
1132.8323105310676
 21
726.14487008532819
  0
LINE
  8
_0-2_線色２__白__
  6
CONTINUOUS
 62
    7
 10
1132.8323105310676
 20
726.14487008532819
 11
1132.9240255393927
 21
726.0891831438164
  0
LINE
  8
_0-2_線色２__白__
  6
CONTINUOUS
 62
    7
 10
1132.9240255393927
 20
726.0891831438164
 11
1133.0164365317921
 21
726.02981837394623
  0
LINE
  8
_0-2_線色２__白__
  6
CONTINUOUS
 62
    7
 10
1133.0164365317921
 20
726.02981837394623
 11
1133.1723795339451
 21
725.92231661217852
  0
LINE
  8
_0-2_線色２__白__
  6
CONTINUOUS
 62
    7
 10
1133.1723795339451
 20
725.92231661217852
 11
1133.3247020761667
 21
725.80933342220874
  0
LINE
  8
_0-2_線色２__白__
  6
CONTINUOUS
 62
    7
 10
1133.3247020761667
 20
725.80933342220874
 11
1133.474178564901
 21
725.69207336981322
  0
LINE
  8
_0-2_線色２__白__
  6
CONTINUOUS
 62
    7
 10
1133.474178564901
 20
725.69207336981322
 11
1133.6215834065945
 21
725.57174102076601
  0
LINE
  8
_0-2_線色２__白__
  6
CONTINUOUS
 62
    7
 10
1133.6215834065945
 20
725.57174102076601
 11
1133.7676910076914
 21
725.44954094084119
  0
LINE
  8
_0-2_線色２__白__
  6
CONTINUOUS
 62
    7
 10
1133.7676910076914
 20
725.44954094084119
 11
1133.8521441770956
 21
725.37828376174843
  0
LINE
  8
_0-2_線色２__白__
  6
CONTINUOUS
 62
    7
 10
1133.8521441770956
 20
725.37828376174843
 11
1133.9579860407127
 21
725.28880317784683
  0
LINE
  8
_0-2_線色２__白__
  6
CONTINUOUS
 62
    7
 10
1133.9579860407127
 20
725.28880317784683
 11
1134.1395588190233
 21
725.13372012405284
  0
LINE
  8
_0-2_線色２__白__
  6
CONTINUOUS
 62
    7
 10
1134.1395588190233
 20
725.13372012405284
 11
1134.318733471647
 21
724.97633095581136
  0
LINE
  8
_0-2_線色２__白__
  6
CONTINUOUS
 62
    7
 10
1134.318733471647
 20
724.97633095581136
 11
1134.4940655978723
 21
724.81514075788368
  0
LINE
  8
_0-2_線色２__白__
  6
CONTINUOUS
 62
    7
 10
1134.4940655978723
 20
724.81514075788368
 11
1134.6641107969833
 21
724.64865461503564
  0
LINE
  8
_0-2_線色２__白__
  6
CONTINUOUS
 62
    7
 10
1134.6641107969833
 20
724.64865461503564
 11
1134.8274246682615
 21
724.47537761202625
  0
LINE
  8
_0-2_線色２__白__
  6
CONTINUOUS
 62
    7
 10
1134.8274246682615
 20
724.47537761202625
 11
1134.918493250201
 21
724.37117630381522
  0
LINE
  8
_0-2_線色２__白__
  6
CONTINUOUS
 62
    7
 10
1134.918493250201
 20
724.37117630381522
 11
1134.9701525228363
 21
724.30908902829174
  0
LINE
  8
_0-2_線色２__白__
  6
CONTINUOUS
 62
    7
 10
1134.9701525228363
 20
724.30908902829174
 11
1135.0564776331419
 21
724.19961628845499
  0
LINE
  8
_0-2_線色２__白__
  6
CONTINUOUS
 62
    7
 10
1135.0564776331419
 20
724.19961628845499
 11
1135.138837505275
 21
724.08711503069412
  0
LINE
  8
_0-2_線色２__白__
  6
CONTINUOUS
 62
    7
 10
1135.138837505275
 20
724.08711503069412
 11
1135.2166581960194
 21
723.97163409798281
  0
LINE
  8
_0-2_線色２__白__
  6
CONTINUOUS
 62
    7
 10
1135.2166581960194
 20
723.97163409798281
 11
1135.2893657621632
 21
723.8532223332902
  0
LINE
  8
_0-2_線色２__白__
  6
CONTINUOUS
 62
    7
 10
1135.2893657621632
 20
723.8532223332902
 11
1135.3563862604926
 21
723.7319285795877
  0
LINE
  8
_0-2_線色２__白__
  6
CONTINUOUS
 62
    7
 10
1135.3563862604926
 20
723.7319285795877
 11
1135.3924261715804
 21
723.66027692174498
  0
LINE
  8
_0-2_線色２__白__
  6
CONTINUOUS
 62
    7
 10
1135.3924261715804
 20
723.66027692174498
 11
1135.4390780249389
 21
723.5588010306958
  0
LINE
  8
_0-2_線色２__白__
  6
CONTINUOUS
 62
    7
 10
1135.4390780249389
 20
723.5588010306958
 11
1135.5105647832886
 21
723.38003665164365
  0
LINE
  8
_0-2_線色２__白__
  6
CONTINUOUS
 62
    7
 10
1135.5105647832886
 20
723.38003665164365
 11
1135.5725161219118
 21
723.19721623349437
  0
LINE
  8
_0-2_線色２__白__
  6
CONTINUOUS
 62
    7
 10
1135.5725161219118
 20
723.19721623349437
 11
1135.6270140101799
 21
723.01122537430615
  0
LINE
  8
_0-2_線色２__白__
  6
CONTINUOUS
 62
    7
 10
1135.6270140101799
 20
723.01122537430615
 11
1135.6761404174688
 21
722.82294967213033
  0
LINE
  8
_0-2_線色２__白__
  6
CONTINUOUS
 62
    7
 10
1135.6761404174688
 20
722.82294967213033
 11
1135.7219773131453
 21
722.63327472502738
  0
LINE
  8
_0-2_線色２__白__
  6
CONTINUOUS
 62
    7
 10
1135.7219773131453
 20
722.63327472502738
 11
1135.7478758626155
 21
722.5229710933661
  0
LINE
  8
_0-2_線色２__白__
  6
CONTINUOUS
 62
    7
 10
974.99999999999886
 20
722.5229710933661
 11
1125.0000000000011
 21
722.5229710933661
  0
LINE
  8
_0-4_線色４__黄__
  6
CONTINUOUS
 62
    2
 10
974.99999999999886
 20
727.5229710933661
 11
974.99999999999886
 21
722.5229710933661
  0
LINE
  8
_0-4_線色４__黄__
  6
CONTINUOUS
 62
    2
 10
1125.0000000000011
 20
727.5229710933661
 11
1125.0000000000011
 21
722.5229710933661
  0
LINE
  8
_0-4_線色４__黄__
  6
CONTINUOUS
 62
    2
 10
641.48239966435199
 20
722.5229710933661
 11
974.99999999999886
 21
722.5229710933661
  0
LINE
  8
_0-2_線色２__白__
  6
CONTINUOUS
 62
    7
 10
1055.5000000000007
 20
727.5229710933661
 11
1055.5000000000007
 21
722.5229710933661
  0
LINE
  8
_0-2_線色２__白__
  6
CONTINUOUS
 62
    7
 10
1044.5000000000016
 20
727.5229710933661
 11
1044.5000000000016
 21
722.5229710933661
  0
LINE
  8
_0-d_断熱__ハッチ
  6
CONTINUOUS
 62
    4
 10
1052.9993417243156
 20
722.52297109336382
 11
1055.5000000000007
 21
725.0236293690466
  0
LINE
  8
_0-d_断熱__ハッチ
  6
CONTINUOUS
 62
    4
 10
1049.4638078183823
 20
722.52297109336382
 11
1054.4638078183868
 21
727.52297109336837
  0
LINE
  8
_0-d_断熱__ハッチ
  6
CONTINUOUS
 62
    4
 10
1045.928273912449
 20
722.52297109336382
 11
1054.7173155326925
 21
731.3120127136051
  0
LINE
  8
_0-d_断熱__ハッチ
  6
CONTINUOUS
 62
    4
 10
1044.5000000000016
 20
724.63023108684752
 11
1051.1817816267592
 21
731.3120127136051
  0
LINE
  8
_0-d_断熱__ハッチ
  6
CONTINUOUS
 62
    4
 10
1045.8893630933596
 20
729.55512808613435
 11
1047.6462477208281
 21
731.3120127136051
  0
LINE
  8
_0-d_断熱__ハッチ
  6
CONTINUOUS
 62
    4
 10
1043.8519367746869
 20
731.05323567339269
 11
1044.1107138149016
 21
731.3120127136051
  0
LINE
  8
_0-a_文字
  6
CONTINUOUS
 62
    7
 10
1125.1450200286138
 20
730.01014391057311
 11
1146.7876234679545
 21
767.49623267557922
  0
TEXT
  8
_0-a_文字
 62
    7
 10
1171.7876234679543
 20
759.99623267557865
 40
15.000000000000213
 41
0.999999999999989
 50
0
  1
プルーフシーラー
  0
LINE
  8
_0-a_文字
  6
CONTINUOUS
 62
    7
 10
1146.7876234679545
 20
767.49623267557922
 11
1166.7876234679545
 21
767.49623267557922
  0
LINE
  8
_0-a_文字
  6
CONTINUOUS
 62
    7
 10
705.5645906759662
 20
695.0229710933661
 11
776.27456121898717
 21
817.49623267557922
  0
LINE
  8
_0-2_線色２__白__
  6
CONTINUOUS
 62
    7
 10
1350.0000000000011
 20
677.5229710933661
 11
1350.0000000000011
 21
712.5229710933661
  0
ARC
  8
_0-1_線色１__水色__
  6
CONTINUOUS
 62
    4
 10
1115.9872815298138
 20
714.06463775275938
 40
1.2083333333333179
 50
127.52351320610693
 51
52.47648680188081
  0
ARC
  8
_0-1_線色１__水色__
  6
CONTINUOUS
 62
    4
 10
1118.9312018184967
 20
714.06463775296402
 40
1.2083333333333179
 50
127.52351320610693
 51
52.47648680188081
  0
ARC
  8
_0-1_線色１__水色__
  6
CONTINUOUS
 62
    4
 10
1117.4592416740222
 20
715.98130441956414
 40
1.2083333333333581
 50
307.52351320333912
 51
232.47648680464988
  0
ARC
  8
_0-1_線色１__水色__
  6
CONTINUOUS
 62
    4
 10
1121.8751221071818
 20
714.06463775316865
 40
1.2083333333333179
 50
127.52351320610693
 51
52.47648680188081
  0
ARC
  8
_0-1_線色１__水色__
  6
CONTINUOUS
 62
    4
 10
1120.4031619627051
 20
715.98130441976878
 40
1.2083333333333581
 50
307.52351320333912
 51
232.47648680464988
  0
ARC
  8
_0-1_線色１__水色__
  6
CONTINUOUS
 62
    4
 10
1123.347082251388
 20
715.98130441997569
 40
1.2083333333333581
 50
307.52351320333912
 51
232.47648680464988
  0
ARC
  8
_0-1_線色１__水色__
  6
CONTINUOUS
 62
    4
 10
1142.4825641279415
 20
714.06463775400766
 40
1.2083333333333179
 50
127.52351320610693
 51
52.47648680188081
  0
ARC
  8
_0-1_線色１__水色__
  6
CONTINUOUS
 62
    4
 10
1136.5947235505735
 20
714.06463775359839
 40
1.2083333333333179
 50
127.52351320610693
 51
52.47648680188081
  0
ARC
  8
_0-1_線色１__水色__
  6
CONTINUOUS
 62
    4
 10
1135.122763406099
 20
715.98130442019851
 40
1.2083333333333581
 50
307.52351320333912
 51
232.47648680464988
  0
ARC
  8
_0-1_線色１__水色__
  6
CONTINUOUS
 62
    4
 10
1139.5386438392586
 20
714.06463775380303
 40
1.2083333333333179
 50
127.52351320610693
 51
52.47648680188081
  0
ARC
  8
_0-1_線色１__水色__
  6
CONTINUOUS
 62
    4
 10
1138.0666836947819
 20
715.98130442040315
 40
1.2083333333333581
 50
307.52351320333912
 51
232.47648680464988
  0
ARC
  8
_0-1_線色１__水色__
  6
CONTINUOUS
 62
    4
 10
1141.0106039834648
 20
715.98130442060778
 40
1.2083333333333581
 50
307.52351320333912
 51
232.47648680464988
  0
ARC
  8
_0-1_線色１__水色__
  6
CONTINUOUS
 62
    4
 10
1170.4498068702753
 20
715.98130442206298
 40
1.2083333333333581
 50
307.52351320333912
 51
232.47648680464988
  0
ARC
  8
_0-1_線色１__水色__
  6
CONTINUOUS
 62
    4
 10
1174.8656873034349
 20
714.06463775566749
 40
1.2083333333333179
 50
127.52351320610693
 51
52.47648680188081
  0
ARC
  8
_0-1_線色１__水色__
  6
CONTINUOUS
 62
    4
 10
1171.921767014752
 20
714.06463775546285
 40
1.2083333333333179
 50
127.52351320610693
 51
52.47648680188081
  0
ARC
  8
_0-1_線色１__水色__
  6
CONTINUOUS
 62
    4
 10
1173.3937271589605
 20
715.98130442226761
 40
1.2083333333333581
 50
307.52351320333912
 51
232.47648680464988
  0
ARC
  8
_0-1_線色１__水色__
  6
CONTINUOUS
 62
    4
 10
1177.8096075921178
 20
714.0646377558744
 40
1.2083333333333179
 50
127.52351320610693
 51
52.47648680188081
  0
ARC
  8
_0-1_線色１__水色__
  6
CONTINUOUS
 62
    4
 10
1176.3376474476433
 20
715.98130442247225
 40
1.2083333333333581
 50
307.52351320333912
 51
232.47648680464988
  0
ARC
  8
_0-1_線色１__水色__
  6
CONTINUOUS
 62
    4
 10
1180.7535278808007
 20
714.06463775607904
 40
1.2083333333333179
 50
127.52351320610693
 51
52.47648680188081
  0
ARC
  8
_0-1_線色１__水色__
  6
CONTINUOUS
 62
    4
 10
1179.2815677363262
 20
715.98130442267916
 40
1.2083333333333581
 50
307.52351320333912
 51
232.47648680464988
  0
ARC
  8
_0-1_線色１__水色__
  6
CONTINUOUS
 62
    4
 10
1183.6974481694858
 20
714.06463775628367
 40
1.2083333333333179
 50
127.52351320610693
 51
52.47648680188081
  0
ARC
  8
_0-1_線色１__水色__
  6
CONTINUOUS
 62
    4
 10
1182.2254880250091
 20
715.9813044228838
 40
1.2083333333333581
 50
307.52351320333912
 51
232.47648680464988
  0
ARC
  8
_0-1_線色１__水色__
  6
CONTINUOUS
 62
    4
 10
1186.6413684581687
 20
714.06463775648831
 40
1.2083333333333179
 50
127.52351320610693
 51
52.47648680188081
  0
ARC
  8
_0-1_線色１__水色__
  6
CONTINUOUS
 62
    4
 10
1185.1694083136942
 20
715.98130442308843
 40
1.2083333333333581
 50
307.52351320333912
 51
232.47648680464988
  0
ARC
  8
_0-1_線色１__水色__
  6
CONTINUOUS
 62
    4
 10
1189.5852887468516
 20
714.06463775669295
 40
1.2083333333333179
 50
127.52351320610693
 51
52.47648680188081
  0
ARC
  8
_0-1_線色１__水色__
  6
CONTINUOUS
 62
    4
 10
1188.1133286023771
 20
715.98130442329307
 40
1.2083333333333581
 50
307.52351320333912
 51
232.47648680464988
  0
ARC
  8
_0-1_線色１__水色__
  6
CONTINUOUS
 62
    4
 10
1192.5292090355344
 20
714.06463775689986
 40
1.2083333333333179
 50
127.52351320610693
 51
52.47648680188081
  0
ARC
  8
_0-1_線色１__水色__
  6
CONTINUOUS
 62
    4
 10
1191.05724889106
 20
715.98130442349998
 40
1.2083333333333581
 50
307.52351320333912
 51
232.47648680464988
  0
ARC
  8
_0-1_線色１__水色__
  6
CONTINUOUS
 62
    4
 10
1143.9545242721272
 20
715.98130442083061
 40
1.2083333333333581
 50
307.52351320333912
 51
232.47648680464988
  0
ARC
  8
_0-1_線色１__水色__
  6
CONTINUOUS
 62
    4
 10
1167.5058865815924
 20
715.98130442185834
 40
1.2083333333333581
 50
307.52351320333912
 51
232.47648680464988
  0
ARC
  8
_0-1_線色１__水色__
  6
CONTINUOUS
 62
    4
 10
1168.9778467260692
 20
714.06463775525822
 40
1.2083333333333179
 50
127.52351320610693
 51
52.47648680188081
  0
ARC
  8
_0-1_線色１__水色__
  6
CONTINUOUS
 62
    4
 10
1148.3704047052845
 20
714.0646377544374
 40
1.2083333333333179
 50
127.52351320610693
 51
52.47648680188081
  0
ARC
  8
_0-1_線色１__水色__
  6
CONTINUOUS
 62
    4
 10
1145.4264844166016
 20
714.06463775423276
 40
1.2083333333333179
 50
127.52351320610693
 51
52.47648680188081
  0
ARC
  8
_0-1_線色１__水色__
  6
CONTINUOUS
 62
    4
 10
1146.89844456081
 20
715.98130442103752
 40
1.2083333333333581
 50
307.52351320333912
 51
232.47648680464988
  0
ARC
  8
_0-1_線色１__水色__
  6
CONTINUOUS
 62
    4
 10
1151.3143249939674
 20
714.06463775464204
 40
1.2083333333333179
 50
127.52351320610693
 51
52.47648680188081
  0
ARC
  8
_0-1_線色１__水色__
  6
CONTINUOUS
 62
    4
 10
1149.8423648494929
 20
715.98130442124216
 40
1.2083333333333581
 50
307.52351320333912
 51
232.47648680464988
  0
ARC
  8
_0-1_線色１__水色__
  6
CONTINUOUS
 62
    4
 10
1154.2582452826525
 20
714.06463775484667
 40
1.2083333333333179
 50
127.52351320610693
 51
52.47648680188081
  0
ARC
  8
_0-1_線色１__水色__
  6
CONTINUOUS
 62
    4
 10
1152.7862851381758
 20
715.98130442144679
 40
1.2083333333333581
 50
307.52351320333912
 51
232.47648680464988
  0
ARC
  8
_0-1_線色１__水色__
  6
CONTINUOUS
 62
    4
 10
1157.2021655713354
 20
714.06463775505358
 40
1.2083333333333179
 50
127.52351320610693
 51
52.47648680188081
  0
ARC
  8
_0-1_線色１__水色__
  6
CONTINUOUS
 62
    4
 10
1155.7302054268609
 20
715.98130442165143
 40
1.2083333333333581
 50
307.52351320333912
 51
232.47648680464988
  0
ARC
  8
_0-1_線色１__水色__
  6
CONTINUOUS
 62
    4
 10
1160.1460858600183
 20
714.06463775525822
 40
1.2083333333333179
 50
127.52351320610693
 51
52.47648680188081
  0
ARC
  8
_0-1_線色１__水色__
  6
CONTINUOUS
 62
    4
 10
1158.6741257155438
 20
715.98130442185834
 40
1.2083333333333581
 50
307.52351320333912
 51
232.47648680464988
  0
ARC
  8
_0-1_線色１__水色__
  6
CONTINUOUS
 62
    4
 10
1163.0900061487011
 20
714.06463775546285
 40
1.2083333333333179
 50
127.52351320610693
 51
52.47648680188081
  0
ARC
  8
_0-1_線色１__水色__
  6
CONTINUOUS
 62
    4
 10
1161.6180460042267
 20
715.98130442206298
 40
1.2083333333333581
 50
307.52351320333912
 51
232.47648680464988
  0
ARC
  8
_0-1_線色１__水色__
  6
CONTINUOUS
 62
    4
 10
1166.0339264373863
 20
714.06463775566749
 40
1.2083333333333179
 50
127.52351320610693
 51
52.47648680188081
  0
ARC
  8
_0-1_線色１__水色__
  6
CONTINUOUS
 62
    4
 10
1164.5619662929096
 20
715.98130442226761
 40
1.2083333333333581
 50
307.52351320333912
 51
232.47648680464988
  0
ARC
  8
_0-1_線色１__水色__
  6
CONTINUOUS
 62
    4
 10
1133.6508032619156
 20
714.06463775337556
 40
1.2083333333333179
 50
127.52351320610693
 51
52.47648680188081
  0
ARC
  8
_0-1_線色１__水色__
  6
CONTINUOUS
 62
    4
 10
1124.8190423958647
 20
714.06463775337556
 40
1.2083333333333179
 50
127.52351320610693
 51
52.47648680188081
  0
ARC
  8
_0-1_線色１__水色__
  6
CONTINUOUS
 62
    4
 10
1126.2910025400708
 20
715.98130442018032
 40
1.2083333333333581
 50
307.52351320333912
 51
232.47648680464988
  0
ARC
  8
_0-1_線色１__水色__
  6
CONTINUOUS
 62
    4
 10
1127.7629626845476
 20
714.0646377535802
 40
1.2083333333333179
 50
127.52351320610693
 51
52.47648680188081
  0
ARC
  8
_0-1_線色１__水色__
  6
CONTINUOUS
 62
    4
 10
1129.2349228287537
 20
715.98130442038496
 40
1.2083333333333581
 50
307.52351320333912
 51
232.47648680464988
  0
ARC
  8
_0-1_線色１__水色__
  6
CONTINUOUS
 62
    4
 10
1130.7068829732304
 20
714.06463775378484
 40
1.2083333333333179
 50
127.52351320610693
 51
52.47648680188081
  0
ARC
  8
_0-1_線色１__水色__
  6
CONTINUOUS
 62
    4
 10
1132.1788431174366
 20
715.98130442058959
 40
1.2083333333333581
 50
307.52351320333912
 51
232.47648680464988
  0
ARC
  8
_0-1_線色１__水色__
  6
CONTINUOUS
 62
    4
 10
1221.9684119223473
 20
714.06463775773659
 40
1.2083333333333179
 50
127.52351320610693
 51
52.47648680188081
  0
ARC
  8
_0-1_線色１__水色__
  6
CONTINUOUS
 62
    4
 10
1216.080571344977
 20
714.06463775732732
 40
1.2083333333333179
 50
127.52351320610693
 51
52.47648680188081
  0
ARC
  8
_0-1_線色１__水色__
  6
CONTINUOUS
 62
    4
 10
1214.6086112005048
 20
715.98130442392744
 40
1.2083333333333581
 50
307.52351320333912
 51
232.47648680464988
  0
ARC
  8
_0-1_線色１__水色__
  6
CONTINUOUS
 62
    4
 10
1219.0244916336621
 20
714.06463775753195
 40
1.2083333333333179
 50
127.52351320610693
 51
52.47648680188081
  0
ARC
  8
_0-1_線色１__水色__
  6
CONTINUOUS
 62
    4
 10
1217.5525314891854
 20
715.98130442413208
 40
1.2083333333333581
 50
307.52351320333912
 51
232.47648680464988
  0
ARC
  8
_0-1_線色１__水色__
  6
CONTINUOUS
 62
    4
 10
1220.4964517778706
 20
715.98130442433671
 40
1.2083333333333581
 50
307.52351320333912
 51
232.47648680464988
  0
ARC
  8
_0-1_線色１__水色__
  6
CONTINUOUS
 62
    4
 10
1249.9356546646811
 20
715.9813044257919
 40
1.2083333333333581
 50
307.52351320333912
 51
232.47648680464988
  0
ARC
  8
_0-1_線色１__水色__
  6
CONTINUOUS
 62
    4
 10
1273.4870169741487
 20
715.98130442681736
 40
1.2083333333333581
 50
307.52351320333912
 51
232.47648680464988
  0
ARC
  8
_0-1_線色１__水色__
  6
CONTINUOUS
 62
    4
 10
1254.3515350978385
 20
714.06463775939642
 40
1.2083333333333179
 50
127.52351320610693
 51
52.47648680188081
  0
ARC
  8
_0-1_線色１__水色__
  6
CONTINUOUS
 62
    4
 10
1251.4076148091578
 20
714.06463775919178
 40
1.2083333333333179
 50
127.52351320610693
 51
52.47648680188081
  0
ARC
  8
_0-1_線色１__水色__
  6
CONTINUOUS
 62
    4
 10
1252.8795749533663
 20
715.98130442599654
 40
1.2083333333333581
 50
307.52351320333912
 51
232.47648680464988
  0
ARC
  8
_0-1_線色１__水色__
  6
CONTINUOUS
 62
    4
 10
1257.2954553865236
 20
714.06463775960333
 40
1.2083333333333179
 50
127.52351320610693
 51
52.47648680188081
  0
ARC
  8
_0-1_線色１__水色__
  6
CONTINUOUS
 62
    4
 10
1255.8234952420469
 20
715.98130442620118
 40
1.2083333333333581
 50
307.52351320333912
 51
232.47648680464988
  0
ARC
  8
_0-1_線色１__水色__
  6
CONTINUOUS
 62
    4
 10
1260.2393756752042
 20
714.06463775980797
 40
1.2083333333333179
 50
127.52351320610693
 51
52.47648680188081
  0
ARC
  8
_0-1_線色１__水色__
  6
CONTINUOUS
 62
    4
 10
1258.767415530732
 20
715.98130442640809
 40
1.2083333333333581
 50
307.52351320333912
 51
232.47648680464988
  0
ARC
  8
_0-1_線色１__水色__
  6
CONTINUOUS
 62
    4
 10
1263.1832959638893
 20
714.0646377600126
 40
1.2083333333333179
 50
127.52351320610693
 51
52.47648680188081
  0
ARC
  8
_0-1_線色１__水色__
  6
CONTINUOUS
 62
    4
 10
1261.7113358194126
 20
715.98130442661272
 40
1.2083333333333581
 50
307.52351320333912
 51
232.47648680464988
  0
ARC
  8
_0-1_線色１__水色__
  6
CONTINUOUS
 62
    4
 10
1266.1272162525745
 20
714.06463776021724
 40
1.2083333333333179
 50
127.52351320610693
 51
52.47648680188081
  0
ARC
  8
_0-1_線色１__水色__
  6
CONTINUOUS
 62
    4
 10
1264.6552561080978
 20
715.98130442681736
 40
1.2083333333333581
 50
307.52351320333912
 51
232.47648680464988
  0
ARC
  8
_0-1_線色１__水色__
  6
CONTINUOUS
 62
    4
 10
1269.0711365412551
 20
714.06463776042187
 40
1.2083333333333179
 50
127.52351320610693
 51
52.47648680188081
  0
ARC
  8
_0-1_線色１__水色__
  6
CONTINUOUS
 62
    4
 10
1267.5991763967829
 20
715.981304427022
 40
1.2083333333333581
 50
307.52351320333912
 51
232.47648680464988
  0
ARC
  8
_0-1_線色１__水色__
  6
CONTINUOUS
 62
    4
 10
1272.0150568299402
 20
714.06463776062878
 40
1.2083333333333179
 50
127.52351320610693
 51
52.47648680188081
  0
ARC
  8
_0-1_線色１__水色__
  6
CONTINUOUS
 62
    4
 10
1270.5430966854635
 20
715.98130442722891
 40
1.2083333333333581
 50
307.52351320333912
 51
232.47648680464988
  0
ARC
  8
_0-1_線色１__水色__
  6
CONTINUOUS
 62
    4
 10
1223.440372066533
 20
715.98130442455954
 40
1.2083333333333581
 50
307.52351320333912
 51
232.47648680464988
  0
ARC
  8
_0-1_線色１__水色__
  6
CONTINUOUS
 62
    4
 10
1246.991734375996
 20
715.98130442558727
 40
1.2083333333333581
 50
307.52351320333912
 51
232.47648680464988
  0
ARC
  8
_0-1_線色１__水色__
  6
CONTINUOUS
 62
    4
 10
1248.4636945204727
 20
714.06463775898715
 40
1.2083333333333179
 50
127.52351320610693
 51
52.47648680188081
  0
ARC
  8
_0-1_線色１__水色__
  6
CONTINUOUS
 62
    4
 10
1227.8562524996903
 20
714.06463775816633
 40
1.2083333333333179
 50
127.52351320610693
 51
52.47648680188081
  0
ARC
  8
_0-1_線色１__水色__
  6
CONTINUOUS
 62
    4
 10
1224.9123322110052
 20
714.06463775796169
 40
1.2083333333333179
 50
127.52351320610693
 51
52.47648680188081
  0
ARC
  8
_0-1_線色１__水色__
  6
CONTINUOUS
 62
    4
 10
1226.3842923552136
 20
715.98130442476645
 40
1.2083333333333581
 50
307.52351320333912
 51
232.47648680464988
  0
ARC
  8
_0-1_線色１__水色__
  6
CONTINUOUS
 62
    4
 10
1230.8001727883709
 20
714.06463775837096
 40
1.2083333333333179
 50
127.52351320610693
 51
52.47648680188081
  0
ARC
  8
_0-1_線色１__水色__
  6
CONTINUOUS
 62
    4
 10
1229.3282126438987
 20
715.98130442497109
 40
1.2083333333333581
 50
307.52351320333912
 51
232.47648680464988
  0
ARC
  8
_0-1_線色１__水色__
  6
CONTINUOUS
 62
    4
 10
1233.744093077056
 20
714.0646377585756
 40
1.2083333333333179
 50
127.52351320610693
 51
52.47648680188081
  0
ARC
  8
_0-1_線色１__水色__
  6
CONTINUOUS
 62
    4
 10
1232.2721329325793
 20
715.98130442517572
 40
1.2083333333333581
 50
307.52351320333912
 51
232.47648680464988
  0
ARC
  8
_0-1_線色１__水色__
  6
CONTINUOUS
 62
    4
 10
1236.6880133657412
 20
714.06463775878251
 40
1.2083333333333179
 50
127.52351320610693
 51
52.47648680188081
  0
ARC
  8
_0-1_線色１__水色__
  6
CONTINUOUS
 62
    4
 10
1235.2160532212645
 20
715.98130442538036
 40
1.2083333333333581
 50
307.52351320333912
 51
232.47648680464988
  0
ARC
  8
_0-1_線色１__水色__
  6
CONTINUOUS
 62
    4
 10
1239.6319336544218
 20
714.06463775898715
 40
1.2083333333333179
 50
127.52351320610693
 51
52.47648680188081
  0
ARC
  8
_0-1_線色１__水色__
  6
CONTINUOUS
 62
    4
 10
1238.1599735099496
 20
715.98130442558727
 40
1.2083333333333581
 50
307.52351320333912
 51
232.47648680464988
  0
ARC
  8
_0-1_線色１__水色__
  6
CONTINUOUS
 62
    4
 10
1242.5758539431069
 20
714.06463775919178
 40
1.2083333333333179
 50
127.52351320610693
 51
52.47648680188081
  0
ARC
  8
_0-1_線色１__水色__
  6
CONTINUOUS
 62
    4
 10
1241.1038937986302
 20
715.9813044257919
 40
1.2083333333333581
 50
307.52351320333912
 51
232.47648680464988
  0
ARC
  8
_0-1_線色１__水色__
  6
CONTINUOUS
 62
    4
 10
1245.5197742317921
 20
714.06463775939642
 40
1.2083333333333179
 50
127.52351320610693
 51
52.47648680188081
  0
ARC
  8
_0-1_線色１__水色__
  6
CONTINUOUS
 62
    4
 10
1244.0478140873154
 20
715.98130442599654
 40
1.2083333333333581
 50
307.52351320333912
 51
232.47648680464988
  0
ARC
  8
_0-1_線色１__水色__
  6
CONTINUOUS
 62
    4
 10
1213.1366510563191
 20
714.06463775710449
 40
1.2083333333333179
 50
127.52351320610693
 51
52.47648680188081
  0
ARC
  8
_0-1_線色１__水色__
  6
CONTINUOUS
 62
    4
 10
1208.7207706231573
 20
715.98130442411389
 40
1.2083333333333581
 50
307.52351320333912
 51
232.47648680464988
  0
ARC
  8
_0-1_線色１__水色__
  6
CONTINUOUS
 62
    4
 10
1210.192730767634
 20
714.06463775751376
 40
1.2083333333333179
 50
127.52351320610693
 51
52.47648680188081
  0
ARC
  8
_0-1_線色１__水色__
  6
CONTINUOUS
 62
    4
 10
1211.6646909118424
 20
715.98130442431852
 40
1.2083333333333581
 50
307.52351320333912
 51
232.47648680464988
  0
ARC
  8
_0-1_線色１__水色__
  6
CONTINUOUS
 62
    4
 10
1274.9589771186231
 20
714.06463776021724
 40
1.2083333333333179
 50
127.52351320610693
 51
52.47648680188081
  0
ARC
  8
_0-1_線色１__水色__
  6
CONTINUOUS
 62
    4
 10
1277.902897407306
 20
714.06463776042187
 40
1.2083333333333179
 50
127.52351320610693
 51
52.47648680188081
  0
ARC
  8
_0-1_線色１__水色__
  6
CONTINUOUS
 62
    4
 10
1276.4309372628315
 20
715.981304427022
 40
1.2083333333333581
 50
307.52351320333912
 51
232.47648680464988
  0
ARC
  8
_0-1_線色１__水色__
  6
CONTINUOUS
 62
    4
 10
1280.8468176959911
 20
714.06463776062651
 40
1.2083333333333179
 50
127.52351320610693
 51
52.47648680188081
  0
ARC
  8
_0-1_線色１__水色__
  6
CONTINUOUS
 62
    4
 10
1279.3748575515144
 20
715.98130442722663
 40
1.2083333333333581
 50
307.52351320333912
 51
232.47648680464988
  0
ARC
  8
_0-1_線色１__水色__
  6
CONTINUOUS
 62
    4
 10
1282.3187778401973
 20
715.98130442743354
 40
1.2083333333333581
 50
307.52351320333912
 51
232.47648680464988
  0
ARC
  8
_0-1_線色１__水色__
  6
CONTINUOUS
 62
    4
 10
1301.4542597167508
 20
714.06463776146552
 40
1.2083333333333179
 50
127.52351320610693
 51
52.47648680188081
  0
ARC
  8
_0-1_線色１__水色__
  6
CONTINUOUS
 62
    4
 10
1295.5664191393828
 20
714.06463776105625
 40
1.2083333333333179
 50
127.52351320610693
 51
52.47648680188081
  0
ARC
  8
_0-1_線色１__水色__
  6
CONTINUOUS
 62
    4
 10
1294.0944589949083
 20
715.98130442765637
 40
1.2083333333333581
 50
307.52351320333912
 51
232.47648680464988
  0
ARC
  8
_0-1_線色１__水色__
  6
CONTINUOUS
 62
    4
 10
1298.5103394280679
 20
714.06463776126088
 40
1.2083333333333179
 50
127.52351320610693
 51
52.47648680188081
  0
ARC
  8
_0-1_線色１__水色__
  6
CONTINUOUS
 62
    4
 10
1297.0383792835912
 20
715.98130442786101
 40
1.2083333333333581
 50
307.52351320333912
 51
232.47648680464988
  0
ARC
  8
_0-1_線色１__水色__
  6
CONTINUOUS
 62
    4
 10
1299.9822995722741
 20
715.98130442806564
 40
1.2083333333333581
 50
307.52351320333912
 51
232.47648680464988
  0
ARC
  8
_0-1_線色１__水色__
  6
CONTINUOUS
 62
    4
 10
1329.4215024590846
 20
715.98130442952083
 40
1.2083333333333581
 50
307.52351320333912
 51
232.47648680464988
  0
ARC
  8
_0-1_線色１__水色__
  6
CONTINUOUS
 62
    4
 10
1352.9728647685522
 20
715.98130443054629
 40
1.2083333333333581
 50
307.52351320333912
 51
232.47648680464988
  0
ARC
  8
_0-1_線色１__水色__
  6
CONTINUOUS
 62
    4
 10
1333.8373828922442
 20
714.06463776312535
 40
1.2083333333333179
 50
127.52351320610693
 51
52.47648680188081
  0
ARC
  8
_0-1_線色１__水色__
  6
CONTINUOUS
 62
    4
 10
1330.8934626035614
 20
714.06463776292071
 40
1.2083333333333179
 50
127.52351320610693
 51
52.47648680188081
  0
ARC
  8
_0-1_線色１__水色__
  6
CONTINUOUS
 62
    4
 10
1332.3654227477698
 20
715.98130442972547
 40
1.2083333333333581
 50
307.52351320333912
 51
232.47648680464988
  0
ARC
  8
_0-1_線色１__水色__
  6
CONTINUOUS
 62
    4
 10
1336.7813031809271
 20
714.06463776333226
 40
1.2083333333333179
 50
127.52351320610693
 51
52.47648680188081
  0
ARC
  8
_0-1_線色１__水色__
  6
CONTINUOUS
 62
    4
 10
1335.3093430364527
 20
715.98130442993011
 40
1.2083333333333581
 50
307.52351320333912
 51
232.47648680464988
  0
ARC
  8
_0-1_線色１__水色__
  6
CONTINUOUS
 62
    4
 10
1339.72522346961
 20
714.06463776353689
 40
1.2083333333333179
 50
127.52351320610693
 51
52.47648680188081
  0
ARC
  8
_0-1_線色１__水色__
  6
CONTINUOUS
 62
    4
 10
1338.2532633251355
 20
715.98130443013702
 40
1.2083333333333581
 50
307.52351320333912
 51
232.47648680464988
  0
ARC
  8
_0-1_線色１__水色__
  6
CONTINUOUS
 62
    4
 10
1342.6691437582951
 20
714.06463776374153
 40
1.2083333333333179
 50
127.52351320610693
 51
52.47648680188081
  0
ARC
  8
_0-1_線色１__水色__
  6
CONTINUOUS
 62
    4
 10
1341.1971836138184
 20
715.98130443034165
 40
1.2083333333333581
 50
307.52351320333912
 51
232.47648680464988
  0
ARC
  8
_0-1_線色１__水色__
  6
CONTINUOUS
 62
    4
 10
1345.613064046978
 20
714.06463776394617
 40
1.2083333333333179
 50
127.52351320610693
 51
52.47648680188081
  0
ARC
  8
_0-1_線色１__水色__
  6
CONTINUOUS
 62
    4
 10
1344.1411039025036
 20
715.98130443054629
 40
1.2083333333333581
 50
307.52351320333912
 51
232.47648680464988
  0
ARC
  8
_0-1_線色１__水色__
  6
CONTINUOUS
 62
    4
 10
1348.5569843356609
 20
714.0646377641508
 40
1.2083333333333179
 50
127.52351320610693
 51
52.47648680188081
  0
ARC
  8
_0-1_線色１__水色__
  6
CONTINUOUS
 62
    4
 10
1347.0850241911864
 20
715.98130443075092
 40
1.2083333333333581
 50
307.52351320333912
 51
232.47648680464988
  0
ARC
  8
_0-1_線色１__水色__
  6
CONTINUOUS
 62
    4
 10
1351.5009046243438
 20
714.06463776435771
 40
1.2083333333333179
 50
127.52351320610693
 51
52.47648680188081
  0
ARC
  8
_0-1_線色１__水色__
  6
CONTINUOUS
 62
    4
 10
1350.0289444798693
 20
715.98130443095783
 40
1.2083333333333581
 50
307.52351320333912
 51
232.47648680464988
  0
ARC
  8
_0-1_線色１__水色__
  6
CONTINUOUS
 62
    4
 10
1302.9262198609365
 20
715.98130442828847
 40
1.2083333333333581
 50
307.52351320333912
 51
232.47648680464988
  0
ARC
  8
_0-1_線色１__水色__
  6
CONTINUOUS
 62
    4
 10
1326.4775821704018
 20
715.9813044293162
 40
1.2083333333333581
 50
307.52351320333912
 51
232.47648680464988
  0
ARC
  8
_0-1_線色１__水色__
  6
CONTINUOUS
 62
    4
 10
1327.9495423148785
 20
714.06463776271607
 40
1.2083333333333179
 50
127.52351320610693
 51
52.47648680188081
  0
ARC
  8
_0-1_線色１__水色__
  6
CONTINUOUS
 62
    4
 10
1307.3421002940938
 20
714.06463776189526
 40
1.2083333333333179
 50
127.52351320610693
 51
52.47648680188081
  0
ARC
  8
_0-1_線色１__水色__
  6
CONTINUOUS
 62
    4
 10
1304.3981800054109
 20
714.06463776169062
 40
1.2083333333333179
 50
127.52351320610693
 51
52.47648680188081
  0
ARC
  8
_0-1_線色１__水色__
  6
CONTINUOUS
 62
    4
 10
1305.8701401496194
 20
715.98130442849538
 40
1.2083333333333581
 50
307.52351320333912
 51
232.47648680464988
  0
ARC
  8
_0-1_線色１__水色__
  6
CONTINUOUS
 62
    4
 10
1310.2860205827767
 20
714.06463776209989
 40
1.2083333333333179
 50
127.52351320610693
 51
52.47648680188081
  0
ARC
  8
_0-1_線色１__水色__
  6
CONTINUOUS
 62
    4
 10
1308.8140604383022
 20
715.98130442870001
 40
1.2083333333333581
 50
307.52351320333912
 51
232.47648680464988
  0
ARC
  8
_0-1_線色１__水色__
  6
CONTINUOUS
 62
    4
 10
1313.2299408714618
 20
714.06463776230453
 40
1.2083333333333179
 50
127.52351320610693
 51
52.47648680188081
  0
ARC
  8
_0-1_線色１__水色__
  6
CONTINUOUS
 62
    4
 10
1311.7579807269851
 20
715.98130442890465
 40
1.2083333333333581
 50
307.52351320333912
 51
232.47648680464988
  0
ARC
  8
_0-1_線色１__水色__
  6
CONTINUOUS
 62
    4
 10
1316.1738611601447
 20
714.06463776251144
 40
1.2083333333333179
 50
127.52351320610693
 51
52.47648680188081
  0
ARC
  8
_0-1_線色１__水色__
  6
CONTINUOUS
 62
    4
 10
1314.7019010156703
 20
715.98130442910929
 40
1.2083333333333581
 50
307.52351320333912
 51
232.47648680464988
  0
ARC
  8
_0-1_線色１__水色__
  6
CONTINUOUS
 62
    4
 10
1319.1177814488276
 20
714.06463776271607
 40
1.2083333333333179
 50
127.52351320610693
 51
52.47648680188081
  0
ARC
  8
_0-1_線色１__水色__
  6
CONTINUOUS
 62
    4
 10
1317.6458213043531
 20
715.9813044293162
 40
1.2083333333333581
 50
307.52351320333912
 51
232.47648680464988
  0
ARC
  8
_0-1_線色１__水色__
  6
CONTINUOUS
 62
    4
 10
1322.0617017375105
 20
714.06463776292071
 40
1.2083333333333179
 50
127.52351320610693
 51
52.47648680188081
  0
ARC
  8
_0-1_線色１__水色__
  6
CONTINUOUS
 62
    4
 10
1320.589741593036
 20
715.98130442952083
 40
1.2083333333333581
 50
307.52351320333912
 51
232.47648680464988
  0
ARC
  8
_0-1_線色１__水色__
  6
CONTINUOUS
 62
    4
 10
1325.0056220261956
 20
714.06463776312535
 40
1.2083333333333179
 50
127.52351320610693
 51
52.47648680188081
  0
ARC
  8
_0-1_線色１__水色__
  6
CONTINUOUS
 62
    4
 10
1323.5336618817189
 20
715.98130442972547
 40
1.2083333333333581
 50
307.52351320333912
 51
232.47648680464988
  0
ARC
  8
_0-1_線色１__水色__
  6
CONTINUOUS
 62
    4
 10
1292.6224988507226
 20
714.06463776083342
 40
1.2083333333333179
 50
127.52351320610693
 51
52.47648680188081
  0
ARC
  8
_0-1_線色１__水色__
  6
CONTINUOUS
 62
    4
 10
1283.790737984674
 20
714.06463776083342
 40
1.2083333333333179
 50
127.52351320610693
 51
52.47648680188081
  0
ARC
  8
_0-1_線色１__水色__
  6
CONTINUOUS
 62
    4
 10
1285.2626981288802
 20
715.98130442763818
 40
1.2083333333333581
 50
307.52351320333912
 51
232.47648680464988
  0
ARC
  8
_0-1_線色１__水色__
  6
CONTINUOUS
 62
    4
 10
1286.7346582733569
 20
714.06463776103806
 40
1.2083333333333179
 50
127.52351320610693
 51
52.47648680188081
  0
ARC
  8
_0-1_線色１__水色__
  6
CONTINUOUS
 62
    4
 10
1288.206618417563
 20
715.98130442784282
 40
1.2083333333333581
 50
307.52351320333912
 51
232.47648680464988
  0
ARC
  8
_0-1_線色１__水色__
  6
CONTINUOUS
 62
    4
 10
1289.6785785620398
 20
714.06463776124269
 40
1.2083333333333179
 50
127.52351320610693
 51
52.47648680188081
  0
ARC
  8
_0-1_線色１__水色__
  6
CONTINUOUS
 62
    4
 10
1291.1505387062459
 20
715.98130442804745
 40
1.2083333333333581
 50
307.52351320333912
 51
232.47648680464988
  0
ARC
  8
_0-1_線色１__水色__
  6
CONTINUOUS
 62
    4
 10
1354.4448249130267
 20
714.06463776394617
 40
1.2083333333333179
 50
127.52351320610693
 51
52.47648680188081
  0
ARC
  8
_0-1_線色１__水色__
  6
CONTINUOUS
 62
    4
 10
1357.3887452017095
 20
714.0646377641508
 40
1.2083333333333179
 50
127.52351320610693
 51
52.47648680188081
  0
ARC
  8
_0-1_線色１__水色__
  6
CONTINUOUS
 62
    4
 10
1355.9167850572351
 20
715.98130443075092
 40
1.2083333333333581
 50
307.52351320333912
 51
232.47648680464988
  0
ARC
  8
_0-1_線色１__水色__
  6
CONTINUOUS
 62
    4
 10
1360.3326654903947
 20
714.06463776435544
 40
1.2083333333333179
 50
127.52351320610693
 51
52.47648680188081
  0
ARC
  8
_0-1_線色１__水色__
  6
CONTINUOUS
 62
    4
 10
1358.8607053459179
 20
715.98130443095556
 40
1.2083333333333581
 50
307.52351320333912
 51
232.47648680464988
  0
ARC
  8
_0-1_線色１__水色__
  6
CONTINUOUS
 62
    4
 10
1361.8046256346008
 20
715.98130443116247
 40
1.2083333333333581
 50
307.52351320333912
 51
232.47648680464988
  0
ARC
  8
_0-1_線色１__水色__
  6
CONTINUOUS
 62
    4
 10
1380.9401075111543
 20
714.06463776519445
 40
1.2083333333333179
 50
127.52351320610693
 51
52.47648680188081
  0
ARC
  8
_0-1_線色１__水色__
  6
CONTINUOUS
 62
    4
 10
1375.0522669337863
 20
714.06463776478518
 40
1.2083333333333179
 50
127.52351320610693
 51
52.47648680188081
  0
ARC
  8
_0-1_線色１__水色__
  6
CONTINUOUS
 62
    4
 10
1373.5803067893119
 20
715.9813044313853
 40
1.2083333333333581
 50
307.52351320333912
 51
232.47648680464988
  0
ARC
  8
_0-1_線色１__水色__
  6
CONTINUOUS
 62
    4
 10
1377.9961872224715
 20
714.06463776498981
 40
1.2083333333333179
 50
127.52351320610693
 51
52.47648680188081
  0
ARC
  8
_0-1_線色１__水色__
  6
CONTINUOUS
 62
    4
 10
1376.5242270779947
 20
715.98130443158993
 40
1.2083333333333581
 50
307.52351320333912
 51
232.47648680464988
  0
ARC
  8
_0-1_線色１__水色__
  6
CONTINUOUS
 62
    4
 10
1379.4681473666776
 20
715.98130443179457
 40
1.2083333333333581
 50
307.52351320333912
 51
232.47648680464988
  0
ARC
  8
_0-1_線色１__水色__
  6
CONTINUOUS
 62
    4
 10
1408.9073502534882
 20
715.98130443324976
 40
1.2083333333333581
 50
307.52351320333912
 51
232.47648680464988
  0
ARC
  8
_0-1_線色１__水色__
  6
CONTINUOUS
 62
    4
 10
1432.4587125629557
 20
715.98130443427522
 40
1.2083333333333581
 50
307.52351320333912
 51
232.47648680464988
  0
ARC
  8
_0-1_線色１__水色__
  6
CONTINUOUS
 62
    4
 10
1413.3232306866478
 20
714.06463776685428
 40
1.2083333333333179
 50
127.52351320610693
 51
52.47648680188081
  0
ARC
  8
_0-1_線色１__水色__
  6
CONTINUOUS
 62
    4
 10
1410.3793103979649
 20
714.06463776664964
 40
1.2083333333333179
 50
127.52351320610693
 51
52.47648680188081
  0
ARC
  8
_0-1_線色１__水色__
  6
CONTINUOUS
 62
    4
 10
1411.8512705421733
 20
715.9813044334544
 40
1.2083333333333581
 50
307.52351320333912
 51
232.47648680464988
  0
ARC
  8
_0-1_線色１__水色__
  6
CONTINUOUS
 62
    4
 10
1416.2671509753307
 20
714.06463776706119
 40
1.2083333333333179
 50
127.52351320610693
 51
52.47648680188081
  0
ARC
  8
_0-1_線色１__水色__
  6
CONTINUOUS
 62
    4
 10
1414.7951908308562
 20
715.98130443365903
 40
1.2083333333333581
 50
307.52351320333912
 51
232.47648680464988
  0
ARC
  8
_0-1_線色１__水色__
  6
CONTINUOUS
 62
    4
 10
1419.2110712640135
 20
714.06463776726582
 40
1.2083333333333179
 50
127.52351320610693
 51
52.47648680188081
  0
ARC
  8
_0-1_線色１__水色__
  6
CONTINUOUS
 62
    4
 10
1417.7391111195391
 20
715.98130443386594
 40
1.2083333333333581
 50
307.52351320333912
 51
232.47648680464988
  0
ARC
  8
_0-1_線色１__水色__
  6
CONTINUOUS
 62
    4
 10
1422.1549915526987
 20
714.06463776747046
 40
1.2083333333333179
 50
127.52351320610693
 51
52.47648680188081
  0
ARC
  8
_0-1_線色１__水色__
  6
CONTINUOUS
 62
    4
 10
1420.683031408222
 20
715.98130443407058
 40
1.2083333333333581
 50
307.52351320333912
 51
232.47648680464988
  0
ARC
  8
_0-1_線色１__水色__
  6
CONTINUOUS
 62
    4
 10
1425.0989118413816
 20
714.06463776767509
 40
1.2083333333333179
 50
127.52351320610693
 51
52.47648680188081
  0
ARC
  8
_0-1_線色１__水色__
  6
CONTINUOUS
 62
    4
 10
1423.6269516969071
 20
715.98130443427522
 40
1.2083333333333581
 50
307.52351320333912
 51
232.47648680464988
  0
ARC
  8
_0-1_線色１__水色__
  6
CONTINUOUS
 62
    4
 10
1428.0428321300644
 20
714.06463776787973
 40
1.2083333333333179
 50
127.52351320610693
 51
52.47648680188081
  0
ARC
  8
_0-1_線色１__水色__
  6
CONTINUOUS
 62
    4
 10
1426.57087198559
 20
715.98130443447985
 40
1.2083333333333581
 50
307.52351320333912
 51
232.47648680464988
  0
ARC
  8
_0-1_線色１__水色__
  6
CONTINUOUS
 62
    4
 10
1430.9867524187473
 20
714.06463776808664
 40
1.2083333333333179
 50
127.52351320610693
 51
52.47648680188081
  0
ARC
  8
_0-1_線色１__水色__
  6
CONTINUOUS
 62
    4
 10
1429.5147922742728
 20
715.98130443468676
 40
1.2083333333333581
 50
307.52351320333912
 51
232.47648680464988
  0
ARC
  8
_0-1_線色１__水色__
  6
CONTINUOUS
 62
    4
 10
1382.41206765534
 20
715.9813044320174
 40
1.2083333333333581
 50
307.52351320333912
 51
232.47648680464988
  0
ARC
  8
_0-1_線色１__水色__
  6
CONTINUOUS
 62
    4
 10
1405.9634299648053
 20
715.98130443304512
 40
1.2083333333333581
 50
307.52351320333912
 51
232.47648680464988
  0
ARC
  8
_0-1_線色１__水色__
  6
CONTINUOUS
 62
    4
 10
1407.435390109282
 20
714.064637766445
 40
1.2083333333333179
 50
127.52351320610693
 51
52.47648680188081
  0
ARC
  8
_0-1_線色１__水色__
  6
CONTINUOUS
 62
    4
 10
1386.8279480884974
 20
714.06463776562418
 40
1.2083333333333179
 50
127.52351320610693
 51
52.47648680188081
  0
ARC
  8
_0-1_線色１__水色__
  6
CONTINUOUS
 62
    4
 10
1383.8840277998145
 20
714.06463776541955
 40
1.2083333333333179
 50
127.52351320610693
 51
52.47648680188081
  0
ARC
  8
_0-1_線色１__水色__
  6
CONTINUOUS
 62
    4
 10
1385.3559879440229
 20
715.98130443222431
 40
1.2083333333333581
 50
307.52351320333912
 51
232.47648680464988
  0
ARC
  8
_0-1_線色１__水色__
  6
CONTINUOUS
 62
    4
 10
1389.7718683771802
 20
714.06463776582882
 40
1.2083333333333179
 50
127.52351320610693
 51
52.47648680188081
  0
ARC
  8
_0-1_線色１__水色__
  6
CONTINUOUS
 62
    4
 10
1388.2999082327058
 20
715.98130443242894
 40
1.2083333333333581
 50
307.52351320333912
 51
232.47648680464988
  0
ARC
  8
_0-1_線色１__水色__
  6
CONTINUOUS
 62
    4
 10
1392.7157886658654
 20
714.06463776603346
 40
1.2083333333333179
 50
127.52351320610693
 51
52.47648680188081
  0
ARC
  8
_0-1_線色１__水色__
  6
CONTINUOUS
 62
    4
 10
1391.2438285213887
 20
715.98130443263358
 40
1.2083333333333581
 50
307.52351320333912
 51
232.47648680464988
  0
ARC
  8
_0-1_線色１__水色__
  6
CONTINUOUS
 62
    4
 10
1395.6597089545483
 20
714.06463776624037
 40
1.2083333333333179
 50
127.52351320610693
 51
52.47648680188081
  0
ARC
  8
_0-1_線色１__水色__
  6
CONTINUOUS
 62
    4
 10
1394.1877488100738
 20
715.98130443283821
 40
1.2083333333333581
 50
307.52351320333912
 51
232.47648680464988
  0
ARC
  8
_0-1_線色１__水色__
  6
CONTINUOUS
 62
    4
 10
1398.6036292432311
 20
714.064637766445
 40
1.2083333333333179
 50
127.52351320610693
 51
52.47648680188081
  0
ARC
  8
_0-1_線色１__水色__
  6
CONTINUOUS
 62
    4
 10
1397.1316690987567
 20
715.98130443304512
 40
1.2083333333333581
 50
307.52351320333912
 51
232.47648680464988
  0
ARC
  8
_0-1_線色１__水色__
  6
CONTINUOUS
 62
    4
 10
1401.547549531914
 20
714.06463776664964
 40
1.2083333333333179
 50
127.52351320610693
 51
52.47648680188081
  0
ARC
  8
_0-1_線色１__水色__
  6
CONTINUOUS
 62
    4
 10
1400.0755893874395
 20
715.98130443324976
 40
1.2083333333333581
 50
307.52351320333912
 51
232.47648680464988
  0
ARC
  8
_0-1_線色１__水色__
  6
CONTINUOUS
 62
    4
 10
1404.4914698205991
 20
714.06463776685428
 40
1.2083333333333179
 50
127.52351320610693
 51
52.47648680188081
  0
ARC
  8
_0-1_線色１__水色__
  6
CONTINUOUS
 62
    4
 10
1403.0195096761224
 20
715.9813044334544
 40
1.2083333333333581
 50
307.52351320333912
 51
232.47648680464988
  0
ARC
  8
_0-1_線色１__水色__
  6
CONTINUOUS
 62
    4
 10
1372.1083466451284
 20
714.06463776456235
 40
1.2083333333333179
 50
127.52351320610693
 51
52.47648680188081
  0
ARC
  8
_0-1_線色１__水色__
  6
CONTINUOUS
 62
    4
 10
1363.2765857790775
 20
714.06463776456235
 40
1.2083333333333179
 50
127.52351320610693
 51
52.47648680188081
  0
ARC
  8
_0-1_線色１__水色__
  6
CONTINUOUS
 62
    4
 10
1364.7485459232837
 20
715.98130443136711
 40
1.2083333333333581
 50
307.52351320333912
 51
232.47648680464988
  0
ARC
  8
_0-1_線色１__水色__
  6
CONTINUOUS
 62
    4
 10
1366.2205060677604
 20
714.06463776476699
 40
1.2083333333333179
 50
127.52351320610693
 51
52.47648680188081
  0
ARC
  8
_0-1_線色１__水色__
  6
CONTINUOUS
 62
    4
 10
1367.6924662119666
 20
715.98130443157174
 40
1.2083333333333581
 50
307.52351320333912
 51
232.47648680464988
  0
ARC
  8
_0-1_線色１__水色__
  6
CONTINUOUS
 62
    4
 10
1369.1644263564433
 20
714.06463776497162
 40
1.2083333333333179
 50
127.52351320610693
 51
52.47648680188081
  0
ARC
  8
_0-1_線色１__水色__
  6
CONTINUOUS
 62
    4
 10
1370.6363865006495
 20
715.98130443177638
 40
1.2083333333333581
 50
307.52351320333912
 51
232.47648680464988
  0
ARC
  8
_0-1_線色１__水色__
  6
CONTINUOUS
 62
    4
 10
1433.9306727074324
 20
714.06463776767737
 40
1.2083333333333179
 50
127.52351320610693
 51
52.47648680188081
  0
ARC
  8
_0-1_線色１__水色__
  6
CONTINUOUS
 62
    4
 10
1436.8745929961131
 20
714.064637767882
 40
1.2083333333333179
 50
127.52351320610693
 51
52.47648680188081
  0
ARC
  8
_0-1_線色１__水色__
  6
CONTINUOUS
 62
    4
 10
1435.4026328516409
 20
715.98130443448213
 40
1.2083333333333581
 50
307.52351320333912
 51
232.47648680464988
  0
ARC
  8
_0-1_線色１__水色__
  6
CONTINUOUS
 62
    4
 10
1439.8185132847982
 20
714.06463776808664
 40
1.2083333333333179
 50
127.52351320610693
 51
52.47648680188081
  0
ARC
  8
_0-1_線色１__水色__
  6
CONTINUOUS
 62
    4
 10
1438.3465531403215
 20
715.98130443468676
 40
1.2083333333333581
 50
307.52351320333912
 51
232.47648680464988
  0
ARC
  8
_0-1_線色１__水色__
  6
CONTINUOUS
 62
    4
 10
1441.2904734290066
 20
715.9813044348914
 40
1.2083333333333581
 50
307.52351320333912
 51
232.47648680464988
  0
ARC
  8
_0-1_線色１__水色__
  6
CONTINUOUS
 62
    4
 10
1454.5381147281921
 20
714.06463776851638
 40
1.2083333333333179
 50
127.52351320610693
 51
52.47648680188081
  0
ARC
  8
_0-1_線色１__水色__
  6
CONTINUOUS
 62
    4
 10
1453.0661545837154
 20
715.98130443511423
 40
1.2083333333333581
 50
307.52351320333912
 51
232.47648680464988
  0
ARC
  8
_0-1_線色１__水色__
  6
CONTINUOUS
 62
    4
 10
1456.0100748724005
 20
715.98130443532114
 40
1.2083333333333581
 50
307.52351320333912
 51
232.47648680464988
  0
ARC
  8
_0-1_線色１__水色__
  6
CONTINUOUS
 62
    4
 10
1451.594194439532
 20
714.06463776829128
 40
1.2083333333333179
 50
127.52351320610693
 51
52.47648680188081
  0
ARC
  8
_0-1_線色１__水色__
  6
CONTINUOUS
 62
    4
 10
1442.7624335734833
 20
714.06463776829128
 40
1.2083333333333179
 50
127.52351320610693
 51
52.47648680188081
  0
ARC
  8
_0-1_線色１__水色__
  6
CONTINUOUS
 62
    4
 10
1444.2343937176872
 20
715.98130443509831
 40
1.2083333333333581
 50
307.52351320333912
 51
232.47648680464988
  0
ARC
  8
_0-1_線色１__水色__
  6
CONTINUOUS
 62
    4
 10
1445.706353862164
 20
714.06463776849819
 40
1.2083333333333179
 50
127.52351320610693
 51
52.47648680188081
  0
ARC
  8
_0-1_線色１__水色__
  6
CONTINUOUS
 62
    4
 10
1447.1783140063724
 20
715.98130443530295
 40
1.2083333333333581
 50
307.52351320333912
 51
232.47648680464988
  0
ARC
  8
_0-1_線色１__水色__
  6
CONTINUOUS
 62
    4
 10
1448.6502741508491
 20
714.06463776870282
 40
1.2083333333333179
 50
127.52351320610693
 51
52.47648680188081
  0
ARC
  8
_0-1_線色１__水色__
  6
CONTINUOUS
 62
    4
 10
1450.122234295053
 20
715.98130443550758
 40
1.2083333333333581
 50
307.52351320333912
 51
232.47648680464988
  0
ARC
  8
_0-1_線色１__水色__
  6
CONTINUOUS
 62
    4
 10
1457.4820350168773
 20
714.06463776872101
 40
1.2083333333333179
 50
127.52351320610693
 51
328.9835699753246
  0
ARC
  8
_0-1_線色１__水色__
  6
CONTINUOUS
 62
    4
 10
1457.4820350168773
 20
714.06463776872101
 40
1.2083333333333179
 50
31.016430024675358
 51
52.476486801880846
  0
ARC
  8
_0-1_線色１__水色__
  6
CONTINUOUS
 62
    4
 10
1458.9539951610811
 20
715.98130443552577
 40
1.2083333333333581
 50
111.1711048205416
 51
232.47648680464988
  0
LINE
  8
_0-2_線色２__白__
  6
CONTINUOUS
 62
    7
 10
641.48239966435199
 20
712.5229710933661
 11
1193.8747000000023
 21
712.5229710933661
  0
LINE
  8
_0-2_線色２__白__
  6
CONTINUOUS
 62
    7
 10
1206.1247000000014
 20
712.5229710933661
 11
1458.5176003356526
 21
712.5229710933661
  0
LINE
  8
_0-2_線色２__白__
  6
CONTINUOUS
 62
    7
 10
641.48239966435199
 20
717.5229710933661
 11
1193.8747000000023
 21
717.5229710933661
  0
LINE
  8
_0-2_線色２__白__
  6
CONTINUOUS
 62
    7
 10
1206.1247000000014
 20
717.5229710933661
 11
1458.5176003356526
 21
717.5229710933661
  0
LINE
  8
_0-4_線色４__黄__
  6
CONTINUOUS
 62
    2
 10
1125.0000000000011
 20
722.5229710933661
 11
1193.8747000000023
 21
722.5229710933661
  0
LINE
  8
_0-4_線色４__黄__
  6
CONTINUOUS
 62
    2
 10
1206.1247000000014
 20
722.5229710933661
 11
1458.5176003356526
 21
722.5229710933661
  0
ARC
  8
_0-1_線色１__水色__
  6
CONTINUOUS
 62
    4
 10
1194.0011691797429
 20
715.98130442308843
 40
1.2083333333333581
 50
96.007817084133961
 51
232.47648680464988
  0
ARC
  8
_0-1_線色１__水色__
  6
CONTINUOUS
 62
    4
 10
1205.7768503344766
 20
715.98130442390925
 40
1.2083333333333581
 50
307.52351320333918
 51
73.269186924643918
  0
ARC
  8
_0-1_線色１__水色__
  6
CONTINUOUS
 62
    4
 10
1207.2488104789534
 20
714.06463775730913
 40
1.2083333333333179
 50
127.52351320610693
 51
158.48136660338102
  0
ARC
  8
_0-1_線色１__水色__
  6
CONTINUOUS
 62
    4
 10
1207.2488104789534
 20
714.06463775730913
 40
1.2083333333333179
 50
201.51863339661901
 51
52.47648680188081
  0
LINE
  8
_0-6_鋼板__アングル
  6
CONTINUOUS
 62
    2
 10
1057.2873819864333
 20
731.3120127136051
 11
1076.0000000000002
 21
731.3120127136051
  0
LINE
  8
_0-6_鋼板__アングル
  6
CONTINUOUS
 62
    2
 10
1057.2873819864333
 20
729.71201271360428
 11
1075.6452885397709
 21
729.71201271360428
  0
LINE
  8
_0-6_鋼板__アングル
  6
CONTINUOUS
 62
    2
 10
1080.0000000000011
 20
729.4467820809848
 11
1079.3238107812147
 21
727.99668962172632
  0
LINE
  8
_0-6_鋼板__アングル
  6
CONTINUOUS
 62
    2
 10
1076.0000000000002
 20
731.3120127136051
 11
1080.0000000000011
 21
729.4467820809848
  0
LINE
  8
_0-6_鋼板__アングル
  6
CONTINUOUS
 62
    2
 10
1075.6452885397709
 20
729.71201271360428
 11
1079.3238107812147
 21
727.99668962172632
  0
LINE
  8
_0-6_鋼板__アングル
  6
CONTINUOUS
 62
    2
 10
1042.7126180135645
 20
729.71201271360428
 11
1024.3547114602268
 21
729.71201271360428
  0
LINE
  8
_0-6_鋼板__アングル
  6
CONTINUOUS
 62
    2
 10
1042.7126180135645
 20
731.3120127136051
 11
1023.9999999999998
 21
731.3120127136051
  0
LINE
  8
_0-6_鋼板__アングル
  6
CONTINUOUS
 62
    2
 10
1024.3547114602268
 20
729.71201271360428
 11
1020.6761892187831
 21
727.99668962172632
  0
LINE
  8
_0-6_鋼板__アングル
  6
CONTINUOUS
 62
    2
 10
1019.9999999999989
 20
729.4467820809848
 11
1020.6761892187831
 21
727.99668962172632
  0
LINE
  8
_0-6_鋼板__アングル
  6
CONTINUOUS
 62
    2
 10
1023.9999999999998
 20
731.3120127136051
 11
1019.9999999999989
 21
729.4467820809848
  0
LINE
  8
_0-6_鋼板__アングル
  6
CONTINUOUS
 62
    2
 10
1045.9521752792341
 20
727.5229710933661
 11
1046.8999999999994
 21
728.8120127136051
  0
LINE
  8
_0-6_鋼板__アングル
  6
CONTINUOUS
 62
    2
 10
1044.1343550947101
 20
730.84557514396352
 11
1046.8999999999994
 21
728.8120127136051
  0
ARC
  8
_0-6_鋼板__アングル
  6
CONTINUOUS
 62
    2
 10
1042.7126180135645
 20
728.91201271360501
 40
2.3999999999999999
 50
53.673174047879257
 51
90
  0
LINE
  8
_0-6_鋼板__アングル
  6
CONTINUOUS
 62
    2
 10
1043.1865303739494
 20
729.55653352372451
 11
1045.9521752792341
 21
727.5229710933661
  0
ARC
  8
_0-6_鋼板__アングル
  6
CONTINUOUS
 62
    2
 10
1042.7126180135645
 20
728.91201271360501
 40
0.8000000000000001
 50
53.673174047880046
 51
90
  0
LINE
  8
_0-6_鋼板__アングル
  6
CONTINUOUS
 62
    2
 10
1054.0478247207636
 20
727.5229710933661
 11
1053.1000000000006
 21
728.8120127136051
  0
LINE
  8
_0-6_鋼板__アングル
  6
CONTINUOUS
 62
    2
 10
1055.8656449052876
 20
730.84557514396352
 11
1053.1000000000006
 21
728.8120127136051
  0
ARC
  8
_0-6_鋼板__アングル
  6
CONTINUOUS
 62
    2
 10
1057.2873819864333
 20
728.91201271360501
 40
2.3999999999999999
 50
90.000000000000028
 51
126.32682595212077
  0
LINE
  8
_0-6_鋼板__アングル
  6
CONTINUOUS
 62
    2
 10
1056.8134696260529
 20
729.55653352372451
 11
1054.0478247207636
 21
727.5229710933661
  0
ARC
  8
_0-6_鋼板__アングル
  6
CONTINUOUS
 62
    2
 10
1057.2873819864333
 20
728.91201271360501
 40
0.8000000000000001
 50
90
 51
126.32682595211995
  0
LINE
  8
_0-6_鋼板__アングル
  6
CONTINUOUS
 62
    4
 10
1053.1000000000006
 20
728.8120127136051
 11
1046.8999999999994
 21
728.8120127136051
  0
LINE
  8
_0-6_鋼板__アングル
  6
CONTINUOUS
 62
    4
 10
1054.0478247207636
 20
727.5229710933661
 11
1045.9521752792341
 21
727.5229710933661
  0
LINE
  8
_0-6_鋼板__アングル
  6
CONTINUOUS
 62
    4
 10
1042.7126180135645
 20
731.3120127136051
 11
1057.2873819864333
 21
731.3120127136051
  0
LINE
  8
ADD_LINE
  6
DOT
 62
    4
 10
1049.9999999999989
 20
751.83538190208424
 11
1049.9999999999989
 21
717.65102571202192
  0
LINE
  8
_0-6_鋼板__アングル
  6
CONTINUOUS
 62
    2
 10
1357.2873819864333
 20
712.5229710933661
 11
1376.0000000000002
 21
712.5229710933661
  0
LINE
  8
_0-6_鋼板__アングル
  6
CONTINUOUS
 62
    2
 10
1357.2873819864333
 20
710.92297109336528
 11
1375.6452885397709
 21
710.92297109336528
  0
LINE
  8
_0-6_鋼板__アングル
  6
CONTINUOUS
 62
    2
 10
1380.0000000000011
 20
710.6577404607458
 11
1379.3238107812147
 21
709.20764800148731
  0
LINE
  8
_0-6_鋼板__アングル
  6
CONTINUOUS
 62
    2
 10
1376.0000000000002
 20
712.5229710933661
 11
1380.0000000000011
 21
710.6577404607458
  0
LINE
  8
_0-6_鋼板__アングル
  6
CONTINUOUS
 62
    2
 10
1375.6452885397709
 20
710.92297109336528
 11
1379.3238107812147
 21
709.20764800148731
  0
LINE
  8
_0-6_鋼板__アングル
  6
CONTINUOUS
 62
    2
 10
1342.7126180135667
 20
710.92297109336528
 11
1324.3547114602291
 21
710.92297109336528
  0
LINE
  8
_0-6_鋼板__アングル
  6
CONTINUOUS
 62
    2
 10
1342.7126180135667
 20
712.5229710933661
 11
1323.9999999999998
 21
712.5229710933661
  0
LINE
  8
_0-6_鋼板__アングル
  6
CONTINUOUS
 62
    2
 10
1324.3547114602291
 20
710.92297109336528
 11
1320.6761892187853
 21
709.20764800148731
  0
LINE
  8
_0-6_鋼板__アングル
  6
CONTINUOUS
 62
    2
 10
1320.0000000000011
 20
710.6577404607458
 11
1320.6761892187853
 21
709.20764800148731
  0
LINE
  8
_0-6_鋼板__アングル
  6
CONTINUOUS
 62
    2
 10
1323.9999999999998
 20
712.5229710933661
 11
1320.0000000000011
 21
710.6577404607458
  0
LINE
  8
_0-6_鋼板__アングル
  6
CONTINUOUS
 62
    2
 10
1345.9521752792364
 20
708.73392947312709
 11
1346.8999999999994
 21
710.0229710933661
  0
LINE
  8
_0-6_鋼板__アングル
  6
CONTINUOUS
 62
    2
 10
1344.1343550947124
 20
712.05653352372451
 11
1346.8999999999994
 21
710.0229710933661
  0
ARC
  8
_0-6_鋼板__アングル
  6
CONTINUOUS
 62
    2
 10
1342.7126180135667
 20
710.122971093366
 40
2.3999999999999999
 50
53.673174047879257
 51
90
  0
LINE
  8
_0-6_鋼板__アングル
  6
CONTINUOUS
 62
    2
 10
1343.1865303739494
 20
710.76749190348551
 11
1345.9521752792364
 21
708.73392947312709
  0
ARC
  8
_0-6_鋼板__アングル
  6
CONTINUOUS
 62
    2
 10
1342.7126180135667
 20
710.122971093366
 40
0.8000000000000001
 50
53.673174047880046
 51
90
  0
LINE
  8
_0-6_鋼板__アングル
  6
CONTINUOUS
 62
    2
 10
1354.0478247207636
 20
708.73392947312709
 11
1353.1000000000006
 21
710.0229710933661
  0
LINE
  8
_0-6_鋼板__アングル
  6
CONTINUOUS
 62
    2
 10
1355.8656449052876
 20
712.05653352372451
 11
1353.1000000000006
 21
710.0229710933661
  0
ARC
  8
_0-6_鋼板__アングル
  6
CONTINUOUS
 62
    2
 10
1357.2873819864333
 20
710.122971093366
 40
2.3999999999999999
 50
90.000000000000028
 51
126.32682595212077
  0
LINE
  8
_0-6_鋼板__アングル
  6
CONTINUOUS
 62
    2
 10
1356.8134696260529
 20
710.76749190348551
 11
1354.0478247207636
 21
708.73392947312709
  0
ARC
  8
_0-6_鋼板__アングル
  6
CONTINUOUS
 62
    2
 10
1357.2873819864333
 20
710.122971093366
 40
0.8000000000000001
 50
90
 51
126.32682595211995
  0
LINE
  8
_0-6_鋼板__アングル
  6
CONTINUOUS
 62
    4
 10
1353.1000000000006
 20
710.0229710933661
 11
1346.8999999999994
 21
710.0229710933661
  0
LINE
  8
_0-6_鋼板__アングル
  6
CONTINUOUS
 62
    4
 10
1354.0478247207636
 20
708.73392947312709
 11
1345.9521752792364
 21
708.73392947312709
  0
LINE
  8
_0-6_鋼板__アングル
  6
CONTINUOUS
 62
    4
 10
1342.7126180135667
 20
712.5229710933661
 11
1357.2873819864333
 21
712.5229710933661
  0
LINE
  8
ADD_LINE
  6
DOT
 62
    4
 10
1350.0000000000011
 20
733.04634028184523
 11
1350.0000000000011
 21
698.86198409178292
  0
TEXT
  8
_0-a_文字
 62
    7
 10
801.27456121898808
 20
809.99623267557899
 40
15.000000000000568
 41
0.9999999999999652
 50
0
  1
塩ビシート機械的固定工法
  0
LINE
  8
_0-2_線色２__白__
  6
CONTINUOUS
 62
    7
 10
1206.1247000000014
 20
677.5229710933661
 11
1458.5176003356526
 21
677.5229710933661
  0
LINE
  8
_0-7_ビス
  6
CONTINUOUS
 62
    7
 10
1056.0000000000002
 20
730.92739732898849
 11
1056.0000000000002
 21
731.3120127136051
  0
LINE
  8
_0-7_ビス
  6
DASHED3
 62
    7
 10
1051.4674681162558
 20
728.76264318277777
 11
1052.550015836149
 21
731.3120127136051
  0
LINE
  8
_0-7_ビス
  6
CONTINUOUS
 62
    7
 10
1043.9999999999998
 20
730.92739732898849
 11
1043.9999999999998
 21
731.3120127136051
  0
LINE
  8
_0-7_ビス
  6
DASHED3
 62
    7
 10
1048.5325318837465
 20
728.76264318277777
 11
1047.4499841638533
 21
731.3120127136051
  0
LINE
  8
_0-7_ビス
  6
CONTINUOUS
 62
    7
 10
1056.0000000000002
 20
730.92739732898849
 11
1043.9999999999998
 21
730.92739732898849
  0
LINE
  8
_0-7_ビス
  6
CONTINUOUS
 62
    7
 10
1056.0000000000002
 20
731.3120127136051
 11
1043.9999999999998
 21
731.3120127136051
  0
ARC
  8
_0-7_ビス
  6
DASHED3
 62
    7
 10
1049.9999999999989
 20
729.8731862810439
 40
1.8403175392666382
 50
217.11750793457031
 51
322.88247680664062
  0
LINE
  8
_0-7_ビス
  6
CONTINUOUS
 62
    7
 10
1054.0857864376255
 20
729.01318376661607
 11
1056.0000000000002
 21
730.92739732898849
  0
ARC
  8
_0-7_ビス
  6
CONTINUOUS
 62
    7
 10
1055.5000000000007
 20
727.59897020424319
 40
2
 50
135.00000000000153
 51
180.00000000000003
  0
LINE
  8
_0-7_ビス
  6
CONTINUOUS
 62
    7
 10
1045.9142135623722
 20
729.01318376661607
 11
1043.9999999999998
 21
730.92739732898849
  0
ARC
  8
_0-7_ビス
  6
CONTINUOUS
 62
    7
 10
1044.5000000000016
 20
727.59897020424319
 40
2
 50
0
 51
44.999999999998501
  0
LINE
  8
_0-7_ビス
  6
CONTINUOUS
 62
    7
 10
1053.5000000000002
 20
727.31201271360419
 11
1046.4999999999998
 21
727.31201271360419
  0
LINE
  8
ADD_LINE
  6
DOT
 62
    4
 10
1350.0000000000011
 20
644.40360643141503
 11
1350.0000000000011
 21
719.02032617403279
  0
LINE
  8
_0-7_ビス
  6
CONTINUOUS
 62
    7
 10
1356.0000000000025
 20
712.13835570874949
 11
1356.0000000000025
 21
712.5229710933661
  0
LINE
  8
_0-7_ビス
  6
DASHED3
 62
    7
 10
1351.4674681162558
 20
709.97360156253876
 11
1352.550015836149
 21
712.5229710933661
  0
LINE
  8
_0-7_ビス
  6
CONTINUOUS
 62
    7
 10
1344.000000000002
 20
712.13835570874949
 11
1344.000000000002
 21
712.5229710933661
  0
LINE
  8
_0-7_ビス
  6
DASHED3
 62
    7
 10
1348.5325318837465
 20
709.97360156253876
 11
1347.4499841638533
 21
712.5229710933661
  0
LINE
  8
_0-7_ビス
  6
CONTINUOUS
 62
    7
 10
1356.0000000000025
 20
712.13835570874949
 11
1344.000000000002
 21
712.13835570874949
  0
LINE
  8
_0-7_ビス
  6
CONTINUOUS
 62
    7
 10
1356.0000000000025
 20
712.5229710933661
 11
1344.000000000002
 21
712.5229710933661
  0
ARC
  8
_0-7_ビス
  6
DASHED3
 62
    7
 10
1350.0000000000011
 20
711.0841446608049
 40
1.8403175392666382
 50
217.11750793457031
 51
322.88247680664062
  0
LINE
  8
_0-7_ビス
  6
CONTINUOUS
 62
    7
 10
1354.0857864376278
 20
710.22414214637706
 11
1356.0000000000002
 21
712.13835570874949
  0
ARC
  8
_0-7_ビス
  6
CONTINUOUS
 62
    7
 10
1355.5000000000007
 20
708.80992858400418
 40
2
 50
135.00000000000153
 51
180.00000000000003
  0
LINE
  8
_0-7_ビス
  6
CONTINUOUS
 62
    7
 10
1345.9142135623745
 20
710.22414214637706
 11
1344.000000000002
 21
712.13835570874949
  0
ARC
  8
_0-7_ビス
  6
CONTINUOUS
 62
    7
 10
1344.5000000000016
 20
708.80992858400418
 40
2
 50
0
 51
44.999999999998501
  0
LINE
  8
_0-7_ビス
  6
CONTINUOUS
 62
    7
 10
1353.5000000000002
 20
708.52297109336519
 11
1346.500000000002
 21
708.52297109336519
  0
LINE
  8
_0-7_ビス
  6
CONTINUOUS
 62
    7
 10
1353.5000000000002
 20
702.5229710933661
 11
1346.500000000002
 21
702.5229710933661
  0
LINE
  8
_0-7_ビス
  6
CONTINUOUS
 62
    7
 10
1346.500000000002
 20
654.5436970355297
 11
1350.0000000000011
 21
652.5229710933661
  0
LINE
  8
_0-7_ビス
  6
CONTINUOUS
 62
    7
 10
1346.500000000002
 20
708.80992858400418
 11
1346.500000000002
 21
654.5436970355297
  0
LINE
  8
_0-7_ビス
  6
CONTINUOUS
 62
    7
 10
1353.5000000000002
 20
658.02297109336564
 11
1346.500000000002
 21
658.02297109336564
  0
LINE
  8
_0-7_ビス
  6
CONTINUOUS
 62
    7
 10
1353.5000000000002
 20
654.5436970355297
 11
1350.0000000000011
 21
652.5229710933661
  0
LINE
  8
_0-7_ビス
  6
CONTINUOUS
 62
    7
 10
1353.5000000000002
 20
708.80992858400418
 11
1353.5000000000002
 21
654.5436970355297
  0
LINE
  8
_0-7_ビス
  6
CONTINUOUS
 62
    4
 10
1346.500000000002
 20
701.32316773397179
 11
1350.9775804419417
 21
702.5229710933661
  0
LINE
  8
_0-7_ビス
  6
CONTINUOUS
 62
    4
 10
1346.500000000002
 20
689.01694720459432
 11
1353.5000000000002
 21
690.89265298468376
  0
LINE
  8
_0-7_ビス
  6
CONTINUOUS
 62
    4
 10
1346.500000000002
 20
691.01694720459477
 11
1353.5000000000002
 21
692.89265298468422
  0
LINE
  8
_0-7_ビス
  6
CONTINUOUS
 62
    4
 10
1346.500000000002
 20
693.01694720459523
 11
1353.5000000000002
 21
694.89265298468354
  0
LINE
  8
_0-7_ビス
  6
CONTINUOUS
 62
    4
 10
1346.500000000002
 20
695.01694720459568
 11
1353.5000000000002
 21
696.89265298468285
  0
LINE
  8
_0-7_ビス
  6
CONTINUOUS
 62
    4
 10
1346.500000000002
 20
697.016947204595
 11
1353.5000000000002
 21
698.89265298468331
  0
LINE
  8
_0-7_ビス
  6
CONTINUOUS
 62
    4
 10
1346.500000000002
 20
699.01694720459545
 11
1353.5000000000002
 21
700.89265298468376
  0
LINE
  8
_0-7_ビス
  6
CONTINUOUS
 62
    4
 10
1346.500000000002
 20
676.71072667521798
 11
1353.5000000000002
 21
678.58643245530743
  0
LINE
  8
_0-7_ビス
  6
CONTINUOUS
 62
    4
 10
1346.500000000002
 20
678.71072667521844
 11
1353.5000000000002
 21
680.58643245530675
  0
LINE
  8
_0-7_ビス
  6
CONTINUOUS
 62
    4
 10
1346.500000000002
 20
680.71072667521889
 11
1353.5000000000002
 21
682.58643245530607
  0
LINE
  8
_0-7_ビス
  6
CONTINUOUS
 62
    4
 10
1346.500000000002
 20
682.71072667521821
 11
1353.5000000000002
 21
684.58643245530652
  0
LINE
  8
_0-7_ビス
  6
CONTINUOUS
 62
    4
 10
1346.500000000002
 20
684.71072667521753
 11
1353.5000000000002
 21
686.58643245530698
  0
LINE
  8
_0-7_ビス
  6
CONTINUOUS
 62
    4
 10
1346.500000000002
 20
686.71072667521798
 11
1353.5000000000002
 21
688.58643245530743
  0
LINE
  8
_0-7_ビス
  6
CONTINUOUS
 62
    4
 10
1346.500000000002
 20
664.40450614584165
 11
1353.5000000000002
 21
666.28021192592996
  0
LINE
  8
_0-7_ビス
  6
CONTINUOUS
 62
    4
 10
1346.500000000002
 20
666.40450614584211
 11
1353.5000000000002
 21
668.28021192592928
  0
LINE
  8
_0-7_ビス
  6
CONTINUOUS
 62
    4
 10
1346.500000000002
 20
668.40450614584142
 11
1353.5000000000002
 21
670.28021192592973
  0
LINE
  8
_0-7_ビス
  6
CONTINUOUS
 62
    4
 10
1346.500000000002
 20
670.40450614584074
 11
1353.5000000000002
 21
672.28021192593019
  0
LINE
  8
_0-7_ビス
  6
CONTINUOUS
 62
    4
 10
1346.500000000002
 20
672.4045061458412
 11
1353.5000000000002
 21
674.28021192593064
  0
LINE
  8
_0-7_ビス
  6
CONTINUOUS
 62
    4
 10
1346.500000000002
 20
674.40450614584165
 11
1353.5000000000002
 21
676.2802119259311
  0
LINE
  8
_0-7_ビス
  6
CONTINUOUS
 62
    4
 10
1346.500000000002
 20
658.09828561646441
 11
1353.5000000000002
 21
659.97399139655386
  0
LINE
  8
_0-7_ビス
  6
CONTINUOUS
 62
    4
 10
1346.500000000002
 20
660.09828561646486
 11
1353.5000000000002
 21
661.97399139655317
  0
LINE
  8
_0-7_ビス
  6
CONTINUOUS
 62
    4
 10
1346.500000000002
 20
662.09828561646532
 11
1353.5000000000002
 21
663.97399139655363
  0
LINE
  8
ADD_LINE
  6
DOT
 62
    4
 10
749.99999999999886
 20
565.56898009685483
 11
749.99999999999886
 21
694.22333094005694
  0
LINE
  8
ADD_LINE
  6
DOT
 62
    4
 10
949.99999999999886
 20
565.56898009685483
 11
949.99999999999886
 21
694.22333094005694
  0
LINE
  8
ADD_LINE
  6
DOT
 62
    4
 10
1150.0000000000011
 20
565.56898009685483
 11
1150.0000000000011
 21
694.22333094005694
  0
LINE
  8
_0-2_線色２__白__
  6
CONTINUOUS
 62
    7
 10
641.48239966435199
 20
677.5229710933661
 11
1193.8747000000023
 21
677.5229710933661
  0
LINE
  8
ADD_LINE
  6
DOT
 62
    4
 10
1250.0000798999997
 20
565.5689800968571
 11
1250.0000798999997
 21
694.22333094005921
  0
LINE
  8
ADD_LINE
  6
DOT
 62
    4
 10
1450.0000798999997
 20
565.5689800968571
 11
1450.0000798999997
 21
694.22333094005921
  0
LINE
  8
ADD_LINE
  6
DOT
 62
    4
 10
1049.9999999999989
 20
638.19264805165403
 11
1049.9999999999989
 21
737.80936779427179
  0
LINE
  8
_0-7_ビス
  6
CONTINUOUS
 62
    7
 10
1046.4999999999998
 20
648.33273865576871
 11
1049.9999999999989
 21
646.3120127136051
  0
LINE
  8
_0-7_ビス
  6
CONTINUOUS
 62
    7
 10
1046.4999999999998
 20
727.59897020424319
 11
1046.4999999999998
 21
648.33273865576871
  0
LINE
  8
_0-7_ビス
  6
CONTINUOUS
 62
    7
 10
1053.5000000000002
 20
651.81201271360464
 11
1046.4999999999998
 21
651.81201271360464
  0
LINE
  8
_0-7_ビス
  6
CONTINUOUS
 62
    7
 10
1053.5000000000002
 20
648.33273865576871
 11
1049.9999999999989
 21
646.3120127136051
  0
LINE
  8
_0-7_ビス
  6
CONTINUOUS
 62
    7
 10
1053.5000000000002
 20
727.59897020424319
 11
1053.5000000000002
 21
648.33273865576871
  0
LINE
  8
_0-7_ビス
  6
CONTINUOUS
 62
    7
 10
1053.5000000000002
 20
706.3120127136051
 11
1046.4999999999998
 21
706.3120127136051
  0
LINE
  8
_0-7_ビス
  6
CONTINUOUS
 62
    4
 10
1046.4999999999998
 20
705.11220935421079
 11
1050.9775804419394
 21
706.3120127136051
  0
LINE
  8
_0-7_ビス
  6
CONTINUOUS
 62
    4
 10
1046.4999999999998
 20
692.80598882483332
 11
1053.5000000000002
 21
694.68169460492277
  0
LINE
  8
_0-7_ビス
  6
CONTINUOUS
 62
    4
 10
1046.4999999999998
 20
694.80598882483378
 11
1053.5000000000002
 21
696.68169460492322
  0
LINE
  8
_0-7_ビス
  6
CONTINUOUS
 62
    4
 10
1046.4999999999998
 20
696.80598882483423
 11
1053.5000000000002
 21
698.68169460492254
  0
LINE
  8
_0-7_ビス
  6
CONTINUOUS
 62
    4
 10
1046.4999999999998
 20
698.80598882483469
 11
1053.5000000000002
 21
700.68169460492186
  0
LINE
  8
_0-7_ビス
  6
CONTINUOUS
 62
    4
 10
1046.4999999999998
 20
700.805988824834
 11
1053.5000000000002
 21
702.68169460492231
  0
LINE
  8
_0-7_ビス
  6
CONTINUOUS
 62
    4
 10
1046.4999999999998
 20
702.80598882483446
 11
1053.5000000000002
 21
704.68169460492277
  0
LINE
  8
_0-7_ビス
  6
CONTINUOUS
 62
    4
 10
1046.4999999999998
 20
680.49976829545699
 11
1053.5000000000002
 21
682.37547407554644
  0
LINE
  8
_0-7_ビス
  6
CONTINUOUS
 62
    4
 10
1046.4999999999998
 20
682.49976829545744
 11
1053.5000000000002
 21
684.37547407554575
  0
LINE
  8
_0-7_ビス
  6
CONTINUOUS
 62
    4
 10
1046.4999999999998
 20
684.4997682954579
 11
1053.5000000000002
 21
686.37547407554507
  0
LINE
  8
_0-7_ビス
  6
CONTINUOUS
 62
    4
 10
1046.4999999999998
 20
686.49976829545722
 11
1053.5000000000002
 21
688.37547407554553
  0
LINE
  8
_0-7_ビス
  6
CONTINUOUS
 62
    4
 10
1046.4999999999998
 20
688.49976829545653
 11
1053.5000000000002
 21
690.37547407554598
  0
LINE
  8
_0-7_ビス
  6
CONTINUOUS
 62
    4
 10
1046.4999999999998
 20
690.49976829545699
 11
1053.5000000000002
 21
692.37547407554644
  0
LINE
  8
_0-7_ビス
  6
CONTINUOUS
 62
    4
 10
1046.4999999999998
 20
668.19354776608066
 11
1053.5000000000002
 21
670.06925354616897
  0
LINE
  8
_0-7_ビス
  6
CONTINUOUS
 62
    4
 10
1046.4999999999998
 20
670.19354776608111
 11
1053.5000000000002
 21
672.06925354616828
  0
LINE
  8
_0-7_ビス
  6
CONTINUOUS
 62
    4
 10
1046.4999999999998
 20
672.19354776608043
 11
1053.5000000000002
 21
674.06925354616874
  0
LINE
  8
_0-7_ビス
  6
CONTINUOUS
 62
    4
 10
1046.4999999999998
 20
674.19354776607975
 11
1053.5000000000002
 21
676.06925354616919
  0
LINE
  8
_0-7_ビス
  6
CONTINUOUS
 62
    4
 10
1046.4999999999998
 20
676.1935477660802
 11
1053.5000000000002
 21
678.06925354616965
  0
LINE
  8
_0-7_ビス
  6
CONTINUOUS
 62
    4
 10
1046.4999999999998
 20
678.19354776608066
 11
1053.5000000000002
 21
680.0692535461701
  0
LINE
  8
_0-7_ビス
  6
CONTINUOUS
 62
    4
 10
1046.4999999999998
 20
655.88732723670319
 11
1053.5000000000002
 21
657.7630330167915
  0
LINE
  8
_0-7_ビス
  6
CONTINUOUS
 62
    4
 10
1046.4999999999998
 20
657.88732723670364
 11
1053.5000000000002
 21
659.76303301679195
  0
LINE
  8
_0-7_ビス
  6
CONTINUOUS
 62
    4
 10
1046.4999999999998
 20
659.88732723670296
 11
1053.5000000000002
 21
661.76303301679241
  0
LINE
  8
_0-7_ビス
  6
CONTINUOUS
 62
    4
 10
1046.4999999999998
 20
661.88732723670341
 11
1053.5000000000002
 21
663.76303301679286
  0
LINE
  8
_0-7_ビス
  6
CONTINUOUS
 62
    4
 10
1046.4999999999998
 20
663.88732723670387
 11
1053.5000000000002
 21
665.76303301679218
  0
LINE
  8
_0-7_ビス
  6
CONTINUOUS
 62
    4
 10
1046.4999999999998
 20
665.88732723670432
 11
1053.5000000000002
 21
667.76303301679263
  0
LINE
  8
_0-7_ビス
  6
CONTINUOUS
 62
    4
 10
1046.4999999999998
 20
653.58110670732685
 11
1053.5000000000002
 21
655.45681248741516
  0
LINE
  8
_0-7_ビス
  6
CONTINUOUS
 62
    4
 10
1047.3617247230925
 20
651.81201271360464
 11
1053.5000000000002
 21
653.45681248741471
  0
LINE
  8
_0-2_線色２__白__
  6
CONTINUOUS
 62
    7
 10
1193.8747000000023
 20
645.82004378587612
 11
1187.4879141937697
 21
645.82004378587612
  0
LINE
  8
_0-2_線色２__白__
  6
CONTINUOUS
 62
    7
 10
1187.4879141937697
 20
645.82004378587612
 11
1200.261485806235
 21
667.94451881278405
  0
LINE
  8
_0-2_線色２__白__
  6
CONTINUOUS
 62
    7
 10
1200.261485806235
 20
667.94451881278405
 11
1193.8747000000023
 21
667.94451881278405
  0
LINE
  8
_0-2_線色２__白__
  6
CONTINUOUS
 62
    7
 10
1206.1247000000014
 20
645.82004378587612
 11
1199.7379141937688
 21
645.82004378587612
  0
LINE
  8
_0-2_線色２__白__
  6
CONTINUOUS
 62
    7
 10
1199.7379141937688
 20
645.82004378587612
 11
1212.5114858062341
 21
667.94451881278405
  0
LINE
  8
_0-2_線色２__白__
  6
CONTINUOUS
 62
    7
 10
1212.5114858062341
 20
667.94451881278405
 11
1206.1247000000014
 21
667.94451881278405
  0
LINE
  8
_0-2_線色２__白__
  6
CONTINUOUS
 62
    7
 10
1193.8747000000023
 20
667.94451881278405
 11
1193.8747000000023
 21
756.24155150529418
  0
LINE
  8
_0-2_線色２__白__
  6
CONTINUOUS
 62
    7
 10
1206.1247000000014
 20
667.94451881278405
 11
1206.1247000000014
 21
756.24155150529418
  0
LINE
  8
_0-2_線色２__白__
  6
CONTINUOUS
 62
    7
 10
1193.8747000000023
 20
557.52301109336599
 11
1193.8747000000023
 21
645.82004378587612
  0
LINE
  8
_0-2_線色２__白__
  6
CONTINUOUS
 62
    7
 10
1206.1247000000014
 20
557.52301109336599
 11
1206.1247000000014
 21
645.82004378587612
  0
LINE
  8
_0-5_金属
  6
CONTINUOUS
 62
    7
 10
641.48239966434971
 20
577.52301109336599
 11
1193.8747000000023
 21
577.52301109336599
  0
LINE
  8
_0-5_金属
  6
CONTINUOUS
 62
    7
 10
1206.1247000000014
 20
577.52301109336599
 11
1458.5176003356526
 21
577.52301109336599
  0
ARC
  8
_0-5_金属
  6
CONTINUOUS
 62
    7
 10
711.65992510000137
 20
673.727871093364
 40
2.9999997999999999
 50
12.095412999999999
 51
90.000000000000028
  0
LINE
  8
_0-5_金属
  6
CONTINUOUS
 62
    7
 10
729.99988510000207
 20
589.52288089336321
 11
714.59332495040485
 21
674.35649189929904
  0
LINE
  8
_0-5_金属
  6
CONTINUOUS
 62
    7
 10
711.67445509999993
 20
673.72298109336384
 11
727.06648521668171
 21
588.89433024102004
  0
LINE
  8
_0-5_金属
  6
CONTINUOUS
 62
    7
 10
641.48239966434971
 20
586.52301109336577
 11
1193.8747000000023
 21
586.52301109336577
  0
ARC
  8
_0-5_金属
  6
CONTINUOUS
 62
    7
 10
730.0000650000004
 20
589.52295089336417
 40
2.9999997999999999
 50
192.09540999999999
 51
269.63762905713986
  0
ARC
  8
_0-5_金属
  6
CONTINUOUS
 62
    7
 10
788.35191009999903
 20
673.71896109336376
 40
2.9999997999999999
 50
90
 51
167.90458000000001
  0
LINE
  8
_0-5_金属
  6
CONTINUOUS
 62
    7
 10
730.0000650000004
 20
589.52288089336321
 11
769.99987370429039
 21
589.52288089336321
  0
LINE
  8
_0-5_金属
  6
CONTINUOUS
 62
    7
 10
769.99987370429039
 20
589.52288089336321
 11
785.41851032639784
 21
674.34758225768178
  0
LINE
  8
_0-5_金属
  6
CONTINUOUS
 62
    7
 10
788.32532010000136
 20
673.72298109336384
 11
772.93328987360496
 21
588.89441992905631
  0
ARC
  8
_0-5_金属
  6
CONTINUOUS
 62
    7
 10
769.99989010000149
 20
589.5230410933641
 40
2.9999997999999999
 50
270
 51
347.90458000020737
  0
ARC
  8
_0-5_金属
  6
CONTINUOUS
 62
    7
 10
988.35191009999903
 20
673.71896109336376
 40
2.9999997999999999
 50
90
 51
167.90458000000001
  0
ARC
  8
_0-5_金属
  6
CONTINUOUS
 62
    7
 10
911.6368301
 20
673.7144010933639
 40
2.9999997999999999
 50
12.095412999999999
 51
90.000000000000028
  0
ARC
  8
_0-5_金属
  6
CONTINUOUS
 62
    7
 10
930.00001010000119
 20
589.5230410933641
 40
2.9999997999999999
 50
192.09540999999999
 51
270
  0
ARC
  8
_0-5_金属
  6
CONTINUOUS
 62
    7
 10
969.99989010000149
 20
589.5230410933641
 40
2.9999997999999999
 50
270
 51
347.90458000000001
  0
LINE
  8
_0-5_金属
  6
CONTINUOUS
 62
    7
 10
988.32532010000136
 20
673.72298109336384
 11
972.93328987360269
 21
588.89441992904608
  0
LINE
  8
_0-5_金属
  6
CONTINUOUS
 62
    7
 10
914.57022995040347
 20
674.34302189930008
 11
930.000015593738
 21
589.52288089336321
  0
LINE
  8
_0-5_金属
  6
CONTINUOUS
 62
    7
 10
930.000015593738
 20
589.52288089336321
 11
969.99987370429039
 21
589.52288089336321
  0
LINE
  8
_0-5_金属
  6
CONTINUOUS
 62
    7
 10
969.99987370429039
 20
589.52288089336321
 11
985.41851032639784
 21
674.34758225768178
  0
ARC
  8
_0-5_金属
  6
CONTINUOUS
 62
    7
 10
1111.660105000002
 20
673.727871093364
 40
2.9999997999999999
 50
12.095412999999999
 51
90.000000000000028
  0
LINE
  8
_0-5_金属
  6
CONTINUOUS
 62
    7
 10
988.32532010000136
 20
673.72298109336384
 11
1111.6746350000005
 21
673.72298109336384
  0
LINE
  8
_0-5_金属
  6
CONTINUOUS
 62
    7
 10
1130.0000650000004
 20
589.52288089336321
 11
1114.5935048504032
 21
674.35649189929904
  0
LINE
  8
_0-5_金属
  6
CONTINUOUS
 62
    7
 10
1111.6746350000005
 20
673.72298109336384
 11
1127.0666651166846
 21
588.89433024102004
  0
ARC
  8
_0-5_金属
  6
CONTINUOUS
 62
    7
 10
1130.0000650000004
 20
589.52295089336417
 40
2.9999997999999999
 50
192.09540999999999
 51
269.63762905713986
  0
ARC
  8
_0-5_金属
  6
CONTINUOUS
 62
    7
 10
1188.3519101000013
 20
673.71896109336376
 40
2.9999997999999999
 50
90
 51
167.90458000000001
  0
LINE
  8
_0-5_金属
  6
CONTINUOUS
 62
    7
 10
1130.0000650000004
 20
589.52288089336321
 11
1169.9998737042927
 21
589.52288089336321
  0
LINE
  8
_0-5_金属
  6
CONTINUOUS
 62
    7
 10
1169.9998737042927
 20
589.52288089336321
 11
1185.4185103263978
 21
674.34758225768178
  0
LINE
  8
_0-5_金属
  6
CONTINUOUS
 62
    7
 10
1188.3253201000014
 20
673.72298109336384
 11
1172.933289873605
 21
588.89441992905631
  0
ARC
  8
_0-5_金属
  6
CONTINUOUS
 62
    7
 10
1169.9998901000015
 20
589.5230410933641
 40
2.9999997999999999
 50
270
 51
347.90458000020737
  0
LINE
  8
_0-5_金属
  6
CONTINUOUS
 62
    7
 10
788.32532010000136
 20
673.72298109336384
 11
911.67452010000147
 21
673.72298109336384
  0
LINE
  8
_0-5_金属
  6
CONTINUOUS
 62
    7
 10
927.0666102166831
 20
588.89442044102111
 11
911.67452010000147
 21
673.72298109336384
  0
LINE
  8
_0-5_金属
  6
CONTINUOUS
 62
    7
 10
641.48239966434971
 20
673.72298109336384
 11
711.67445509999993
 21
673.72298109336384
  0
LINE
  8
_0-5_金属
  6
CONTINUOUS
 62
    7
 10
1188.3253201000014
 20
673.72298109336384
 11
1193.8747000000023
 21
673.72298109336384
  0
ARC
  8
_0-5_金属
  6
CONTINUOUS
 62
    7
 10
1211.6600050000022
 20
673.72787109336628
 40
2.9999997999999999
 50
12.095412999999999
 51
90.000000000000028
  0
LINE
  8
_0-5_金属
  6
CONTINUOUS
 62
    7
 10
1229.9999650000007
 20
589.52288089336548
 11
1214.5934048504057
 21
674.35649189930132
  0
LINE
  8
_0-5_金属
  6
CONTINUOUS
 62
    7
 10
1211.6745350000008
 20
673.72298109336612
 11
1227.0665651166826
 21
588.89433024102232
  0
LINE
  8
_0-5_金属
  6
CONTINUOUS
 62
    7
 10
1206.1247000000014
 20
586.52301109336577
 11
1458.5176003356526
 21
586.52301109336577
  0
ARC
  8
_0-5_金属
  6
CONTINUOUS
 62
    7
 10
1230.0001449000013
 20
589.52295089336644
 40
2.9999997999999999
 50
192.09540999999999
 51
269.63762905713986
  0
ARC
  8
_0-5_金属
  6
CONTINUOUS
 62
    7
 10
1288.3519899999999
 20
673.71896109336603
 40
2.9999997999999999
 50
90
 51
167.90458000000001
  0
LINE
  8
_0-5_金属
  6
CONTINUOUS
 62
    7
 10
1230.0001449000013
 20
589.52288089336548
 11
1269.9999536042935
 21
589.52288089336548
  0
LINE
  8
_0-5_金属
  6
CONTINUOUS
 62
    7
 10
1269.9999536042935
 20
589.52288089336548
 11
1285.4185902263987
 21
674.34758225768405
  0
LINE
  8
_0-5_金属
  6
CONTINUOUS
 62
    7
 10
1288.3254000000022
 20
673.72298109336612
 11
1272.9333697736058
 21
588.89441992905859
  0
ARC
  8
_0-5_金属
  6
CONTINUOUS
 62
    7
 10
1269.9999700000023
 20
589.52304109336637
 40
2.9999997999999999
 50
270
 51
347.90458000020737
  0
ARC
  8
_0-5_金属
  6
CONTINUOUS
 62
    7
 10
1411.6369100000009
 20
673.71440109336618
 40
2.9999997999999999
 50
12.095412999999999
 51
90.000000000000028
  0
ARC
  8
_0-5_金属
  6
CONTINUOUS
 62
    7
 10
1430.000090000002
 20
589.52304109336637
 40
2.9999997999999999
 50
192.09540999999999
 51
270
  0
LINE
  8
_0-5_金属
  6
CONTINUOUS
 62
    7
 10
1414.5703098504043
 20
674.34302189930236
 11
1430.0000954937366
 21
589.52288089336548
  0
LINE
  8
_0-5_金属
  6
CONTINUOUS
 62
    7
 10
1288.3254000000022
 20
673.72298109336612
 11
1411.6746000000001
 21
673.72298109336612
  0
LINE
  8
_0-5_金属
  6
CONTINUOUS
 62
    7
 10
1427.066690116684
 20
588.89442044102339
 11
1411.6746000000001
 21
673.72298109336612
  0
LINE
  8
_0-5_金属
  6
CONTINUOUS
 62
    7
 10
1430.0000954937366
 20
589.52288089336548
 11
1458.5176003356526
 21
589.52288089336548
  0
LINE
  8
_0-5_金属
  6
CONTINUOUS
 62
    7
 10
1206.1247000000014
 20
673.72298109336612
 11
1211.6745350000008
 21
673.72298109336612
  0
ARC
  8
_0-5_金属
  6
CONTINUOUS
 62
    7
 10
736.04995999999915
 20
603.57292109336413
 40
1.0499997999999999
 50
90
 51
270
  0
ARC
  8
_0-5_金属
  6
CONTINUOUS
 62
    7
 10
736.04995999999915
 20
603.57292109336413
 40
0.2499999
 50
90
 51
270
  0
ARC
  8
_0-5_金属
  6
CONTINUOUS
 62
    7
 10
763.95003999999858
 20
603.57292109336413
 40
1.0499997999999999
 50
270
 51
90
  0
ARC
  8
_0-5_金属
  6
CONTINUOUS
 62
    7
 10
763.95003999999858
 20
603.57292109336413
 40
0.2499999
 50
270
 51
90
  0
ARC
  8
_0-5_金属
  6
CONTINUOUS
 62
    7
 10
748.40004999999906
 20
605.42297109336346
 40
0.7999998999999997
 50
270
 51
0
  0
ARC
  8
_0-5_金属
  6
CONTINUOUS
 62
    7
 10
748.40004999999906
 20
605.42297109336346
 40
1.5999999
 50
270
 51
0
  0
ARC
  8
_0-5_金属
  6
CONTINUOUS
 62
    7
 10
751.59994999999867
 20
605.42297109336346
 40
0.7999998999999997
 50
180
 51
270
  0
ARC
  8
_0-5_金属
  6
CONTINUOUS
 62
    7
 10
751.59994999999867
 20
605.42297109336346
 40
1.5999999
 50
180
 51
270
  0
ARC
  8
_0-5_金属
  6
CONTINUOUS
 62
    7
 10
748.40004999999906
 20
675.12299109336368
 40
0.7999998999999997
 50
0
 51
90
  0
ARC
  8
_0-5_金属
  6
CONTINUOUS
 62
    7
 10
748.40004999999906
 20
675.12299109336368
 40
1.5999999
 50
0
 51
90
  0
ARC
  8
_0-5_金属
  6
CONTINUOUS
 62
    7
 10
751.59994999999867
 20
675.92297109336414
 40
0.7999998999999997
 50
90
 51
180
  0
ARC
  8
_0-5_金属
  6
CONTINUOUS
 62
    7
 10
751.59994999999867
 20
675.92297109336414
 40
1.5999999
 50
90
 51
180
  0
LINE
  8
_0-5_金属
  6
CONTINUOUS
 62
    7
 10
749.99999999999886
 20
672.6718510933631
 11
749.99999999999886
 21
662.23101109336426
  0
LINE
  8
_0-5_金属
  6
CONTINUOUS
 62
    7
 10
748.43494000000078
 20
663.79600109336366
 11
749.99999999999886
 21
662.23101109336426
  0
LINE
  8
_0-5_金属
  6
CONTINUOUS
 62
    7
 10
749.99999999999886
 20
672.6718510933631
 11
748.43494000000078
 21
663.79600109336366
  0
LINE
  8
_0-5_金属
  6
CONTINUOUS
 62
    7
 10
749.99999999999886
 20
662.23101109336426
 11
749.99999999999886
 21
605.42297109336346
  0
LINE
  8
_0-5_金属
  6
CONTINUOUS
 62
    7
 10
747.57478000000106
 20
663.52481109336395
 11
749.20003000000065
 21
661.89956109336322
  0
LINE
  8
_0-5_金属
  6
CONTINUOUS
 62
    7
 10
749.20003000000065
 20
661.89956109336322
 11
749.20003000000065
 21
605.42297109336346
  0
LINE
  8
_0-5_金属
  6
CONTINUOUS
 62
    7
 10
749.20003000000065
 20
672.74200109336334
 11
747.57478000000106
 21
663.52481109336395
  0
LINE
  8
_0-5_金属
  6
CONTINUOUS
 62
    7
 10
749.99999999999886
 20
675.92297109336414
 11
749.99999999999886
 21
672.6718510933631
  0
LINE
  8
_0-5_金属
  6
CONTINUOUS
 62
    7
 10
749.20003000000065
 20
675.12299109336368
 11
749.20003000000065
 21
672.74200109336334
  0
LINE
  8
_0-5_金属
  6
CONTINUOUS
 62
    7
 10
749.99999999999886
 20
676.72300109336334
 11
749.99999999999886
 21
677.52297109336382
  0
LINE
  8
_0-5_金属
  6
CONTINUOUS
 62
    7
 10
735.00001000000225
 20
676.72300109336334
 11
735.00001000000225
 21
675.92303109336399
  0
LINE
  8
_0-5_金属
  6
CONTINUOUS
 62
    7
 10
735.00001000000225
 20
675.92303109336399
 11
748.40004999999906
 21
675.92303109336399
  0
LINE
  8
_0-5_金属
  6
CONTINUOUS
 62
    7
 10
750.79997000000162
 20
675.92297109336414
 11
750.79997000000162
 21
605.42297109336346
  0
LINE
  8
_0-5_金属
  6
CONTINUOUS
 62
    7
 10
736.04995999999915
 20
603.8229610933638
 11
748.40004999999906
 21
603.8229610933638
  0
LINE
  8
_0-5_金属
  6
CONTINUOUS
 62
    7
 10
736.04995999999915
 20
603.3228910933633
 11
763.95003999999858
 21
603.3228910933633
  0
LINE
  8
_0-5_金属
  6
CONTINUOUS
 62
    7
 10
736.04995999999915
 20
604.62287109336444
 11
748.40004999999906
 21
604.62287109336444
  0
LINE
  8
_0-5_金属
  6
CONTINUOUS
 62
    7
 10
751.59994999999867
 20
604.62287109336444
 11
763.95003999999858
 21
604.62287109336444
  0
LINE
  8
_0-5_金属
  6
CONTINUOUS
 62
    7
 10
751.59994999999867
 20
603.8229610933638
 11
763.95003999999858
 21
603.8229610933638
  0
LINE
  8
_0-5_金属
  6
CONTINUOUS
 62
    7
 10
736.04995999999915
 20
602.52292129336411
 11
763.95003999999858
 21
602.52292129336411
  0
ARC
  8
_0-5_金属
  6
CONTINUOUS
 62
    7
 10
963.94999009999879
 20
603.57292109336413
 40
1.0499997999999999
 50
270
 51
90
  0
ARC
  8
_0-5_金属
  6
CONTINUOUS
 62
    7
 10
963.94999009999879
 20
603.57292109336413
 40
0.2499999
 50
270
 51
90
  0
ARC
  8
_0-5_金属
  6
CONTINUOUS
 62
    7
 10
936.04991009999935
 20
603.57292109336413
 40
1.0499997999999999
 50
90
 51
270
  0
ARC
  8
_0-5_金属
  6
CONTINUOUS
 62
    7
 10
936.04991009999935
 20
603.57292109336413
 40
0.2499999
 50
90
 51
270
  0
ARC
  8
_0-5_金属
  6
CONTINUOUS
 62
    7
 10
951.59990009999888
 20
605.42297109336346
 40
0.7999998999999997
 50
180
 51
270
  0
ARC
  8
_0-5_金属
  6
CONTINUOUS
 62
    7
 10
951.59990009999888
 20
605.42297109336346
 40
1.5999999
 50
180
 51
270
  0
ARC
  8
_0-5_金属
  6
CONTINUOUS
 62
    7
 10
948.40000009999926
 20
605.42297109336346
 40
0.7999998999999997
 50
270
 51
0
  0
ARC
  8
_0-5_金属
  6
CONTINUOUS
 62
    7
 10
948.40000009999926
 20
605.42297109336346
 40
1.5999999
 50
270
 51
0
  0
ARC
  8
_0-5_金属
  6
CONTINUOUS
 62
    7
 10
951.59990009999888
 20
675.92297109336414
 40
0.7999998999999997
 50
90
 51
180
  0
ARC
  8
_0-5_金属
  6
CONTINUOUS
 62
    7
 10
951.59990009999888
 20
675.92297109336414
 40
1.5999999
 50
90
 51
180
  0
ARC
  8
_0-5_金属
  6
CONTINUOUS
 62
    7
 10
948.40000009999926
 20
675.92297109336414
 40
0.7999998999999997
 50
0
 51
90
  0
ARC
  8
_0-5_金属
  6
CONTINUOUS
 62
    7
 10
948.40000009999926
 20
675.92297109336414
 40
1.5999999
 50
0
 51
90
  0
LINE
  8
_0-5_金属
  6
CONTINUOUS
 62
    7
 10
950.79992010000183
 20
675.92297109336414
 11
950.79992010000183
 21
605.42297109336346
  0
LINE
  8
_0-5_金属
  6
CONTINUOUS
 62
    7
 10
949.19998010000086
 20
675.92297109336414
 11
949.19998010000086
 21
605.42297109336346
  0
LINE
  8
_0-5_金属
  6
CONTINUOUS
 62
    7
 10
949.99995009999907
 20
675.92297109336414
 11
949.99995009999907
 21
605.42297109336346
  0
LINE
  8
_0-5_金属
  6
CONTINUOUS
 62
    7
 10
963.94999009999879
 20
603.8229610933638
 11
951.59990009999888
 21
603.8229610933638
  0
LINE
  8
_0-5_金属
  6
CONTINUOUS
 62
    7
 10
963.94999009999879
 20
603.3228910933633
 11
936.04991009999935
 21
603.3228910933633
  0
LINE
  8
_0-5_金属
  6
CONTINUOUS
 62
    7
 10
963.94999009999879
 20
604.62287109336444
 11
951.59990009999888
 21
604.62287109336444
  0
LINE
  8
_0-5_金属
  6
CONTINUOUS
 62
    7
 10
948.40000009999926
 20
604.62287109336444
 11
936.04991009999935
 21
604.62287109336444
  0
LINE
  8
_0-5_金属
  6
CONTINUOUS
 62
    7
 10
948.40000009999926
 20
603.8229610933638
 11
936.04991009999935
 21
603.8229610933638
  0
LINE
  8
_0-5_金属
  6
CONTINUOUS
 62
    7
 10
936.04991009999935
 20
602.52292129336411
 11
963.94999009999879
 21
602.52292129336411
  0
LINE
  8
_0-5_金属
  6
CONTINUOUS
 62
    7
 10
1148.4000550000007
 20
676.72300109336334
 11
951.46010010000168
 21
676.72300109336334
  0
ARC
  8
_0-5_金属
  6
CONTINUOUS
 62
    7
 10
1163.9500450000003
 20
603.57292109336413
 40
1.0499997999999999
 50
270
 51
90
  0
ARC
  8
_0-5_金属
  6
CONTINUOUS
 62
    7
 10
1163.9500450000003
 20
603.57292109336413
 40
0.2499999
 50
270
 51
90
  0
ARC
  8
_0-5_金属
  6
CONTINUOUS
 62
    7
 10
1136.0499650000008
 20
603.57292109336413
 40
1.0499997999999999
 50
90
 51
270
  0
ARC
  8
_0-5_金属
  6
CONTINUOUS
 62
    7
 10
1136.0499650000008
 20
603.57292109336413
 40
0.2499999
 50
90
 51
270
  0
ARC
  8
_0-5_金属
  6
CONTINUOUS
 62
    7
 10
1151.5999450000015
 20
605.42297109336346
 40
0.7999998999999997
 50
180
 51
270
  0
ARC
  8
_0-5_金属
  6
CONTINUOUS
 62
    7
 10
1151.5999450000015
 20
605.42297109336346
 40
1.5999999
 50
180
 51
270
  0
ARC
  8
_0-5_金属
  6
CONTINUOUS
 62
    7
 10
1148.4000550000007
 20
605.42297109336346
 40
0.7999998999999997
 50
270
 51
0
  0
ARC
  8
_0-5_金属
  6
CONTINUOUS
 62
    7
 10
1148.4000550000007
 20
605.42297109336346
 40
1.5999999
 50
270
 51
0
  0
ARC
  8
_0-5_金属
  6
CONTINUOUS
 62
    7
 10
1151.5999450000015
 20
675.92297109336414
 40
0.7999998999999997
 50
90
 51
180
  0
ARC
  8
_0-5_金属
  6
CONTINUOUS
 62
    7
 10
1148.4000550000007
 20
675.92297109336414
 40
0.7999998999999997
 50
0
 51
90
  0
ARC
  8
_0-5_金属
  6
CONTINUOUS
 62
    7
 10
1148.4000550000007
 20
675.92297109336414
 40
1.5999999
 50
0
 51
90
  0
LINE
  8
_0-5_金属
  6
CONTINUOUS
 62
    7
 10
1114.9998850000009
 20
677.52297109336382
 11
1148.4000550000007
 21
677.52297109336382
  0
LINE
  8
_0-5_金属
  6
CONTINUOUS
 62
    7
 10
1150.799975000001
 20
675.92297109336414
 11
1150.799975000001
 21
605.42297109336346
  0
LINE
  8
_0-5_金属
  6
CONTINUOUS
 62
    7
 10
1149.2000350000001
 20
675.92297109336414
 11
1149.2000350000001
 21
605.42297109336346
  0
LINE
  8
_0-5_金属
  6
CONTINUOUS
 62
    7
 10
1150.0000050000006
 20
675.92297109336414
 11
1150.0000050000006
 21
605.42297109336346
  0
LINE
  8
_0-5_金属
  6
CONTINUOUS
 62
    7
 10
1163.9500450000003
 20
603.8229610933638
 11
1151.5999450000015
 21
603.8229610933638
  0
LINE
  8
_0-5_金属
  6
CONTINUOUS
 62
    7
 10
1163.9500450000003
 20
603.3228910933633
 11
1136.0499650000008
 21
603.3228910933633
  0
LINE
  8
_0-5_金属
  6
CONTINUOUS
 62
    7
 10
1163.9500450000003
 20
604.62287109336444
 11
1151.5999450000015
 21
604.62287109336444
  0
LINE
  8
_0-5_金属
  6
CONTINUOUS
 62
    7
 10
1148.4000550000007
 20
604.62287109336444
 11
1136.0499650000008
 21
604.62287109336444
  0
LINE
  8
_0-5_金属
  6
CONTINUOUS
 62
    7
 10
1148.4000550000007
 20
603.8229610933638
 11
1136.0499650000008
 21
603.8229610933638
  0
LINE
  8
_0-5_金属
  6
CONTINUOUS
 62
    7
 10
1136.0499650000008
 20
602.52292129336411
 11
1163.9500450000003
 21
602.52292129336411
  0
LINE
  8
_0-5_金属
  6
CONTINUOUS
 62
    7
 10
951.59990009999888
 20
677.52297109336382
 11
1114.9998850000009
 21
677.52297109336382
  0
ARC
  8
_0-5_金属
  6
CONTINUOUS
 62
    7
 10
1151.5999450000015
 20
675.92297109336414
 40
1.5999999
 50
90
 51
180
  0
LINE
  8
_0-5_金属
  6
CONTINUOUS
 62
    7
 10
948.40000009999926
 20
676.72300109336334
 11
751.68349999999805
 21
676.72300109336334
  0
LINE
  8
_0-5_金属
  6
CONTINUOUS
 62
    7
 10
948.40000009999926
 20
677.52297109336382
 11
751.45057999999949
 21
677.52297109336382
  0
LINE
  8
_0-5_金属
  6
CONTINUOUS
 62
    7
 10
641.48239966434971
 20
677.52297109336382
 11
749.99999999999886
 21
677.52297109336382
  0
LINE
  8
_0-5_金属
  6
CONTINUOUS
 62
    7
 10
749.99999999999886
 20
676.72300109336334
 11
641.48239966434971
 21
676.72300109336334
  0
LINE
  8
_0-5_金属
  6
CONTINUOUS
 62
    7
 10
1151.5999450000015
 20
677.52297109336382
 11
1193.8747000000023
 21
677.52297109336382
  0
LINE
  8
_0-5_金属
  6
CONTINUOUS
 62
    7
 10
1193.8747000000023
 20
676.72300109336334
 11
1151.5999450000015
 21
676.72300109336334
  0
ARC
  8
_0-5_金属
  6
CONTINUOUS
 62
    7
 10
1236.0500399
 20
603.5729210933664
 40
1.0499997999999999
 50
90
 51
270
  0
ARC
  8
_0-5_金属
  6
CONTINUOUS
 62
    7
 10
1236.0500399
 20
603.5729210933664
 40
0.2499999
 50
90
 51
270
  0
ARC
  8
_0-5_金属
  6
CONTINUOUS
 62
    7
 10
1263.9501199000017
 20
603.5729210933664
 40
1.0499997999999999
 50
270
 51
90
  0
ARC
  8
_0-5_金属
  6
CONTINUOUS
 62
    7
 10
1263.9501199000017
 20
603.5729210933664
 40
0.2499999
 50
270
 51
90
  0
ARC
  8
_0-5_金属
  6
CONTINUOUS
 62
    7
 10
1248.4001298999999
 20
605.42297109336573
 40
0.7999998999999997
 50
270
 51
0
  0
ARC
  8
_0-5_金属
  6
CONTINUOUS
 62
    7
 10
1248.4001298999999
 20
605.42297109336573
 40
1.5999999
 50
270
 51
0
  0
ARC
  8
_0-5_金属
  6
CONTINUOUS
 62
    7
 10
1251.6000299000018
 20
605.42297109336573
 40
0.7999998999999997
 50
180
 51
270
  0
ARC
  8
_0-5_金属
  6
CONTINUOUS
 62
    7
 10
1251.6000299000018
 20
605.42297109336573
 40
1.5999999
 50
180
 51
270
  0
ARC
  8
_0-5_金属
  6
CONTINUOUS
 62
    7
 10
1248.4001298999999
 20
675.12299109336595
 40
0.7999998999999997
 50
0
 51
90
  0
ARC
  8
_0-5_金属
  6
CONTINUOUS
 62
    7
 10
1248.4001298999999
 20
675.12299109336595
 40
1.5999999
 50
0
 51
90
  0
ARC
  8
_0-5_金属
  6
CONTINUOUS
 62
    7
 10
1251.6000299000018
 20
675.92297109336641
 40
0.7999998999999997
 50
90
 51
180
  0
ARC
  8
_0-5_金属
  6
CONTINUOUS
 62
    7
 10
1251.6000299000018
 20
675.92297109336641
 40
1.5999999
 50
90
 51
180
  0
LINE
  8
_0-5_金属
  6
CONTINUOUS
 62
    7
 10
1250.0000798999997
 20
672.67185109336538
 11
1250.0000798999997
 21
662.23101109336653
  0
LINE
  8
_0-5_金属
  6
CONTINUOUS
 62
    7
 10
1248.4350199000016
 20
663.79600109336593
 11
1250.0000798999997
 21
662.23101109336653
  0
LINE
  8
_0-5_金属
  6
CONTINUOUS
 62
    7
 10
1250.0000798999997
 20
672.67185109336538
 11
1248.4350199000016
 21
663.79600109336593
  0
LINE
  8
_0-5_金属
  6
CONTINUOUS
 62
    7
 10
1250.0000798999997
 20
662.23101109336653
 11
1250.0000798999997
 21
605.42297109336573
  0
LINE
  8
_0-5_金属
  6
CONTINUOUS
 62
    7
 10
1247.5748599000019
 20
663.52481109336622
 11
1249.2001099000015
 21
661.89956109336549
  0
LINE
  8
_0-5_金属
  6
CONTINUOUS
 62
    7
 10
1249.2001099000015
 20
661.89956109336549
 11
1249.2001099000015
 21
605.42297109336573
  0
LINE
  8
_0-5_金属
  6
CONTINUOUS
 62
    7
 10
1249.2001099000015
 20
672.74200109336562
 11
1247.5748599000019
 21
663.52481109336622
  0
LINE
  8
_0-5_金属
  6
CONTINUOUS
 62
    7
 10
1250.0000798999997
 20
675.92297109336641
 11
1250.0000798999997
 21
672.67185109336538
  0
LINE
  8
_0-5_金属
  6
CONTINUOUS
 62
    7
 10
1249.2001099000015
 20
675.12299109336595
 11
1249.2001099000015
 21
672.74200109336562
  0
LINE
  8
_0-5_金属
  6
CONTINUOUS
 62
    7
 10
1250.0000798999997
 20
676.72300109336561
 11
1250.0000798999997
 21
677.5229710933661
  0
LINE
  8
_0-5_金属
  6
CONTINUOUS
 62
    7
 10
1235.0000899000031
 20
676.72300109336561
 11
1235.0000899000031
 21
675.92303109336626
  0
LINE
  8
_0-5_金属
  6
CONTINUOUS
 62
    7
 10
1235.0000899000031
 20
675.92303109336626
 11
1248.4001298999999
 21
675.92303109336626
  0
LINE
  8
_0-5_金属
  6
CONTINUOUS
 62
    7
 10
1250.8000499000025
 20
675.92297109336641
 11
1250.8000499000025
 21
605.42297109336573
  0
LINE
  8
_0-5_金属
  6
CONTINUOUS
 62
    7
 10
1236.0500399
 20
603.82296109336608
 11
1248.4001298999999
 21
603.82296109336608
  0
LINE
  8
_0-5_金属
  6
CONTINUOUS
 62
    7
 10
1236.0500399
 20
603.32289109336557
 11
1263.9501199000017
 21
603.32289109336557
  0
LINE
  8
_0-5_金属
  6
CONTINUOUS
 62
    7
 10
1236.0500399
 20
604.62287109336671
 11
1248.4001298999999
 21
604.62287109336671
  0
LINE
  8
_0-5_金属
  6
CONTINUOUS
 62
    7
 10
1251.6000299000018
 20
604.62287109336671
 11
1263.9501199000017
 21
604.62287109336671
  0
LINE
  8
_0-5_金属
  6
CONTINUOUS
 62
    7
 10
1251.6000299000018
 20
603.82296109336608
 11
1263.9501199000017
 21
603.82296109336608
  0
LINE
  8
_0-5_金属
  6
CONTINUOUS
 62
    7
 10
1236.0500399
 20
602.52292129336638
 11
1263.9501199000017
 21
602.52292129336638
  0
ARC
  8
_0-5_金属
  6
CONTINUOUS
 62
    7
 10
1436.0499900000002
 20
603.5729210933664
 40
1.0499997999999999
 50
90
 51
270
  0
ARC
  8
_0-5_金属
  6
CONTINUOUS
 62
    7
 10
1436.0499900000002
 20
603.5729210933664
 40
0.2499999
 50
90
 51
270
  0
ARC
  8
_0-5_金属
  6
CONTINUOUS
 62
    7
 10
1451.5999799999997
 20
605.42297109336573
 40
0.7999998999999997
 50
180
 51
270
  0
ARC
  8
_0-5_金属
  6
CONTINUOUS
 62
    7
 10
1451.5999799999997
 20
605.42297109336573
 40
1.5999999
 50
180
 51
270
  0
ARC
  8
_0-5_金属
  6
CONTINUOUS
 62
    7
 10
1448.4000800000001
 20
605.42297109336573
 40
0.7999998999999997
 50
270
 51
0
  0
ARC
  8
_0-5_金属
  6
CONTINUOUS
 62
    7
 10
1448.4000800000001
 20
605.42297109336573
 40
1.5999999
 50
270
 51
0
  0
ARC
  8
_0-5_金属
  6
CONTINUOUS
 62
    7
 10
1451.5999799999997
 20
675.92297109336641
 40
0.7999998999999997
 50
90
 51
180
  0
ARC
  8
_0-5_金属
  6
CONTINUOUS
 62
    7
 10
1451.5999799999997
 20
675.92297109336641
 40
1.5999999
 50
90
 51
180
  0
ARC
  8
_0-5_金属
  6
CONTINUOUS
 62
    7
 10
1448.4000800000001
 20
675.92297109336641
 40
0.7999998999999997
 50
0
 51
90
  0
ARC
  8
_0-5_金属
  6
CONTINUOUS
 62
    7
 10
1448.4000800000001
 20
675.92297109336641
 40
1.5999999
 50
0
 51
90
  0
LINE
  8
_0-5_金属
  6
CONTINUOUS
 62
    7
 10
1450.8000000000027
 20
675.92297109336641
 11
1450.8000000000027
 21
605.42297109336573
  0
LINE
  8
_0-5_金属
  6
CONTINUOUS
 62
    7
 10
1449.2000600000017
 20
675.92297109336641
 11
1449.2000600000017
 21
605.42297109336573
  0
LINE
  8
_0-5_金属
  6
CONTINUOUS
 62
    7
 10
1450.0000299999999
 20
675.92297109336641
 11
1450.0000299999999
 21
605.42297109336573
  0
LINE
  8
_0-5_金属
  6
CONTINUOUS
 62
    7
 10
1448.4000800000001
 20
604.62287109336671
 11
1436.0499900000002
 21
604.62287109336671
  0
LINE
  8
_0-5_金属
  6
CONTINUOUS
 62
    7
 10
1448.4000800000001
 20
603.82296109336608
 11
1436.0499900000002
 21
603.82296109336608
  0
LINE
  8
_0-5_金属
  6
CONTINUOUS
 62
    7
 10
1448.4000800000001
 20
676.72300109336561
 11
1251.6835799000012
 21
676.72300109336561
  0
LINE
  8
_0-5_金属
  6
CONTINUOUS
 62
    7
 10
1448.4000800000001
 20
677.5229710933661
 11
1251.4506599000003
 21
677.5229710933661
  0
LINE
  8
_0-5_金属
  6
CONTINUOUS
 62
    7
 10
1458.5176003356526
 20
603.82296109336608
 11
1451.5999799999997
 21
603.82296109336608
  0
LINE
  8
_0-5_金属
  6
CONTINUOUS
 62
    7
 10
1458.5176003356526
 20
603.32289109336557
 11
1436.0499900000002
 21
603.32289109336557
  0
LINE
  8
_0-5_金属
  6
CONTINUOUS
 62
    7
 10
1458.5176003356526
 20
604.62287109336671
 11
1451.5999799999997
 21
604.62287109336671
  0
LINE
  8
_0-5_金属
  6
CONTINUOUS
 62
    7
 10
1436.0499900000002
 20
602.52292129336638
 11
1458.5176003356526
 21
602.52292129336638
  0
LINE
  8
_0-5_金属
  6
CONTINUOUS
 62
    7
 10
1458.5176003356526
 20
676.72300109336561
 11
1451.4601800000025
 21
676.72300109336561
  0
LINE
  8
_0-5_金属
  6
CONTINUOUS
 62
    7
 10
1451.5999799999997
 20
677.5229710933661
 11
1458.5176003356526
 21
677.5229710933661
  0
LINE
  8
_0-5_金属
  6
CONTINUOUS
 62
    7
 10
1206.1247000000014
 20
677.5229710933661
 11
1250.0000798999997
 21
677.5229710933661
  0
LINE
  8
_0-5_金属
  6
CONTINUOUS
 62
    7
 10
1250.0000798999997
 20
676.72300109336561
 11
1206.1247000000014
 21
676.72300109336561
  0
LINE
  8
_0-d_断熱__ハッチ
  6
CONTINUOUS
 62
    4
 10
1168.813453813417
 20
712.5229710933661
 11
1193.8747000000023
 21
687.46172490678305
  0
LINE
  8
_0-d_断熱__ハッチ
  6
CONTINUOUS
 62
    4
 10
1186.8969923412453
 20
677.5229710933661
 11
1193.8747000000023
 21
684.50067875212312
  0
LINE
  8
_0-d_断熱__ハッチ
  6
CONTINUOUS
 62
    4
 10
1206.1247000000014
 20
703.49599615423926
 11
1232.0977250608746
 21
677.5229710933661
  0
LINE
  8
_0-d_断熱__ハッチ
  6
CONTINUOUS
 62
    4
 10
1206.1247000000014
 20
696.75067875212449
 11
1221.8969923412453
 21
712.5229710933661
  0
TEXT
  8
_0-a_文字
 62
    7
 10
923.94666392191766
 20
495.02297109336382
 40
14.999999999999858
 41
0.9999999999999995
 50
0
  1
タイトフレーム（別途工事）
  0
LINE
  8
_0-a_文字
  6
CONTINUOUS
 62
    7
 10
872.96590180838598
 20
547.52297109336382
 11
918.94666392192119
 21
547.52297109336382
  0
LINE
  8
_0-a_文字
  6
CONTINUOUS
 62
    7
 10
798.14129826114936
 20
677.12298609336358
 11
898.94666392192164
 21
502.52297109336382
  0
LINE
  8
_0-a_文字
  6
CONTINUOUS
 62
    7
 10
898.94666392192164
 20
502.52297109336382
 11
918.94666392192119
 21
502.52297109336382
  0
TEXT
  8
_0-a_文字
 62
    7
 10
1128.7891838388646
 20
859.99623267557922
 40
14.999999999999858
 41
0.9999999999999964
 50
0
  1
補強用シートＬ
  0
TEXT
  8
_0-a_文字
 62
    7
 10
1128.7891838388646
 20
809.99623267557934
 40
14.999999999999858
 41
0.9999999999999964
 50
0
  1
補強用シートＳ
  0
LINE
  8
_0-a_文字
  6
CONTINUOUS
 62
    7
 10
1103.7891838388628
 20
867.49623267557922
 11
1123.7891838388628
 21
867.49623267557922
  0
LINE
  8
_0-a_文字
  6
CONTINUOUS
 62
    7
 10
1074.9216703793813
 20
817.49623267557922
 11
1123.7891838388628
 21
817.49623267557922
  0
LINE
  8
_0-a_文字
  6
CONTINUOUS
 62
    7
 10
1089.355427109122
 20
842.49623267557922
 11
1123.7891838388628
 21
842.49623267557922
  0
LINE
  8
_0-a_文字
  6
CONTINUOUS
 62
    7
 10
1089.1383282301472
 20
792.49623267557922
 11
1109.1383282301472
 21
792.49623267557922
  0
TEXT
  8
_0-a_文字
 62
    7
 10
1114.138328230149
 20
784.99623267557922
 40
14.999999999999858
 41
0.9999999999999992
 50
0
  1
ロンシーラントＳ
  0
LINE
  8
_0-a_文字
  6
CONTINUOUS
 62
    7
 10
1050.4200522026338
 20
725.43421141445265
 11
1089.1383282301472
 21
792.49623267557922
  0
LINE
  8
_0-a_文字
  6
CONTINUOUS
 62
    7
 10
1021.1632244223063
 20
724.38387294197469
 11
1103.7891838388628
 21
867.49623267557922
  0
TEXT
  8
_0-a_文字
 62
    7
 10
1128.7891838388648
 20
834.99623267557877
 40
14.999999999999858
 41
1.0000000000000164
 50
0
  1
ＢＰ－Ｈ１Ｎ
  0
LINE
  8
_0-d_断熱__ハッチ
  6
CONTINUOUS
 62
    4
 10
1017.1913648564794
 20
677.5229710933661
 11
1052.1913648564794
 21
712.5229710933661
  0
LINE
  8
_0-d_断熱__ハッチ
  6
CONTINUOUS
 62
    4
 10
1073.7599073514059
 20
677.5229710933661
 11
1108.7599073514059
 21
712.5229710933661
  0
LINE
  8
_0-d_断熱__ハッチ
  6
CONTINUOUS
 62
    4
 10
999.10782632864425
 20
712.5229710933661
 11
1034.1078263286465
 21
677.5229710933661
  0
LINE
  8
_0-d_断熱__ハッチ
  6
CONTINUOUS
 62
    4
 10
1045.4756361039344
 20
677.5229710933661
 11
1080.4756361039392
 21
712.5229710933661
  0
LINE
  8
_0-d_断熱__ハッチ
  6
CONTINUOUS
 62
    4
 10
1027.3920975761018
 20
712.5229710933661
 11
1062.3920975760996
 21
677.5229710933661
  0
LINE
  8
_0-a_文字
  6
CONTINUOUS
 62
    7
 10
1381.7388273727256
 20
767.49623267557922
 11
1401.7388273727256
 21
767.49623267557922
  0
LINE
  8
_0-a_文字
  6
CONTINUOUS
 62
    7
 10
1350.0000000000011
 20
712.5229710933661
 11
1381.7388273727256
 21
767.49623267557922
  0
TEXT
  8
_0-a_文字
 62
    7
 10
923.94666392191903
 20
520.02297109336382
 40
14.999999999999858
 41
1.0000000000000067
 50
0
  1
t=1.2（別途工事）
  0
TEXT
  8
_0-a_文字
 62
    7
 10
923.94666392191903
 20
540.02297109336382
 40
14.999999999999858
 41
1.0000000000000067
 50
0
  1
デッキプレート フラットタイプ H=75
  0
TEXT
  8
_0-a_文字
 62
    7
 10
405
 20
1115.0000000000005
 40
17.499999999999716
 41
1.0000000000000153
 50
0
  1
【デッキプレート フラットタイプ H=75 板厚1.2mm】
  0
CIRCLE
  8
_8-7_Ａの部位__白__
  6
CONTINUOUS
 62
    2
 10
1480.2625517167942
 20
1060.0425435704828
 40
2.5
  0
CIRCLE
  8
_8-7_Ａの部位__白__
  6
CONTINUOUS
 62
    2
 10
1480.2625517167942
 20
984.20921023714925
 40
2.5
  0
LINE
  8
_8-2_線色２__白__
  6
CONTINUOUS
 62
    7
 10
1480.2625517167942
 20
984.20921023714925
 11
1480.2625517167942
 21
1060.0425435704828
  0
POINT
  8
_8-b_寸法
 62
    1
 10
1480.2625517167942
 20
1100.0425435704828
  0
LINE
  8
_8-b_寸法
  6
CONTINUOUS
 62
    7
 10
1480.2625517167942
 20
1100.0425435704828
 11
1480.2625517167942
 21
1065.0425435704828
  0
LINE
  8
_8-a_文字
  6
CONTINUOUS
 62
    7
 10
1503.3565624843809
 20
1100.0425435704828
 11
1523.3565624843809
 21
1100.0425435704828
  0
TEXT
  8
_8-a_文字
 62
    7
 10
1528.3565624843827
 20
1092.542543570484
 40
14.999999999998082
 41
1.0000000000000784
 50
0
  1
ＢＰ－Ｈ１Ｎ または
  0
TEXT
  8
_8-a_文字
 62
    7
 10
1528.3565624843834
 20
1072.542543570484
 40
14.999999999998082
 41
1.0000000000000615
 50
0
  1
ＢＳ－Ｈ１
  0
LINE
  8
_8-a_文字
  6
CONTINUOUS
 62
    7
 10
1481.5125517167944
 20
1062.2076070799444
 11
1503.3565624843809
 21
1100.0425435704828
  0
LINE
  8
_8-a_文字
  6
CONTINUOUS
 62
    7
 10
1481.5125517167944
 20
1062.2076070799444
 11
1484.10074216782
 21
1071.8668653428354
  0
CIRCLE
  8
_8-7_Ａの部位__白__
  6
CONTINUOUS
 62
    2
 10
1328.5958850501277
 20
1060.0425435704828
 40
2.5
  0
LINE
  8
_8-2_線色２__白__
  6
CONTINUOUS
 62
    7
 10
1480.2625517167942
 20
1060.0425435704828
 11
1328.5958850501277
 21
1060.0425435704828
  0
CIRCLE
  8
_8-7_Ａの部位__白__
  6
CONTINUOUS
 62
    2
 10
1328.5958850501277
 20
984.20921023714925
 40
2.5
  0
LINE
  8
_8-2_線色２__白__
  6
CONTINUOUS
 62
    7
 10
1328.5958850501277
 20
1060.0425435704828
 11
1328.5958850501277
 21
984.20921023714925
  0
LINE
  8
_8-2_線色２__白__
  6
CONTINUOUS
 62
    7
 10
1328.5958850501277
 20
984.20921023714925
 11
1480.2625517167942
 21
984.20921023714925
  0
LINE
  8
_8-b_寸法
  6
CONTINUOUS
 62
    7
 10
1328.5958850501277
 20
1100.0425435704828
 11
1480.2625517167942
 21
1100.0425435704828
  0
POINT
  8
_8-b_寸法
 62
    1
 10
1328.5958850501277
 20
1100.0425435704828
  0
LINE
  8
_8-b_寸法
  6
CONTINUOUS
 62
    7
 10
1328.5958850501277
 20
1100.0425435704828
 11
1328.5958850501277
 21
1065.0425435704828
  0
LINE
  8
_8-b_寸法
  6
CONTINUOUS
 62
    7
 10
1288.5958850501277
 20
984.20921023714925
 11
1323.5958850501277
 21
984.20921023714925
  0
LINE
  8
_8-b_寸法
  6
CONTINUOUS
 62
    7
 10
1288.5958850501277
 20
1060.0425435704828
 11
1323.5958850501277
 21
1060.0425435704828
  0
POINT
  8
_8-b_寸法
 62
    1
 10
1288.5958850501277
 20
984.20921023714925
  0
POINT
  8
_8-b_寸法
 62
    1
 10
1288.5958850501277
 20
1060.0425435704828
  0
LINE
  8
_8-b_寸法
  6
CONTINUOUS
 62
    7
 10
1288.5958850501277
 20
1060.0425435704828
 11
1288.5958850501277
 21
984.20921023714925
  0
CIRCLE
  8
_8-7_Ａの部位__白__
  6
CONTINUOUS
 62
    2
 10
1404.4292183834609
 20
1060.0425435704828
 40
2.5
  0
CIRCLE
  8
_8-7_Ａの部位__白__
  6
CONTINUOUS
 62
    2
 10
1404.4292183834609
 20
984.20921023714925
 40
2.5
  0
LINE
  8
_8-a_文字
  6
CONTINUOUS
 62
    3
 10
1501.7270370740243
 20
951.70921023714925
 11
1307.131399692898
 21
951.70921023714925
  0
LINE
  8
_8-a_文字
  6
CONTINUOUS
 62
    3
 10
1307.131399692898
 20
951.70921023714925
 11
1307.131399692898
 21
919.20921023714925
  0
LINE
  8
_8-a_文字
  6
CONTINUOUS
 62
    3
 10
1307.131399692898
 20
919.20921023714925
 11
1501.7270370740243
 21
919.20921023714925
  0
LINE
  8
_8-a_文字
  6
CONTINUOUS
 62
    3
 10
1501.7270370740243
 20
919.20921023714925
 11
1501.7270370740243
 21
951.70921023714925
  0
TEXT
  8
_8-a_文字
 62
    7
 10
1321.3042183834609
 20
926.70921023714868
 40
17.500000000001137
 41
0.9999999999999359
 50
0
  1
断熱材 仮固定ピッチ
  0
TEXT
  8
_8-b_寸法
 62
    7
 10
1306.095885050127
 20
988.37587690381702
 40
14.999999999999147
 41
1.0000000000000318
 50
90
  1
（1,000）
  0
TEXT
  8
_8-b_寸法
 62
    7
 10
1286.095885050127
 20
1010.8758769038157
 40
14.999999999999147
 41
1.0000000000000946
 50
90
  1
910
  0
TEXT
  8
_8-b_寸法
 62
    7
 10
1370.6792183834609
 20
1082.5425435704822
 40
15.000000000000213
 41
0.999999999999992
 50
0
  1
（1,800）
  0
TEXT
  8
_8-b_寸法
 62
    7
 10
1385.6792183834609
 20
1102.5425435704833
 40
15.000000000000213
 41
0.9999999999999857
 50
0
  1
1,820
  0
TEXT
  8
_f-0_
 62
    7
 10
405.30228976001922
 20
1163.75
 40
17.499999999999993
 41
1
 50
0
  1
ＳＤ－Ｆ仕様 平場 ＵＳ工法（ディスク板 後付け工法）
  0
LINE
  8
_0-d_断熱__ハッチ
  6
CONTINUOUS
 62
    4
 10
1300.0340773310938
 20
677.52297109336382
 11
1333.434077331093
 21
710.92297109336528
  0
LINE
  8
_0-d_断熱__ハッチ
  6
CONTINUOUS
 62
    4
 10
1368.4033525456482
 20
710.92297109336528
 11
1401.8033525456474
 21
677.5229710933661
  0
LINE
  8
_0-d_断熱__ハッチ
  6
CONTINUOUS
 62
    4
 10
1340.1190812981906
 20
710.92297109336528
 11
1373.5190812981898
 21
677.5229710933661
  0
LINE
  8
_0-d_断熱__ハッチ
  6
CONTINUOUS
 62
    4
 10
1328.3183485785605
 20
677.5229710933661
 11
1361.7183485785597
 21
710.92297109336528
  0
TEXT
  8
_0-a_文字
 62
    7
 10
1406.7388273727279
 20
759.99623267558036
 40
14.999999999997726
 41
1.0000000000000955
 50
0
  1
ＢＰ－Ｈ１Ｎ または
  0
TEXT
  8
_0-a_文字
 62
    7
 10
1406.7388273727279
 20
739.99623267558036
 40
14.999999999997726
 41
1.0000000000000957
 50
0
  1
ＢＳ－Ｈ１
  0
TEXT
  8
_0-a_文字
 62
    7
 10
1391.7388273727256
 20
779.99623267557922
 40
15.000000000000213
 41
0.9999999999999863
 50
0
  1
［断熱材目地部］
  0
ENDSEC
  0
EOF
