  0
SECTION
  2
HEADER
  9
$ACADVER
  1
AC1009
  9
$INSBASE
 10
0
 20
0
 30
0
  9
$EXTMIN
 10
0
 20
0
  9
$EXTMAX
 10
2100
 20
1485
  9
$LIMMIN
 10
0
 20
0
  9
$LIMMAX
 10
2100
 20
1485
  9
$LTSCALE
 40
5
  0
ENDSEC
  0
SECTION
  2
TABLES
  0
TABLE
  2
LTYPE
 70
     9
  0
LTYPE
  2
CONTINUOUS
 70
    64
  3
実線
 72
    65
 73
     0
 40
0.0
  0
LTYPE
  2
DASHED1
 70
    64
  3
--  --  --  --  --  --  --  --  
 72
    65
 73
     2
 40
2.5
 49
1.25
 49
-1.25
  0
LTYPE
  2
DASHED2
 70
    64
  3
----    ----    ----    ----    
 72
    65
 73
     2
 40
5.0
 49
2.5
 49
-2.5
  0
LTYPE
  2
DASHED3
 70
    64
  3
------  ------  ------  ------  
 72
    65
 73
     2
 40
5.0
 49
3.75
 49
-1.25
  0
LTYPE
  2
CENTER1
 70
    64
  3
----- - ----- - ----- - ----- - 
 72
    65
 73
     4
 40
10.0
 49
6.25
 49
-1.25
 49
1.25
 49
-1.25
  0
LTYPE
  2
CENTER2
 70
    64
  3
----------  --  ----------  --  
 72
    65
 73
     4
 40
20.0
 49
12.5
 49
-2.5
 49
2.5
 49
-2.5
  0
LTYPE
  2
PHANTOM1
 70
    64
  3
--- - - --- - - --- - - --- - - 
 72
    65
 73
     6
 40
10.0
 49
3.25
 49
-1.25
 49
1.25
 49
-1.25
 49
1.25
 49
-1.25
  0
LTYPE
  2
PHANTOM2
 70
    64
  3
--------  -  -  --------  -  -  
 72
    65
 73
     6
 40
20.0
 49
10.0
 49
-2.5
 49
1.25
 49
-2.5
 49
1.25
 49
-2.5
  0
LTYPE
  2
DOT
 70
    64
  3
-   -   -   -   -   -   -   -   
 72
    65
 73
     2
 40
2.5
 49
0.625
 49
-1.875
  0
LTYPE
  2
DUMMY
 70
    64
  3
ダミー
 72
    65
 73
     0
 40
0.0
  0
LTYPE
  2
RAND1
 70
    64
  3
ランダム線1
 72
    65
 73
     4
 40
10.0
 49
1.0
 49
-2.0
 49
3.0
 49
-4.0
  0
LTYPE
  2
RAND2
 70
    64
  3
ランダム線2
 72
    65
 73
     4
 40
14.0
 49
2.0
 49
-3.0
 49
4.0
 49
-5.0
  0
LTYPE
  2
RAND3
 70
    64
  3
ランダム線3
 72
    65
 73
     4
 40
18.0
 49
3.0
 49
-4.0
 49
5.0
 49
-6.0
  0
LTYPE
  2
RAND4
 70
    64
  3
ランダム線4
 72
    65
 73
     4
 40
22.0
 49
4.0
 49
-5.0
 49
6.0
 49
-7.0
  0
LTYPE
  2
RAND5
 70
    64
  3
ランダム線5
 72
    65
 73
     4
 40
26.0
 49
5.0
 49
-6.0
 49
7.0
 49
-8.0
  0
LTYPE
  2
LONG1
 70
    64
  3
----------  --  ----------  --  
 72
    65
 73
     4
 40
40.0
 49
32.5
 49
-2.5
 49
2.5
 49
-2.5
  0
LTYPE
  2
LONG2
 70
    64
  3
--------  -  -  --------  -  -  
 72
    65
 73
     6
 40
40.0
 49
30.0
 49
-2.5
 49
1.25
 49
-2.5
 49
1.25
 49
-2.5
  0
LTYPE
  2
LONG3
 70
    64
  3
+++++++++++++++..+++++++++++++++
 72
    65
 73
     2
 40
40.0
 49
37.5
 49
-2.5
  0
LTYPE
  2
LONG4
 70
    64
  3
+++++++++++++++..+++++++++++++++
 72
    65
 73
     2
 40
80.0
 49
75.0
 49
-5.0
  0
LTYPE
  2
LONG5
 70
    64
  3
----------  --  ----------  --  
 72
    65
 73
     4
 40
60.0
 49
37.5
 49
-7.5
 49
7.5
 49
-7.5
  0
LTYPE
  2
dashed
 70
   64
  3
-------   -------------   ------
 72
   65
 73
    2
 40
7.5
 49
6
 49
-1.5
  0
LTYPE
  2
dashed_spaced
 70
   64
  3
----        --------        ----
 72
   65
 73
    2
 40
12
 49
6
 49
-6
  0
LTYPE
  2
long_dashed_dotted
 70
   64
  3
------------- --- --------------
 72
   65
 73
    4
 40
15.25
 49
12
 49
-1.5
 49
0.25
 49
-1.5
  0
LTYPE
  2
long_dashed_double-dotted
 70
   64
  3
----------- --- --- ------------
 72
   65
 73
    6
 40
17
 49
12
 49
-1.5
 49
0.25
 49
-1.5
 49
0.25
 49
-1.5
  0
LTYPE
  2
long_dashed_triplicate-dotted
 70
   64
  3
--------- --- --- --- ----------
 72
   65
 73
    8
 40
18.75
 49
12
 49
-1.5
 49
0.25
 49
-1.5
 49
0.25
 49
-1.5
 49
0.25
 49
-1.5
  0
LTYPE
  2
dotted
 70
   64
  3
   -       -       -       -    
 72
   65
 73
    2
 40
1.75
 49
0.25
 49
-1.5
  0
LTYPE
  2
chain
 70
   64
  3
-------------- -- --------------
 72
   65
 73
    4
 40
18.5
 49
12
 49
-1.5
 49
3.5
 49
-1.5
  0
LTYPE
  2
chain_double_dash
 70
   64
  3
------------ -- -- -------------
 72
   65
 73
    6
 40
23.5
 49
12
 49
-1.5
 49
3.5
 49
-1.5
 49
3.5
 49
-1.5
  0
LTYPE
  2
dashed_dotted
 70
   64
  3
-----------     -     ----------
 72
   65
 73
    4
 40
9.25
 49
6
 49
-1.5
 49
0.25
 49
-1.5
  0
LTYPE
  2
double-dashed_dotted
 70
   64
  3
------   -----------   -   -----
 72
   65
 73
    6
 40
16.75
 49
6
 49
-1.5
 49
6
 49
-1.5
 49
0.25
 49
-1.5
  0
LTYPE
  2
dashed_double-dotted
 70
   64
  3
---------    -    -    ---------
 72
   65
 73
    6
 40
11
 49
6
 49
-1.5
 49
0.25
 49
-1.5
 49
0.25
 49
-1.5
  0
LTYPE
  2
double-dashed_double-dotted
 70
   64
  3
-----   ---------   -   -   ----
 72
   65
 73
    8
 40
18.5
 49
6
 49
-1.5
 49
6
 49
-1.5
 49
0.25
 49
-1.5
 49
0.25
 49
-1.5
  0
LTYPE
  2
dashed_triplicate-dotted
 70
   64
  3
-------    -    -    -    ------
 72
   65
 73
    8
 40
12.75
 49
6
 49
-1.5
 49
0.25
 49
-1.5
 49
0.25
 49
-1.5
 49
0.25
 49
-1.5
  0
LTYPE
  2
double-dashed_triplicate-dotted
 70
   64
  3
-----  ---------  -  -  -  -----
 72
   65
 73
   10
 40
20.25
 49
6
 49
-1.5
 49
6
 49
-1.5
 49
0.25
 49
-1.5
 49
0.25
 49
-1.5
 49
0.25
 49
-1.5
  0
LTYPE
  2
undefined
 70
   64
  3
--------------------------------
 72
   65
 73
    0
 40
0
  0
ENDTAB
  0
TABLE
  2
STYLE
  5
3
100
AcDbSymbolTable
 70
     1
  0
STYLE
  5
10
100
AcDbSymbolTableRecord
100
AcDbTextStyleTableRecord
  2
STANDARD
 70
     0
 40
0.0
 41
1.0
 50
0.0
 71
     0
 42
0.2
  3
txt
  4
bigfont.shx
  0
STYLE
  5
26
100
AcDbSymbolTableRecord
100
AcDbTextStyleTableRecord
  2
TATEGAKI
 70
    68
 40
0.0
 41
1.0
 50
0.0
 71
     0
 42
1.0
  3
txt
  4
bigfont.shx
  0
ENDTAB
  0
TABLE
  2
LAYER
 70
   15
  0
LAYER
  2
_0-1_線色１__水色__
 70
   64
 62
    7
  6
CONTINUOUS
  0
LAYER
  2
_0-2_線色２__白__
 70
   64
 62
    7
  6
CONTINUOUS
  0
LAYER
  2
_0-4_線色４__黄__
 70
   64
 62
    7
  6
CONTINUOUS
  0
LAYER
  2
_0-5_金属
 70
   64
 62
    7
  6
CONTINUOUS
  0
LAYER
  2
_0-6_鋼板__アングル
 70
   64
 62
    7
  6
CONTINUOUS
  0
LAYER
  2
_0-7_ビス
 70
   64
 62
    7
  6
CONTINUOUS
  0
LAYER
  2
_0-a_文字
 70
   64
 62
    7
  6
CONTINUOUS
  0
LAYER
  2
_0-d_断熱__ハッチ
 70
   64
 62
    7
  6
CONTINUOUS
  0
LAYER
  2
_1-2_線色２__白__
 70
   64
 62
    7
  6
CONTINUOUS
  0
LAYER
  2
_1-7_ビス
 70
   64
 62
    7
  6
CONTINUOUS
  0
LAYER
  2
_1-a_文字
 70
   64
 62
    7
  6
CONTINUOUS
  0
LAYER
  2
_1-b_寸法
 70
   64
 62
    7
  6
CONTINUOUS
  0
LAYER
  2
_f-0_
 70
   64
 62
    7
  6
CONTINUOUS
  0
LAYER
  2
_f-f_
 70
   64
 62
    7
  6
CONTINUOUS
  0
LAYER
  2
ADD_LINE
 70
   64
 62
    7
  6
CONTINUOUS
  0
ENDTAB
  0
ENDSEC
  0
SECTION
  2
BLOCKS
  0
ENDSEC
  0
SECTION
  2
ENTITIES
  0
TEXT
  8
_0-a_文字
 62
    7
 10
1203.0519939784949
 20
577.70454473381392
 40
14.999999999999858
 41
1.0000000000000069
 50
0
  1
耐火デッキプレート t=1.2以上
  0
TEXT
  8
_0-a_文字
 62
    7
 10
1203.0519939784949
 20
557.70454473381392
 40
14.999999999999858
 41
1.0000000000000069
 50
0
  1
（別途工事）
  0
LINE
  8
_0-d_断熱__ハッチ
  6
CONTINUOUS
 62
    4
 10
1208.4847925521749
 20
699.1107713042976
 11
1221.8969923412437
 21
712.5229710933661
  0
LINE
  8
_0-d_断熱__ハッチ
  6
CONTINUOUS
 62
    4
 10
1186.896992341243
 20
677.5229710933661
 11
1193.3347548277889
 21
683.9607335799119
  0
LINE
  8
_0-d_断熱__ハッチ
  6
CONTINUOUS
 62
    4
 10
1209.2260424191818
 20
700.3946537350572
 11
1232.097725060873
 21
677.5229710933661
  0
LINE
  8
_0-d_断熱__ハッチ
  6
CONTINUOUS
 62
    4
 10
1168.8134538134148
 20
712.5229710933661
 11
1191.1070918114419
 21
690.22933309534039
  0
LINE
  8
_0-5_金属
  6
CONTINUOUS
 62
    7
 10
1187.3998499999982
 20
638.12307109341964
 11
1193.8747000000001
 21
638.12307109341964
  0
LINE
  8
_0-5_金属
  6
CONTINUOUS
 62
    7
 10
1186.200849999999
 20
639.32302109341981
 11
1193.8747000000001
 21
639.32302109341981
  0
LINE
  8
_0-5_金属
  6
CONTINUOUS
 62
    7
 10
1186.200849999999
 20
640.52297109341885
 11
1193.8747000000001
 21
640.52297109341885
  0
LINE
  8
_0-5_金属
  6
CONTINUOUS
 62
    7
 10
1206.1247000000003
 20
639.32302109341981
 11
1213.8006999999989
 21
639.32302109341981
  0
LINE
  8
_0-5_金属
  6
CONTINUOUS
 62
    7
 10
1206.1247000000003
 20
640.52297109341885
 11
1213.8006999999989
 21
640.52297109341885
  0
LINE
  8
_0-2_線色２__白__
  6
CONTINUOUS
 62
    7
 10
1206.1247000000003
 20
677.5229710933661
 11
1458.517600335651
 21
677.5229710933661
  0
LINE
  8
_0-2_線色２__白__
  6
CONTINUOUS
 62
    7
 10
641.48239966434971
 20
677.5229710933661
 11
1193.8747000000001
 21
677.5229710933661
  0
ARC
  8
_0-1_線色１__水色__
  6
CONTINUOUS
 62
    4
 10
1207.2488104789504
 20
714.0646377573097
 40
1.2083333333333179
 50
201.51863339661901
 51
52.47648680188081
  0
ARC
  8
_0-1_線色１__水色__
  6
CONTINUOUS
 62
    4
 10
1207.2488104789504
 20
714.0646377573097
 40
1.2083333333333179
 50
127.52351320610693
 51
158.48136660338102
  0
ARC
  8
_0-1_線色１__水色__
  6
CONTINUOUS
 62
    4
 10
1205.7768503344737
 20
715.98130442390982
 40
1.2083333333333581
 50
307.52351320333918
 51
73.269186924643918
  0
ARC
  8
_0-1_線色１__水色__
  6
CONTINUOUS
 62
    4
 10
1194.0011691797415
 20
715.981304423089
 40
1.2083333333333581
 50
96.007817084133961
 51
232.47648680464988
  0
LINE
  8
_0-4_線色４__黄__
  6
CONTINUOUS
 62
    2
 10
1206.1247000000003
 20
722.5229710933661
 11
1458.517600335651
 21
722.5229710933661
  0
LINE
  8
_0-4_線色４__黄__
  6
CONTINUOUS
 62
    2
 10
1124.9999999999989
 20
722.5229710933661
 11
1193.8747000000001
 21
722.5229710933661
  0
LINE
  8
_0-2_線色２__白__
  6
CONTINUOUS
 62
    7
 10
1206.1247000000003
 20
717.5229710933661
 11
1458.517600335651
 21
717.5229710933661
  0
LINE
  8
_0-2_線色２__白__
  6
CONTINUOUS
 62
    7
 10
641.48239966434971
 20
717.5229710933661
 11
1193.8747000000001
 21
717.5229710933661
  0
LINE
  8
_0-2_線色２__白__
  6
CONTINUOUS
 62
    7
 10
1206.1247000000003
 20
712.5229710933661
 11
1458.517600335651
 21
712.5229710933661
  0
LINE
  8
_0-2_線色２__白__
  6
CONTINUOUS
 62
    7
 10
641.48239966434971
 20
712.5229710933661
 11
1193.8747000000001
 21
712.5229710933661
  0
LINE
  8
_0-2_線色２__白__
  6
CONTINUOUS
 62
    7
 10
1206.1247000000003
 20
599.68934568464476
 11
1206.1247000000003
 21
683.9607335799119
  0
LINE
  8
_0-2_線色２__白__
  6
CONTINUOUS
 62
    7
 10
1193.8747000000001
 20
599.68934568464476
 11
1193.8747000000001
 21
683.9607335799119
  0
LINE
  8
_0-2_線色２__白__
  6
CONTINUOUS
 62
    7
 10
1206.1247000000003
 20
706.08520860682063
 11
1206.1247000000003
 21
756.24155150529361
  0
LINE
  8
_0-2_線色２__白__
  6
CONTINUOUS
 62
    7
 10
1193.8747000000001
 20
706.08520860682063
 11
1193.8747000000001
 21
756.24155150529361
  0
LINE
  8
_0-2_線色２__白__
  6
CONTINUOUS
 62
    7
 10
1212.5114858062327
 20
706.08520860682063
 11
1206.1247000000003
 21
706.08520860682063
  0
LINE
  8
_0-2_線色２__白__
  6
CONTINUOUS
 62
    7
 10
1199.7379141937677
 20
683.9607335799119
 11
1212.5114858062327
 21
706.08520860682063
  0
LINE
  8
_0-2_線色２__白__
  6
CONTINUOUS
 62
    7
 10
1206.1247000000003
 20
683.9607335799119
 11
1199.7379141937677
 21
683.9607335799119
  0
LINE
  8
_0-2_線色２__白__
  6
CONTINUOUS
 62
    7
 10
1200.2614858062327
 20
706.08520860682063
 11
1193.8747000000001
 21
706.08520860682063
  0
LINE
  8
_0-2_線色２__白__
  6
CONTINUOUS
 62
    7
 10
1187.4879141937674
 20
683.9607335799119
 11
1200.2614858062327
 21
706.08520860682063
  0
LINE
  8
_0-2_線色２__白__
  6
CONTINUOUS
 62
    7
 10
1193.8747000000001
 20
683.9607335799119
 11
1187.4879141937674
 21
683.9607335799119
  0
ARC
  8
_0-1_線色１__水色__
  6
CONTINUOUS
 62
    4
 10
1458.9539951610809
 20
715.9813044355252
 40
1.2083333333333581
 50
111.1711048205416
 51
232.47648680464988
  0
ARC
  8
_0-1_線色１__水色__
  6
CONTINUOUS
 62
    4
 10
1457.4820350168748
 20
714.06463776872044
 40
1.2083333333333179
 50
31.016430024675358
 51
52.476486801880846
  0
ARC
  8
_0-1_線色１__水色__
  6
CONTINUOUS
 62
    4
 10
1457.4820350168748
 20
714.06463776872044
 40
1.2083333333333179
 50
127.52351320610693
 51
328.9835699753246
  0
ARC
  8
_0-1_線色１__水色__
  6
CONTINUOUS
 62
    4
 10
1450.1222342950527
 20
715.98130443550701
 40
1.2083333333333581
 50
307.52351320333912
 51
232.47648680464988
  0
ARC
  8
_0-1_線色１__水色__
  6
CONTINUOUS
 62
    4
 10
1448.6502741508466
 20
714.06463776870226
 40
1.2083333333333179
 50
127.52351320610693
 51
52.47648680188081
  0
ARC
  8
_0-1_線色１__水色__
  6
CONTINUOUS
 62
    4
 10
1447.1783140063699
 20
715.98130443530238
 40
1.2083333333333581
 50
307.52351320333912
 51
232.47648680464988
  0
ARC
  8
_0-1_線色１__水色__
  6
CONTINUOUS
 62
    4
 10
1445.7063538621637
 20
714.06463776849762
 40
1.2083333333333179
 50
127.52351320610693
 51
52.47648680188081
  0
ARC
  8
_0-1_線色１__水色__
  6
CONTINUOUS
 62
    4
 10
1444.234393717687
 20
715.98130443509774
 40
1.2083333333333581
 50
307.52351320333912
 51
232.47648680464988
  0
ARC
  8
_0-1_線色１__水色__
  6
CONTINUOUS
 62
    4
 10
1442.7624335734808
 20
714.06463776829185
 40
1.2083333333333179
 50
127.52351320610693
 51
52.47648680188081
  0
ARC
  8
_0-1_線色１__水色__
  6
CONTINUOUS
 62
    4
 10
1451.5941944395306
 20
714.06463776829185
 40
1.2083333333333179
 50
127.52351320610693
 51
52.47648680188081
  0
ARC
  8
_0-1_線色１__水色__
  6
CONTINUOUS
 62
    4
 10
1456.010074872398
 20
715.98130443532057
 40
1.2083333333333581
 50
307.52351320333912
 51
232.47648680464988
  0
ARC
  8
_0-1_線色１__水色__
  6
CONTINUOUS
 62
    4
 10
1453.0661545837152
 20
715.98130443511479
 40
1.2083333333333581
 50
307.52351320333912
 51
232.47648680464988
  0
ARC
  8
_0-1_線色１__水色__
  6
CONTINUOUS
 62
    4
 10
1454.5381147281896
 20
714.06463776851581
 40
1.2083333333333179
 50
127.52351320610693
 51
52.47648680188081
  0
ARC
  8
_0-1_線色１__水色__
  6
CONTINUOUS
 62
    4
 10
1441.2904734290041
 20
715.98130443489197
 40
1.2083333333333581
 50
307.52351320333912
 51
232.47648680464988
  0
ARC
  8
_0-1_線色１__水色__
  6
CONTINUOUS
 62
    4
 10
1438.3465531403212
 20
715.98130443468619
 40
1.2083333333333581
 50
307.52351320333912
 51
232.47648680464988
  0
ARC
  8
_0-1_線色１__水色__
  6
CONTINUOUS
 62
    4
 10
1439.818513284798
 20
714.06463776808607
 40
1.2083333333333179
 50
127.52351320610693
 51
52.47648680188081
  0
ARC
  8
_0-1_線色１__水色__
  6
CONTINUOUS
 62
    4
 10
1435.4026328516384
 20
715.98130443448156
 40
1.2083333333333581
 50
307.52351320333912
 51
232.47648680464988
  0
ARC
  8
_0-1_線色１__水色__
  6
CONTINUOUS
 62
    4
 10
1436.8745929961128
 20
714.06463776788144
 40
1.2083333333333179
 50
127.52351320610693
 51
52.47648680188081
  0
ARC
  8
_0-1_線色１__水色__
  6
CONTINUOUS
 62
    4
 10
1433.9306727074299
 20
714.0646377676768
 40
1.2083333333333179
 50
127.52351320610693
 51
52.47648680188081
  0
ARC
  8
_0-1_線色１__水色__
  6
CONTINUOUS
 62
    4
 10
1370.6363865006483
 20
715.98130443177752
 40
1.2083333333333581
 50
307.52351320333912
 51
232.47648680464988
  0
ARC
  8
_0-1_線色１__水色__
  6
CONTINUOUS
 62
    4
 10
1369.1644263564422
 20
714.06463776497276
 40
1.2083333333333179
 50
127.52351320610693
 51
52.47648680188081
  0
ARC
  8
_0-1_線色１__水色__
  6
CONTINUOUS
 62
    4
 10
1367.6924662119654
 20
715.98130443157288
 40
1.2083333333333581
 50
307.52351320333912
 51
232.47648680464988
  0
ARC
  8
_0-1_線色１__水色__
  6
CONTINUOUS
 62
    4
 10
1366.2205060677593
 20
714.06463776476812
 40
1.2083333333333179
 50
127.52351320610693
 51
52.47648680188081
  0
ARC
  8
_0-1_線色１__水色__
  6
CONTINUOUS
 62
    4
 10
1364.7485459232826
 20
715.98130443136824
 40
1.2083333333333581
 50
307.52351320333912
 51
232.47648680464988
  0
ARC
  8
_0-1_線色１__水色__
  6
CONTINUOUS
 62
    4
 10
1363.2765857790764
 20
714.06463776456235
 40
1.2083333333333179
 50
127.52351320610693
 51
52.47648680188081
  0
ARC
  8
_0-1_線色１__水色__
  6
CONTINUOUS
 62
    4
 10
1372.1083466451262
 20
714.06463776456235
 40
1.2083333333333179
 50
127.52351320610693
 51
52.47648680188081
  0
ARC
  8
_0-1_線色１__水色__
  6
CONTINUOUS
 62
    4
 10
1403.0195096761213
 20
715.98130443345553
 40
1.2083333333333581
 50
307.52351320333912
 51
232.47648680464988
  0
ARC
  8
_0-1_線色１__水色__
  6
CONTINUOUS
 62
    4
 10
1404.491469820598
 20
714.06463776685541
 40
1.2083333333333179
 50
127.52351320610693
 51
52.47648680188081
  0
ARC
  8
_0-1_線色１__水色__
  6
CONTINUOUS
 62
    4
 10
1400.0755893874384
 20
715.98130443324976
 40
1.2083333333333581
 50
307.52351320333912
 51
232.47648680464988
  0
ARC
  8
_0-1_線色１__水色__
  6
CONTINUOUS
 62
    4
 10
1401.5475495319129
 20
714.06463776665078
 40
1.2083333333333179
 50
127.52351320610693
 51
52.47648680188081
  0
ARC
  8
_0-1_線色１__水色__
  6
CONTINUOUS
 62
    4
 10
1397.1316690987555
 20
715.98130443304512
 40
1.2083333333333581
 50
307.52351320333912
 51
232.47648680464988
  0
ARC
  8
_0-1_線色１__水色__
  6
CONTINUOUS
 62
    4
 10
1398.60362924323
 20
714.064637766445
 40
1.2083333333333179
 50
127.52351320610693
 51
52.47648680188081
  0
ARC
  8
_0-1_線色１__水色__
  6
CONTINUOUS
 62
    4
 10
1394.1877488100727
 20
715.98130443283935
 40
1.2083333333333581
 50
307.52351320333912
 51
232.47648680464988
  0
ARC
  8
_0-1_線色１__水色__
  6
CONTINUOUS
 62
    4
 10
1395.6597089545471
 20
714.06463776624037
 40
1.2083333333333179
 50
127.52351320610693
 51
52.47648680188081
  0
ARC
  8
_0-1_線色１__水色__
  6
CONTINUOUS
 62
    4
 10
1391.2438285213875
 20
715.98130443263472
 40
1.2083333333333581
 50
307.52351320333912
 51
232.47648680464988
  0
ARC
  8
_0-1_線色１__水色__
  6
CONTINUOUS
 62
    4
 10
1392.7157886658642
 20
714.06463776603459
 40
1.2083333333333179
 50
127.52351320610693
 51
52.47648680188081
  0
ARC
  8
_0-1_線色１__水色__
  6
CONTINUOUS
 62
    4
 10
1388.2999082327046
 20
715.98130443242894
 40
1.2083333333333581
 50
307.52351320333912
 51
232.47648680464988
  0
ARC
  8
_0-1_線色１__水色__
  6
CONTINUOUS
 62
    4
 10
1389.7718683771791
 20
714.06463776582996
 40
1.2083333333333179
 50
127.52351320610693
 51
52.47648680188081
  0
ARC
  8
_0-1_線色１__水色__
  6
CONTINUOUS
 62
    4
 10
1385.3559879440218
 20
715.98130443222431
 40
1.2083333333333581
 50
307.52351320333912
 51
232.47648680464988
  0
ARC
  8
_0-1_線色１__水色__
  6
CONTINUOUS
 62
    4
 10
1383.8840277998133
 20
714.06463776541955
 40
1.2083333333333179
 50
127.52351320610693
 51
52.47648680188081
  0
ARC
  8
_0-1_線色１__水色__
  6
CONTINUOUS
 62
    4
 10
1386.8279480884962
 20
714.06463776562418
 40
1.2083333333333179
 50
127.52351320610693
 51
52.47648680188081
  0
ARC
  8
_0-1_線色１__水色__
  6
CONTINUOUS
 62
    4
 10
1407.4353901092809
 20
714.064637766445
 40
1.2083333333333179
 50
127.52351320610693
 51
52.47648680188081
  0
ARC
  8
_0-1_線色１__水色__
  6
CONTINUOUS
 62
    4
 10
1405.9634299648042
 20
715.98130443304512
 40
1.2083333333333581
 50
307.52351320333912
 51
232.47648680464988
  0
ARC
  8
_0-1_線色１__水色__
  6
CONTINUOUS
 62
    4
 10
1382.4120676553389
 20
715.98130443201853
 40
1.2083333333333581
 50
307.52351320333912
 51
232.47648680464988
  0
ARC
  8
_0-1_線色１__水色__
  6
CONTINUOUS
 62
    4
 10
1429.5147922742717
 20
715.98130443468676
 40
1.2083333333333581
 50
307.52351320333912
 51
232.47648680464988
  0
ARC
  8
_0-1_線色１__水色__
  6
CONTINUOUS
 62
    4
 10
1430.9867524187462
 20
714.06463776808664
 40
1.2083333333333179
 50
127.52351320610693
 51
52.47648680188081
  0
ARC
  8
_0-1_線色１__水色__
  6
CONTINUOUS
 62
    4
 10
1426.5708719855888
 20
715.98130443448099
 40
1.2083333333333581
 50
307.52351320333912
 51
232.47648680464988
  0
ARC
  8
_0-1_線色１__水色__
  6
CONTINUOUS
 62
    4
 10
1428.0428321300633
 20
714.06463776788087
 40
1.2083333333333179
 50
127.52351320610693
 51
52.47648680188081
  0
ARC
  8
_0-1_線色１__水色__
  6
CONTINUOUS
 62
    4
 10
1423.626951696906
 20
715.98130443427635
 40
1.2083333333333581
 50
307.52351320333912
 51
232.47648680464988
  0
ARC
  8
_0-1_線色１__水色__
  6
CONTINUOUS
 62
    4
 10
1425.0989118413804
 20
714.06463776767623
 40
1.2083333333333179
 50
127.52351320610693
 51
52.47648680188081
  0
ARC
  8
_0-1_線色１__水色__
  6
CONTINUOUS
 62
    4
 10
1420.6830314082208
 20
715.98130443407058
 40
1.2083333333333581
 50
307.52351320333912
 51
232.47648680464988
  0
ARC
  8
_0-1_線色１__水色__
  6
CONTINUOUS
 62
    4
 10
1422.1549915526975
 20
714.06463776747046
 40
1.2083333333333179
 50
127.52351320610693
 51
52.47648680188081
  0
ARC
  8
_0-1_線色１__水色__
  6
CONTINUOUS
 62
    4
 10
1417.7391111195379
 20
715.98130443386594
 40
1.2083333333333581
 50
307.52351320333912
 51
232.47648680464988
  0
ARC
  8
_0-1_線色１__水色__
  6
CONTINUOUS
 62
    4
 10
1419.2110712640124
 20
714.06463776726582
 40
1.2083333333333179
 50
127.52351320610693
 51
52.47648680188081
  0
ARC
  8
_0-1_線色１__水色__
  6
CONTINUOUS
 62
    4
 10
1414.7951908308551
 20
715.98130443366017
 40
1.2083333333333581
 50
307.52351320333912
 51
232.47648680464988
  0
ARC
  8
_0-1_線色１__水色__
  6
CONTINUOUS
 62
    4
 10
1416.2671509753295
 20
714.06463776706119
 40
1.2083333333333179
 50
127.52351320610693
 51
52.47648680188081
  0
ARC
  8
_0-1_線色１__水色__
  6
CONTINUOUS
 62
    4
 10
1411.8512705421722
 20
715.98130443345553
 40
1.2083333333333581
 50
307.52351320333912
 51
232.47648680464988
  0
ARC
  8
_0-1_線色１__水色__
  6
CONTINUOUS
 62
    4
 10
1410.3793103979638
 20
714.06463776665078
 40
1.2083333333333179
 50
127.52351320610693
 51
52.47648680188081
  0
ARC
  8
_0-1_線色１__水色__
  6
CONTINUOUS
 62
    4
 10
1413.3232306866466
 20
714.06463776685541
 40
1.2083333333333179
 50
127.52351320610693
 51
52.47648680188081
  0
ARC
  8
_0-1_線色１__水色__
  6
CONTINUOUS
 62
    4
 10
1432.4587125629546
 20
715.98130443427635
 40
1.2083333333333581
 50
307.52351320333912
 51
232.47648680464988
  0
ARC
  8
_0-1_線色１__水色__
  6
CONTINUOUS
 62
    4
 10
1408.907350253487
 20
715.98130443324976
 40
1.2083333333333581
 50
307.52351320333912
 51
232.47648680464988
  0
ARC
  8
_0-1_線色１__水色__
  6
CONTINUOUS
 62
    4
 10
1379.4681473666765
 20
715.98130443179571
 40
1.2083333333333581
 50
307.52351320333912
 51
232.47648680464988
  0
ARC
  8
_0-1_線色１__水色__
  6
CONTINUOUS
 62
    4
 10
1376.5242270779936
 20
715.98130443159107
 40
1.2083333333333581
 50
307.52351320333912
 51
232.47648680464988
  0
ARC
  8
_0-1_線色１__水色__
  6
CONTINUOUS
 62
    4
 10
1377.9961872224703
 20
714.06463776499095
 40
1.2083333333333179
 50
127.52351320610693
 51
52.47648680188081
  0
ARC
  8
_0-1_線色１__水色__
  6
CONTINUOUS
 62
    4
 10
1373.5803067893107
 20
715.9813044313853
 40
1.2083333333333581
 50
307.52351320333912
 51
232.47648680464988
  0
ARC
  8
_0-1_線色１__水色__
  6
CONTINUOUS
 62
    4
 10
1375.0522669337852
 20
714.06463776478631
 40
1.2083333333333179
 50
127.52351320610693
 51
52.47648680188081
  0
ARC
  8
_0-1_線色１__水色__
  6
CONTINUOUS
 62
    4
 10
1380.9401075111532
 20
714.06463776519558
 40
1.2083333333333179
 50
127.52351320610693
 51
52.47648680188081
  0
ARC
  8
_0-1_線色１__水色__
  6
CONTINUOUS
 62
    4
 10
1361.8046256345997
 20
715.98130443116247
 40
1.2083333333333581
 50
307.52351320333912
 51
232.47648680464988
  0
ARC
  8
_0-1_線色１__水色__
  6
CONTINUOUS
 62
    4
 10
1358.8607053459168
 20
715.9813044309567
 40
1.2083333333333581
 50
307.52351320333912
 51
232.47648680464988
  0
ARC
  8
_0-1_線色１__水色__
  6
CONTINUOUS
 62
    4
 10
1360.3326654903935
 20
714.06463776435658
 40
1.2083333333333179
 50
127.52351320610693
 51
52.47648680188081
  0
ARC
  8
_0-1_線色１__水色__
  6
CONTINUOUS
 62
    4
 10
1355.9167850572339
 20
715.98130443075206
 40
1.2083333333333581
 50
307.52351320333912
 51
232.47648680464988
  0
ARC
  8
_0-1_線色１__水色__
  6
CONTINUOUS
 62
    4
 10
1357.3887452017084
 20
714.06463776415194
 40
1.2083333333333179
 50
127.52351320610693
 51
52.47648680188081
  0
ARC
  8
_0-1_線色１__水色__
  6
CONTINUOUS
 62
    4
 10
1354.4448249130255
 20
714.0646377639473
 40
1.2083333333333179
 50
127.52351320610693
 51
52.47648680188081
  0
ARC
  8
_0-1_線色１__水色__
  6
CONTINUOUS
 62
    4
 10
1291.1505387062439
 20
715.98130442804802
 40
1.2083333333333581
 50
307.52351320333912
 51
232.47648680464988
  0
ARC
  8
_0-1_線色１__水色__
  6
CONTINUOUS
 62
    4
 10
1289.6785785620377
 20
714.06463776124326
 40
1.2083333333333179
 50
127.52351320610693
 51
52.47648680188081
  0
ARC
  8
_0-1_線色１__水色__
  6
CONTINUOUS
 62
    4
 10
1288.206618417561
 20
715.98130442784338
 40
1.2083333333333581
 50
307.52351320333912
 51
232.47648680464988
  0
ARC
  8
_0-1_線色１__水色__
  6
CONTINUOUS
 62
    4
 10
1286.7346582733549
 20
714.06463776103863
 40
1.2083333333333179
 50
127.52351320610693
 51
52.47648680188081
  0
ARC
  8
_0-1_線色１__水色__
  6
CONTINUOUS
 62
    4
 10
1285.2626981288781
 20
715.98130442763875
 40
1.2083333333333581
 50
307.52351320333912
 51
232.47648680464988
  0
ARC
  8
_0-1_線色１__水色__
  6
CONTINUOUS
 62
    4
 10
1283.790737984672
 20
714.06463776083285
 40
1.2083333333333179
 50
127.52351320610693
 51
52.47648680188081
  0
ARC
  8
_0-1_線色１__水色__
  6
CONTINUOUS
 62
    4
 10
1292.6224988507217
 20
714.06463776083285
 40
1.2083333333333179
 50
127.52351320610693
 51
52.47648680188081
  0
ARC
  8
_0-1_線色１__水色__
  6
CONTINUOUS
 62
    4
 10
1323.5336618817169
 20
715.98130442972604
 40
1.2083333333333581
 50
307.52351320333912
 51
232.47648680464988
  0
ARC
  8
_0-1_線色１__水色__
  6
CONTINUOUS
 62
    4
 10
1325.0056220261936
 20
714.06463776312592
 40
1.2083333333333179
 50
127.52351320610693
 51
52.47648680188081
  0
ARC
  8
_0-1_線色１__水色__
  6
CONTINUOUS
 62
    4
 10
1320.589741593034
 20
715.98130442952026
 40
1.2083333333333581
 50
307.52351320333912
 51
232.47648680464988
  0
ARC
  8
_0-1_線色１__水色__
  6
CONTINUOUS
 62
    4
 10
1322.0617017375084
 20
714.06463776292128
 40
1.2083333333333179
 50
127.52351320610693
 51
52.47648680188081
  0
ARC
  8
_0-1_線色１__水色__
  6
CONTINUOUS
 62
    4
 10
1317.6458213043511
 20
715.98130442931563
 40
1.2083333333333581
 50
307.52351320333912
 51
232.47648680464988
  0
ARC
  8
_0-1_線色１__水色__
  6
CONTINUOUS
 62
    4
 10
1319.1177814488256
 20
714.06463776271551
 40
1.2083333333333179
 50
127.52351320610693
 51
52.47648680188081
  0
ARC
  8
_0-1_線色１__水色__
  6
CONTINUOUS
 62
    4
 10
1314.7019010156682
 20
715.98130442910985
 40
1.2083333333333581
 50
307.52351320333912
 51
232.47648680464988
  0
ARC
  8
_0-1_線色１__水色__
  6
CONTINUOUS
 62
    4
 10
1316.1738611601427
 20
714.06463776251087
 40
1.2083333333333179
 50
127.52351320610693
 51
52.47648680188081
  0
ARC
  8
_0-1_線色１__水色__
  6
CONTINUOUS
 62
    4
 10
1311.7579807269831
 20
715.98130442890522
 40
1.2083333333333581
 50
307.52351320333912
 51
232.47648680464988
  0
ARC
  8
_0-1_線色１__水色__
  6
CONTINUOUS
 62
    4
 10
1313.2299408714598
 20
714.0646377623051
 40
1.2083333333333179
 50
127.52351320610693
 51
52.47648680188081
  0
ARC
  8
_0-1_線色１__水色__
  6
CONTINUOUS
 62
    4
 10
1308.8140604383002
 20
715.98130442869945
 40
1.2083333333333581
 50
307.52351320333912
 51
232.47648680464988
  0
ARC
  8
_0-1_線色１__水色__
  6
CONTINUOUS
 62
    4
 10
1310.2860205827747
 20
714.06463776210046
 40
1.2083333333333179
 50
127.52351320610693
 51
52.47648680188081
  0
ARC
  8
_0-1_線色１__水色__
  6
CONTINUOUS
 62
    4
 10
1305.8701401496173
 20
715.98130442849481
 40
1.2083333333333581
 50
307.52351320333912
 51
232.47648680464988
  0
ARC
  8
_0-1_線色１__水色__
  6
CONTINUOUS
 62
    4
 10
1304.3981800054089
 20
714.06463776169005
 40
1.2083333333333179
 50
127.52351320610693
 51
52.47648680188081
  0
ARC
  8
_0-1_線色１__水色__
  6
CONTINUOUS
 62
    4
 10
1307.3421002940918
 20
714.06463776189469
 40
1.2083333333333179
 50
127.52351320610693
 51
52.47648680188081
  0
ARC
  8
_0-1_線色１__水色__
  6
CONTINUOUS
 62
    4
 10
1327.9495423148765
 20
714.06463776271551
 40
1.2083333333333179
 50
127.52351320610693
 51
52.47648680188081
  0
ARC
  8
_0-1_線色１__水色__
  6
CONTINUOUS
 62
    4
 10
1326.4775821703997
 20
715.98130442931563
 40
1.2083333333333581
 50
307.52351320333912
 51
232.47648680464988
  0
ARC
  8
_0-1_線色１__水色__
  6
CONTINUOUS
 62
    4
 10
1302.9262198609345
 20
715.98130442828904
 40
1.2083333333333581
 50
307.52351320333912
 51
232.47648680464988
  0
ARC
  8
_0-1_線色１__水色__
  6
CONTINUOUS
 62
    4
 10
1350.0289444798673
 20
715.98130443095727
 40
1.2083333333333581
 50
307.52351320333912
 51
232.47648680464988
  0
ARC
  8
_0-1_線色１__水色__
  6
CONTINUOUS
 62
    4
 10
1351.5009046243417
 20
714.06463776435714
 40
1.2083333333333179
 50
127.52351320610693
 51
52.47648680188081
  0
ARC
  8
_0-1_線色１__水色__
  6
CONTINUOUS
 62
    4
 10
1347.0850241911844
 20
715.98130443075149
 40
1.2083333333333581
 50
307.52351320333912
 51
232.47648680464988
  0
ARC
  8
_0-1_線色１__水色__
  6
CONTINUOUS
 62
    4
 10
1348.5569843356589
 20
714.06463776415137
 40
1.2083333333333179
 50
127.52351320610693
 51
52.47648680188081
  0
ARC
  8
_0-1_線色１__水色__
  6
CONTINUOUS
 62
    4
 10
1344.1411039025015
 20
715.98130443054686
 40
1.2083333333333581
 50
307.52351320333912
 51
232.47648680464988
  0
ARC
  8
_0-1_線色１__水色__
  6
CONTINUOUS
 62
    4
 10
1345.613064046976
 20
714.06463776394673
 40
1.2083333333333179
 50
127.52351320610693
 51
52.47648680188081
  0
ARC
  8
_0-1_線色１__水色__
  6
CONTINUOUS
 62
    4
 10
1341.1971836138164
 20
715.98130443034108
 40
1.2083333333333581
 50
307.52351320333912
 51
232.47648680464988
  0
ARC
  8
_0-1_線色１__水色__
  6
CONTINUOUS
 62
    4
 10
1342.6691437582931
 20
714.06463776374096
 40
1.2083333333333179
 50
127.52351320610693
 51
52.47648680188081
  0
ARC
  8
_0-1_線色１__水色__
  6
CONTINUOUS
 62
    4
 10
1338.2532633251335
 20
715.98130443013645
 40
1.2083333333333581
 50
307.52351320333912
 51
232.47648680464988
  0
ARC
  8
_0-1_線色１__水色__
  6
CONTINUOUS
 62
    4
 10
1339.725223469608
 20
714.06463776353633
 40
1.2083333333333179
 50
127.52351320610693
 51
52.47648680188081
  0
ARC
  8
_0-1_線色１__水色__
  6
CONTINUOUS
 62
    4
 10
1335.3093430364506
 20
715.98130442993067
 40
1.2083333333333581
 50
307.52351320333912
 51
232.47648680464988
  0
ARC
  8
_0-1_線色１__水色__
  6
CONTINUOUS
 62
    4
 10
1336.7813031809251
 20
714.06463776333169
 40
1.2083333333333179
 50
127.52351320610693
 51
52.47648680188081
  0
ARC
  8
_0-1_線色１__水色__
  6
CONTINUOUS
 62
    4
 10
1332.3654227477678
 20
715.98130442972604
 40
1.2083333333333581
 50
307.52351320333912
 51
232.47648680464988
  0
ARC
  8
_0-1_線色１__水色__
  6
CONTINUOUS
 62
    4
 10
1330.8934626035593
 20
714.06463776292128
 40
1.2083333333333179
 50
127.52351320610693
 51
52.47648680188081
  0
ARC
  8
_0-1_線色１__水色__
  6
CONTINUOUS
 62
    4
 10
1333.8373828922422
 20
714.06463776312592
 40
1.2083333333333179
 50
127.52351320610693
 51
52.47648680188081
  0
ARC
  8
_0-1_線色１__水色__
  6
CONTINUOUS
 62
    4
 10
1352.9728647685502
 20
715.98130443054686
 40
1.2083333333333581
 50
307.52351320333912
 51
232.47648680464988
  0
ARC
  8
_0-1_線色１__水色__
  6
CONTINUOUS
 62
    4
 10
1329.4215024590826
 20
715.98130442952026
 40
1.2083333333333581
 50
307.52351320333912
 51
232.47648680464988
  0
ARC
  8
_0-1_線色１__水色__
  6
CONTINUOUS
 62
    4
 10
1299.982299572272
 20
715.98130442806621
 40
1.2083333333333581
 50
307.52351320333912
 51
232.47648680464988
  0
ARC
  8
_0-1_線色１__水色__
  6
CONTINUOUS
 62
    4
 10
1297.0383792835892
 20
715.98130442786157
 40
1.2083333333333581
 50
307.52351320333912
 51
232.47648680464988
  0
ARC
  8
_0-1_線色１__水色__
  6
CONTINUOUS
 62
    4
 10
1298.5103394280659
 20
714.06463776126145
 40
1.2083333333333179
 50
127.52351320610693
 51
52.47648680188081
  0
ARC
  8
_0-1_線色１__水色__
  6
CONTINUOUS
 62
    4
 10
1294.0944589949063
 20
715.9813044276558
 40
1.2083333333333581
 50
307.52351320333912
 51
232.47648680464988
  0
ARC
  8
_0-1_線色１__水色__
  6
CONTINUOUS
 62
    4
 10
1295.5664191393807
 20
714.06463776105682
 40
1.2083333333333179
 50
127.52351320610693
 51
52.47648680188081
  0
ARC
  8
_0-1_線色１__水色__
  6
CONTINUOUS
 62
    4
 10
1301.4542597167488
 20
714.06463776146609
 40
1.2083333333333179
 50
127.52351320610693
 51
52.47648680188081
  0
ARC
  8
_0-1_線色１__水色__
  6
CONTINUOUS
 62
    4
 10
1282.3187778401953
 20
715.98130442743297
 40
1.2083333333333581
 50
307.52351320333912
 51
232.47648680464988
  0
ARC
  8
_0-1_線色１__水色__
  6
CONTINUOUS
 62
    4
 10
1279.3748575515124
 20
715.9813044272272
 40
1.2083333333333581
 50
307.52351320333912
 51
232.47648680464988
  0
ARC
  8
_0-1_線色１__水色__
  6
CONTINUOUS
 62
    4
 10
1280.8468176959891
 20
714.06463776062708
 40
1.2083333333333179
 50
127.52351320610693
 51
52.47648680188081
  0
ARC
  8
_0-1_線色１__水色__
  6
CONTINUOUS
 62
    4
 10
1276.4309372628295
 20
715.98130442702256
 40
1.2083333333333581
 50
307.52351320333912
 51
232.47648680464988
  0
ARC
  8
_0-1_線色１__水色__
  6
CONTINUOUS
 62
    4
 10
1277.902897407304
 20
714.06463776042244
 40
1.2083333333333179
 50
127.52351320610693
 51
52.47648680188081
  0
ARC
  8
_0-1_線色１__水色__
  6
CONTINUOUS
 62
    4
 10
1274.9589771186211
 20
714.06463776021781
 40
1.2083333333333179
 50
127.52351320610693
 51
52.47648680188081
  0
ARC
  8
_0-1_線色１__水色__
  6
CONTINUOUS
 62
    4
 10
1211.6646909118394
 20
715.98130442431909
 40
1.2083333333333581
 50
307.52351320333912
 51
232.47648680464988
  0
ARC
  8
_0-1_線色１__水色__
  6
CONTINUOUS
 62
    4
 10
1210.1927307676333
 20
714.06463775751433
 40
1.2083333333333179
 50
127.52351320610693
 51
52.47648680188081
  0
ARC
  8
_0-1_線色１__水色__
  6
CONTINUOUS
 62
    4
 10
1208.7207706231566
 20
715.98130442411446
 40
1.2083333333333581
 50
307.52351320333912
 51
232.47648680464988
  0
ARC
  8
_0-1_線色１__水色__
  6
CONTINUOUS
 62
    4
 10
1213.1366510563175
 20
714.06463775710392
 40
1.2083333333333179
 50
127.52351320610693
 51
52.47648680188081
  0
ARC
  8
_0-1_線色１__水色__
  6
CONTINUOUS
 62
    4
 10
1244.0478140873124
 20
715.98130442599711
 40
1.2083333333333581
 50
307.52351320333912
 51
232.47648680464988
  0
ARC
  8
_0-1_線色１__水色__
  6
CONTINUOUS
 62
    4
 10
1245.5197742317891
 20
714.06463775939699
 40
1.2083333333333179
 50
127.52351320610693
 51
52.47648680188081
  0
ARC
  8
_0-1_線色１__水色__
  6
CONTINUOUS
 62
    4
 10
1241.1038937986295
 20
715.98130442579134
 40
1.2083333333333581
 50
307.52351320333912
 51
232.47648680464988
  0
ARC
  8
_0-1_線色１__水色__
  6
CONTINUOUS
 62
    4
 10
1242.575853943104
 20
714.06463775919235
 40
1.2083333333333179
 50
127.52351320610693
 51
52.47648680188081
  0
ARC
  8
_0-1_線色１__水色__
  6
CONTINUOUS
 62
    4
 10
1238.1599735099467
 20
715.9813044255867
 40
1.2083333333333581
 50
307.52351320333912
 51
232.47648680464988
  0
ARC
  8
_0-1_線色１__水色__
  6
CONTINUOUS
 62
    4
 10
1239.6319336544211
 20
714.06463775898658
 40
1.2083333333333179
 50
127.52351320610693
 51
52.47648680188081
  0
ARC
  8
_0-1_線色１__水色__
  6
CONTINUOUS
 62
    4
 10
1235.2160532212638
 20
715.98130442538093
 40
1.2083333333333581
 50
307.52351320333912
 51
232.47648680464988
  0
ARC
  8
_0-1_線色１__水色__
  6
CONTINUOUS
 62
    4
 10
1236.6880133657382
 20
714.06463775878194
 40
1.2083333333333179
 50
127.52351320610693
 51
52.47648680188081
  0
ARC
  8
_0-1_線色１__水色__
  6
CONTINUOUS
 62
    4
 10
1232.2721329325786
 20
715.98130442517629
 40
1.2083333333333581
 50
307.52351320333912
 51
232.47648680464988
  0
ARC
  8
_0-1_線色１__水色__
  6
CONTINUOUS
 62
    4
 10
1233.7440930770554
 20
714.06463775857617
 40
1.2083333333333179
 50
127.52351320610693
 51
52.47648680188081
  0
ARC
  8
_0-1_線色１__水色__
  6
CONTINUOUS
 62
    4
 10
1229.3282126438958
 20
715.98130442497052
 40
1.2083333333333581
 50
307.52351320333912
 51
232.47648680464988
  0
ARC
  8
_0-1_線色１__水色__
  6
CONTINUOUS
 62
    4
 10
1230.8001727883702
 20
714.06463775837153
 40
1.2083333333333179
 50
127.52351320610693
 51
52.47648680188081
  0
ARC
  8
_0-1_線色１__水色__
  6
CONTINUOUS
 62
    4
 10
1226.3842923552129
 20
715.98130442476588
 40
1.2083333333333581
 50
307.52351320333912
 51
232.47648680464988
  0
ARC
  8
_0-1_線色１__水色__
  6
CONTINUOUS
 62
    4
 10
1224.9123322110045
 20
714.06463775796112
 40
1.2083333333333179
 50
127.52351320610693
 51
52.47648680188081
  0
ARC
  8
_0-1_線色１__水色__
  6
CONTINUOUS
 62
    4
 10
1227.8562524996873
 20
714.06463775816576
 40
1.2083333333333179
 50
127.52351320610693
 51
52.47648680188081
  0
ARC
  8
_0-1_線色１__水色__
  6
CONTINUOUS
 62
    4
 10
1248.463694520472
 20
714.06463775898658
 40
1.2083333333333179
 50
127.52351320610693
 51
52.47648680188081
  0
ARC
  8
_0-1_線色１__水色__
  6
CONTINUOUS
 62
    4
 10
1246.9917343759953
 20
715.9813044255867
 40
1.2083333333333581
 50
307.52351320333912
 51
232.47648680464988
  0
ARC
  8
_0-1_線色１__水色__
  6
CONTINUOUS
 62
    4
 10
1223.44037206653
 20
715.98130442456011
 40
1.2083333333333581
 50
307.52351320333912
 51
232.47648680464988
  0
ARC
  8
_0-1_線色１__水色__
  6
CONTINUOUS
 62
    4
 10
1270.5430966854628
 20
715.98130442722834
 40
1.2083333333333581
 50
307.52351320333912
 51
232.47648680464988
  0
ARC
  8
_0-1_線色１__水色__
  6
CONTINUOUS
 62
    4
 10
1272.0150568299373
 20
714.06463776062822
 40
1.2083333333333179
 50
127.52351320610693
 51
52.47648680188081
  0
ARC
  8
_0-1_線色１__水色__
  6
CONTINUOUS
 62
    4
 10
1267.59917639678
 20
715.98130442702256
 40
1.2083333333333581
 50
307.52351320333912
 51
232.47648680464988
  0
ARC
  8
_0-1_線色１__水色__
  6
CONTINUOUS
 62
    4
 10
1269.0711365412544
 20
714.06463776042244
 40
1.2083333333333179
 50
127.52351320610693
 51
52.47648680188081
  0
ARC
  8
_0-1_線色１__水色__
  6
CONTINUOUS
 62
    4
 10
1264.6552561080971
 20
715.98130442681793
 40
1.2083333333333581
 50
307.52351320333912
 51
232.47648680464988
  0
ARC
  8
_0-1_線色１__水色__
  6
CONTINUOUS
 62
    4
 10
1266.1272162525715
 20
714.06463776021781
 40
1.2083333333333179
 50
127.52351320610693
 51
52.47648680188081
  0
ARC
  8
_0-1_線色１__水色__
  6
CONTINUOUS
 62
    4
 10
1261.7113358194119
 20
715.98130442661216
 40
1.2083333333333581
 50
307.52351320333912
 51
232.47648680464988
  0
ARC
  8
_0-1_線色１__水色__
  6
CONTINUOUS
 62
    4
 10
1263.1832959638887
 20
714.06463776001203
 40
1.2083333333333179
 50
127.52351320610693
 51
52.47648680188081
  0
ARC
  8
_0-1_線色１__水色__
  6
CONTINUOUS
 62
    4
 10
1258.7674155307291
 20
715.98130442640752
 40
1.2083333333333581
 50
307.52351320333912
 51
232.47648680464988
  0
ARC
  8
_0-1_線色１__水色__
  6
CONTINUOUS
 62
    4
 10
1260.2393756752035
 20
714.0646377598074
 40
1.2083333333333179
 50
127.52351320610693
 51
52.47648680188081
  0
ARC
  8
_0-1_線色１__水色__
  6
CONTINUOUS
 62
    4
 10
1255.8234952420462
 20
715.98130442620175
 40
1.2083333333333581
 50
307.52351320333912
 51
232.47648680464988
  0
ARC
  8
_0-1_線色１__水色__
  6
CONTINUOUS
 62
    4
 10
1257.2954553865206
 20
714.06463775960276
 40
1.2083333333333179
 50
127.52351320610693
 51
52.47648680188081
  0
ARC
  8
_0-1_線色１__水色__
  6
CONTINUOUS
 62
    4
 10
1252.8795749533633
 20
715.98130442599711
 40
1.2083333333333581
 50
307.52351320333912
 51
232.47648680464988
  0
ARC
  8
_0-1_線色１__水色__
  6
CONTINUOUS
 62
    4
 10
1251.4076148091549
 20
714.06463775919235
 40
1.2083333333333179
 50
127.52351320610693
 51
52.47648680188081
  0
ARC
  8
_0-1_線色１__水色__
  6
CONTINUOUS
 62
    4
 10
1254.3515350978378
 20
714.06463775939699
 40
1.2083333333333179
 50
127.52351320610693
 51
52.47648680188081
  0
ARC
  8
_0-1_線色１__水色__
  6
CONTINUOUS
 62
    4
 10
1273.4870169741457
 20
715.98130442681793
 40
1.2083333333333581
 50
307.52351320333912
 51
232.47648680464988
  0
ARC
  8
_0-1_線色１__水色__
  6
CONTINUOUS
 62
    4
 10
1249.9356546646782
 20
715.98130442579134
 40
1.2083333333333581
 50
307.52351320333912
 51
232.47648680464988
  0
ARC
  8
_0-1_線色１__水色__
  6
CONTINUOUS
 62
    4
 10
1220.4964517778676
 20
715.98130442433728
 40
1.2083333333333581
 50
307.52351320333912
 51
232.47648680464988
  0
ARC
  8
_0-1_線色１__水色__
  6
CONTINUOUS
 62
    4
 10
1217.5525314891847
 20
715.98130442413265
 40
1.2083333333333581
 50
307.52351320333912
 51
232.47648680464988
  0
ARC
  8
_0-1_線色１__水色__
  6
CONTINUOUS
 62
    4
 10
1219.0244916336615
 20
714.06463775753252
 40
1.2083333333333179
 50
127.52351320610693
 51
52.47648680188081
  0
ARC
  8
_0-1_線色１__水色__
  6
CONTINUOUS
 62
    4
 10
1214.6086112005019
 20
715.98130442392687
 40
1.2083333333333581
 50
307.52351320333912
 51
232.47648680464988
  0
ARC
  8
_0-1_線色１__水色__
  6
CONTINUOUS
 62
    4
 10
1216.0805713449763
 20
714.06463775732789
 40
1.2083333333333179
 50
127.52351320610693
 51
52.47648680188081
  0
ARC
  8
_0-1_線色１__水色__
  6
CONTINUOUS
 62
    4
 10
1221.9684119223443
 20
714.06463775773716
 40
1.2083333333333179
 50
127.52351320610693
 51
52.47648680188081
  0
ARC
  8
_0-1_線色１__水色__
  6
CONTINUOUS
 62
    4
 10
1132.1788431174352
 20
715.98130442059016
 40
1.2083333333333581
 50
307.52351320333912
 51
232.47648680464988
  0
ARC
  8
_0-1_線色１__水色__
  6
CONTINUOUS
 62
    4
 10
1130.7068829732291
 20
714.06463775378541
 40
1.2083333333333179
 50
127.52351320610693
 51
52.47648680188081
  0
ARC
  8
_0-1_線色１__水色__
  6
CONTINUOUS
 62
    4
 10
1129.2349228287524
 20
715.98130442038553
 40
1.2083333333333581
 50
307.52351320333912
 51
232.47648680464988
  0
ARC
  8
_0-1_線色１__水色__
  6
CONTINUOUS
 62
    4
 10
1127.7629626845462
 20
714.06463775358077
 40
1.2083333333333179
 50
127.52351320610693
 51
52.47648680188081
  0
ARC
  8
_0-1_線色１__水色__
  6
CONTINUOUS
 62
    4
 10
1126.2910025400695
 20
715.98130442018089
 40
1.2083333333333581
 50
307.52351320333912
 51
232.47648680464988
  0
ARC
  8
_0-1_線色１__水色__
  6
CONTINUOUS
 62
    4
 10
1124.8190423958633
 20
714.064637753375
 40
1.2083333333333179
 50
127.52351320610693
 51
52.47648680188081
  0
ARC
  8
_0-1_線色１__水色__
  6
CONTINUOUS
 62
    4
 10
1133.6508032619131
 20
714.064637753375
 40
1.2083333333333179
 50
127.52351320610693
 51
52.47648680188081
  0
ARC
  8
_0-1_線色１__水色__
  6
CONTINUOUS
 62
    4
 10
1164.5619662929082
 20
715.98130442226818
 40
1.2083333333333581
 50
307.52351320333912
 51
232.47648680464988
  0
ARC
  8
_0-1_線色１__水色__
  6
CONTINUOUS
 62
    4
 10
1166.0339264373849
 20
714.06463775566806
 40
1.2083333333333179
 50
127.52351320610693
 51
52.47648680188081
  0
ARC
  8
_0-1_線色１__水色__
  6
CONTINUOUS
 62
    4
 10
1161.6180460042253
 20
715.98130442206241
 40
1.2083333333333581
 50
307.52351320333912
 51
232.47648680464988
  0
ARC
  8
_0-1_線色１__水色__
  6
CONTINUOUS
 62
    4
 10
1163.0900061486998
 20
714.06463775546342
 40
1.2083333333333179
 50
127.52351320610693
 51
52.47648680188081
  0
ARC
  8
_0-1_線色１__水色__
  6
CONTINUOUS
 62
    4
 10
1158.6741257155425
 20
715.98130442185777
 40
1.2083333333333581
 50
307.52351320333912
 51
232.47648680464988
  0
ARC
  8
_0-1_線色１__水色__
  6
CONTINUOUS
 62
    4
 10
1160.1460858600169
 20
714.06463775525765
 40
1.2083333333333179
 50
127.52351320610693
 51
52.47648680188081
  0
ARC
  8
_0-1_線色１__水色__
  6
CONTINUOUS
 62
    4
 10
1155.7302054268596
 20
715.981304421652
 40
1.2083333333333581
 50
307.52351320333912
 51
232.47648680464988
  0
ARC
  8
_0-1_線色１__水色__
  6
CONTINUOUS
 62
    4
 10
1157.202165571334
 20
714.06463775505301
 40
1.2083333333333179
 50
127.52351320610693
 51
52.47648680188081
  0
ARC
  8
_0-1_線色１__水色__
  6
CONTINUOUS
 62
    4
 10
1152.7862851381744
 20
715.98130442144736
 40
1.2083333333333581
 50
307.52351320333912
 51
232.47648680464988
  0
ARC
  8
_0-1_線色１__水色__
  6
CONTINUOUS
 62
    4
 10
1154.2582452826512
 20
714.06463775484724
 40
1.2083333333333179
 50
127.52351320610693
 51
52.47648680188081
  0
ARC
  8
_0-1_線色１__水色__
  6
CONTINUOUS
 62
    4
 10
1149.8423648494916
 20
715.98130442124159
 40
1.2083333333333581
 50
307.52351320333912
 51
232.47648680464988
  0
ARC
  8
_0-1_線色１__水色__
  6
CONTINUOUS
 62
    4
 10
1151.314324993966
 20
714.0646377546426
 40
1.2083333333333179
 50
127.52351320610693
 51
52.47648680188081
  0
ARC
  8
_0-1_線色１__水色__
  6
CONTINUOUS
 62
    4
 10
1146.8984445608087
 20
715.98130442103695
 40
1.2083333333333581
 50
307.52351320333912
 51
232.47648680464988
  0
ARC
  8
_0-1_線色１__水色__
  6
CONTINUOUS
 62
    4
 10
1145.4264844166003
 20
714.06463775423219
 40
1.2083333333333179
 50
127.52351320610693
 51
52.47648680188081
  0
ARC
  8
_0-1_線色１__水色__
  6
CONTINUOUS
 62
    4
 10
1148.3704047052831
 20
714.06463775443683
 40
1.2083333333333179
 50
127.52351320610693
 51
52.47648680188081
  0
ARC
  8
_0-1_線色１__水色__
  6
CONTINUOUS
 62
    4
 10
1168.9778467260678
 20
714.06463775525765
 40
1.2083333333333179
 50
127.52351320610693
 51
52.47648680188081
  0
ARC
  8
_0-1_線色１__水色__
  6
CONTINUOUS
 62
    4
 10
1167.5058865815911
 20
715.98130442185777
 40
1.2083333333333581
 50
307.52351320333912
 51
232.47648680464988
  0
ARC
  8
_0-1_線色１__水色__
  6
CONTINUOUS
 62
    4
 10
1143.9545242721258
 20
715.98130442083118
 40
1.2083333333333581
 50
307.52351320333912
 51
232.47648680464988
  0
ARC
  8
_0-1_線色１__水色__
  6
CONTINUOUS
 62
    4
 10
1191.0572488910586
 20
715.98130442349941
 40
1.2083333333333581
 50
307.52351320333912
 51
232.47648680464988
  0
ARC
  8
_0-1_線色１__水色__
  6
CONTINUOUS
 62
    4
 10
1192.5292090355331
 20
714.06463775689929
 40
1.2083333333333179
 50
127.52351320610693
 51
52.47648680188081
  0
ARC
  8
_0-1_線色１__水色__
  6
CONTINUOUS
 62
    4
 10
1188.1133286023758
 20
715.98130442329364
 40
1.2083333333333581
 50
307.52351320333912
 51
232.47648680464988
  0
ARC
  8
_0-1_線色１__水色__
  6
CONTINUOUS
 62
    4
 10
1189.5852887468502
 20
714.06463775669351
 40
1.2083333333333179
 50
127.52351320610693
 51
52.47648680188081
  0
ARC
  8
_0-1_線色１__水色__
  6
CONTINUOUS
 62
    4
 10
1185.1694083136929
 20
715.981304423089
 40
1.2083333333333581
 50
307.52351320333912
 51
232.47648680464988
  0
ARC
  8
_0-1_線色１__水色__
  6
CONTINUOUS
 62
    4
 10
1186.6413684581673
 20
714.06463775648888
 40
1.2083333333333179
 50
127.52351320610693
 51
52.47648680188081
  0
ARC
  8
_0-1_線色１__水色__
  6
CONTINUOUS
 62
    4
 10
1182.2254880250077
 20
715.98130442288323
 40
1.2083333333333581
 50
307.52351320333912
 51
232.47648680464988
  0
ARC
  8
_0-1_線色１__水色__
  6
CONTINUOUS
 62
    4
 10
1183.6974481694845
 20
714.0646377562831
 40
1.2083333333333179
 50
127.52351320610693
 51
52.47648680188081
  0
ARC
  8
_0-1_線色１__水色__
  6
CONTINUOUS
 62
    4
 10
1179.2815677363249
 20
715.98130442267859
 40
1.2083333333333581
 50
307.52351320333912
 51
232.47648680464988
  0
ARC
  8
_0-1_線色１__水色__
  6
CONTINUOUS
 62
    4
 10
1180.7535278807993
 20
714.06463775607847
 40
1.2083333333333179
 50
127.52351320610693
 51
52.47648680188081
  0
ARC
  8
_0-1_線色１__水色__
  6
CONTINUOUS
 62
    4
 10
1176.337647447642
 20
715.98130442247282
 40
1.2083333333333581
 50
307.52351320333912
 51
232.47648680464988
  0
ARC
  8
_0-1_線色１__水色__
  6
CONTINUOUS
 62
    4
 10
1177.8096075921164
 20
714.06463775587383
 40
1.2083333333333179
 50
127.52351320610693
 51
52.47648680188081
  0
ARC
  8
_0-1_線色１__水色__
  6
CONTINUOUS
 62
    4
 10
1173.3937271589591
 20
715.98130442226818
 40
1.2083333333333581
 50
307.52351320333912
 51
232.47648680464988
  0
ARC
  8
_0-1_線色１__水色__
  6
CONTINUOUS
 62
    4
 10
1171.9217670147507
 20
714.06463775546342
 40
1.2083333333333179
 50
127.52351320610693
 51
52.47648680188081
  0
ARC
  8
_0-1_線色１__水色__
  6
CONTINUOUS
 62
    4
 10
1174.8656873034336
 20
714.06463775566806
 40
1.2083333333333179
 50
127.52351320610693
 51
52.47648680188081
  0
ARC
  8
_0-1_線色１__水色__
  6
CONTINUOUS
 62
    4
 10
1170.449806870274
 20
715.98130442206241
 40
1.2083333333333581
 50
307.52351320333912
 51
232.47648680464988
  0
ARC
  8
_0-1_線色１__水色__
  6
CONTINUOUS
 62
    4
 10
1141.0106039834634
 20
715.98130442060835
 40
1.2083333333333581
 50
307.52351320333912
 51
232.47648680464988
  0
ARC
  8
_0-1_線色１__水色__
  6
CONTINUOUS
 62
    4
 10
1138.0666836947805
 20
715.98130442040372
 40
1.2083333333333581
 50
307.52351320333912
 51
232.47648680464988
  0
ARC
  8
_0-1_線色１__水色__
  6
CONTINUOUS
 62
    4
 10
1139.5386438392572
 20
714.06463775380359
 40
1.2083333333333179
 50
127.52351320610693
 51
52.47648680188081
  0
ARC
  8
_0-1_線色１__水色__
  6
CONTINUOUS
 62
    4
 10
1135.1227634060976
 20
715.98130442019794
 40
1.2083333333333581
 50
307.52351320333912
 51
232.47648680464988
  0
ARC
  8
_0-1_線色１__水色__
  6
CONTINUOUS
 62
    4
 10
1136.5947235505721
 20
714.06463775359896
 40
1.2083333333333179
 50
127.52351320610693
 51
52.47648680188081
  0
ARC
  8
_0-1_線色１__水色__
  6
CONTINUOUS
 62
    4
 10
1142.4825641279401
 20
714.06463775400823
 40
1.2083333333333179
 50
127.52351320610693
 51
52.47648680188081
  0
ARC
  8
_0-1_線色１__水色__
  6
CONTINUOUS
 62
    4
 10
1123.3470822513866
 20
715.98130441997512
 40
1.2083333333333581
 50
307.52351320333912
 51
232.47648680464988
  0
ARC
  8
_0-1_線色１__水色__
  6
CONTINUOUS
 62
    4
 10
1120.4031619627037
 20
715.98130441976934
 40
1.2083333333333581
 50
307.52351320333912
 51
232.47648680464988
  0
ARC
  8
_0-1_線色１__水色__
  6
CONTINUOUS
 62
    4
 10
1121.8751221071805
 20
714.06463775316922
 40
1.2083333333333179
 50
127.52351320610693
 51
52.47648680188081
  0
ARC
  8
_0-1_線色１__水色__
  6
CONTINUOUS
 62
    4
 10
1117.4592416740209
 20
715.98130441956471
 40
1.2083333333333581
 50
307.52351320333912
 51
232.47648680464988
  0
ARC
  8
_0-1_線色１__水色__
  6
CONTINUOUS
 62
    4
 10
1118.9312018184953
 20
714.06463775296459
 40
1.2083333333333179
 50
127.52351320610693
 51
52.47648680188081
  0
ARC
  8
_0-1_線色１__水色__
  6
CONTINUOUS
 62
    4
 10
1115.9872815298124
 20
714.06463775275995
 40
1.2083333333333179
 50
127.52351320610693
 51
52.47648680188081
  0
LINE
  8
_0-5_金属
  6
CONTINUOUS
 62
    7
 10
1439.0360499999992
 20
628.72317109341998
 11
1458.517600335651
 21
628.72317109341998
  0
LINE
  8
_0-5_金属
  6
CONTINUOUS
 62
    7
 10
1439.0663500000001
 20
627.5229710934193
 11
1458.517600335651
 21
627.5229710934193
  0
LINE
  8
_0-5_金属
  6
CONTINUOUS
 62
    7
 10
641.48239966434971
 20
628.72317109341998
 11
660.96474999999941
 21
628.72317109341998
  0
LINE
  8
_0-5_金属
  6
CONTINUOUS
 62
    7
 10
641.48239966434971
 20
627.5229710934193
 11
660.93449999999962
 21
627.5229710934193
  0
LINE
  8
ADD_LINE
  6
DOT
 62
    4
 10
749.99999999999886
 20
693.61652109341946
 11
749.99999999999886
 21
583.13581245681439
  0
LINE
  8
ADD_LINE
  6
DOT
 62
    4
 10
1049.9999999999989
 20
693.61652109341946
 11
1049.9999999999989
 21
583.13581245681439
  0
LINE
  8
ADD_LINE
  6
DOT
 62
    4
 10
899.99969999999985
 20
659.2350210934203
 11
899.99969999999985
 21
583.13581245681439
  0
LINE
  8
ADD_LINE
  6
DOT
 62
    4
 10
1349.9999999999995
 20
693.61652109341946
 11
1349.9999999999995
 21
583.13581245681439
  0
ARC
  8
_0-5_金属
  6
CONTINUOUS
 62
    7
 10
1036.2540999999987
 20
674.52272109341925
 40
1.7999992
 50
44.883395999999991
 51
90.000528000000003
  0
ARC
  8
_0-5_金属
  6
CONTINUOUS
 62
    7
 10
1036.2542999999982
 20
674.52272109341925
 40
3.0000000000000004
 50
44.884706999999999
 51
90.002222000000003
  0
ARC
  8
_0-5_金属
  6
CONTINUOUS
 62
    7
 10
1063.7465499999985
 20
674.52272109341925
 40
3.0000000000000004
 50
90.00194900000001
 51
135.11829000000003
  0
ARC
  8
_0-5_金属
  6
CONTINUOUS
 62
    7
 10
1063.7465499999985
 20
674.52272109341925
 40
1.7999992
 50
90.003315000000001
 51
135.11932999999999
  0
ARC
  8
_0-5_金属
  6
CONTINUOUS
 62
    7
 10
1050.0004499999989
 20
667.5225210934193
 40
1.79999825
 50
224.88334
 51
315.42811999999998
  0
ARC
  8
_0-5_金属
  6
CONTINUOUS
 62
    7
 10
1050.0004499999989
 20
667.5225210934193
 40
2.9999989999999999
 50
224.88334
 51
315.11671000000001
  0
ARC
  8
_0-5_金属
  6
CONTINUOUS
 62
    7
 10
763.74699999999848
 20
674.52297109341976
 40
1.7999992
 50
89.999435000000005
 51
135.11660000000001
  0
ARC
  8
_0-5_金属
  6
CONTINUOUS
 62
    7
 10
763.74674999999911
 20
674.52297109341976
 40
3.0000000000000004
 50
89.997741000000005
 51
135.11528999999999
  0
ARC
  8
_0-5_金属
  6
CONTINUOUS
 62
    7
 10
736.25429999999824
 20
674.52297109341976
 40
3.0000000000000004
 50
44.881701999999997
 51
89.998013999999998
  0
ARC
  8
_0-5_金属
  6
CONTINUOUS
 62
    7
 10
736.25429999999824
 20
674.52297109341976
 40
1.7999992
 50
44.880642999999999
 51
89.996648000000008
  0
ARC
  8
_0-5_金属
  6
CONTINUOUS
 62
    7
 10
750.00039999999785
 20
667.52272109341993
 40
1.79999825
 50
224.57187999999999
 51
315.11669999999998
  0
ARC
  8
_0-5_金属
  6
CONTINUOUS
 62
    7
 10
750.00039999999785
 20
667.52272109341993
 40
2.9999989999999999
 50
224.88328000000001
 51
315.11669999999998
  0
ARC
  8
_0-5_金属
  6
CONTINUOUS
 62
    7
 10
1187.9996999999992
 20
630.72317109342043
 40
3.1999998000000001
 50
270.00006999999994
 51
359.99997999999999
  0
ARC
  8
_0-5_金属
  6
CONTINUOUS
 62
    7
 10
1187.9996999999992
 20
630.72317109342043
 40
1.9999990000000001
 50
270.00006999999994
 51
359.99997999999999
  0
ARC
  8
_0-5_金属
  6
CONTINUOUS
 62
    7
 10
1187.3998499999982
 20
636.12307109342032
 40
1.9999504000000001
 50
89.999927
 51
259.48462000000001
  0
ARC
  8
_0-5_金属
  6
CONTINUOUS
 62
    7
 10
1187.3998499999982
 20
636.12307109342032
 40
3.1999511500000004
 50
89.999927
 51
259.48473000000001
  0
ARC
  8
_0-5_金属
  6
CONTINUOUS
 62
    7
 10
1187.9996999999992
 20
630.72317109342043
 40
1.9999990000000001
 50
359.99999000000003
 51
79.498920999999982
  0
ARC
  8
_0-5_金属
  6
CONTINUOUS
 62
    7
 10
1187.9996999999992
 20
630.72317109342043
 40
3.1999998000000001
 50
359.99999000000003
 51
79.493674999999982
  0
ARC
  8
_0-5_金属
  6
CONTINUOUS
 62
    7
 10
689.03044999999906
 20
674.52297109341976
 40
3.0000000000000004
 50
90.000200000000021
 51
144.05016000000001
  0
ARC
  8
_0-5_金属
  6
CONTINUOUS
 62
    7
 10
689.03044999999906
 20
674.52297109341976
 40
1.7999992
 50
90.000364000000005
 51
144.05026999999998
  0
ARC
  8
_0-5_金属
  6
CONTINUOUS
 62
    7
 10
660.96474999999941
 20
630.52322109341935
 40
2.9999989999999999
 50
269.99990000000003
 51
324.21600000000001
  0
ARC
  8
_0-5_金属
  6
CONTINUOUS
 62
    7
 10
660.96474999999941
 20
630.52322109341935
 40
1.7999992
 50
269.99990000000003
 51
324.21600000000001
  0
ARC
  8
_0-5_金属
  6
CONTINUOUS
 62
    7
 10
681.00039999999922
 20
658.52297109341953
 40
1.9000091499999998
 50
0.000035
 51
85.418946000000005
  0
ARC
  8
_0-5_金属
  6
CONTINUOUS
 62
    7
 10
681.20034999999802
 20
663.52297109341953
 40
1.8999938500000002
 50
180.00009000000003
 51
265.42237
  0
ARC
  8
_0-5_金属
  6
CONTINUOUS
 62
    7
 10
680.90029999999956
 20
658.52297109341953
 40
3.2000122000000002
 50
324.21611000000001
 51
359.99995999999999
  0
ARC
  8
_0-5_金属
  6
CONTINUOUS
 62
    7
 10
681.20034999999802
 20
663.52297109341953
 40
3.0999907999999996
 50
180.00009000000003
 51
265.41831999999999
  0
ARC
  8
_0-5_金属
  6
CONTINUOUS
 62
    7
 10
681.00039999999922
 20
658.52297109341953
 40
3.1000213500000005
 50
0.000035
 51
85.42326300000002
  0
ARC
  8
_0-5_金属
  6
CONTINUOUS
 62
    7
 10
680.90029999999956
 20
658.52297109341953
 40
2.0000114
 50
323.92410000000001
 51
359.99995999999999
  0
ARC
  8
_0-5_金属
  6
CONTINUOUS
 62
    7
 10
681.30044999999882
 20
663.52297109341953
 40
1.9999961500000007
 50
144.05027000000001
 51
179.99995999999999
  0
ARC
  8
_0-5_金属
  6
CONTINUOUS
 62
    7
 10
681.30044999999882
 20
663.52297109341953
 40
3.1999969500000001
 50
144.05005000000003
 51
179.99995999999999
  0
ARC
  8
_0-5_金属
  6
CONTINUOUS
 62
    7
 10
1110.9697499999982
 20
674.52297109341976
 40
3.0000000000000004
 50
35.949770999999998
 51
89.999654000000007
  0
ARC
  8
_0-5_金属
  6
CONTINUOUS
 62
    7
 10
1110.9697499999982
 20
674.52297109341976
 40
1.7999992
 50
35.949661999999996
 51
89.999489999999994
  0
ARC
  8
_0-5_金属
  6
CONTINUOUS
 62
    7
 10
1139.0356499999996
 20
630.52297109341998
 40
2.9999989999999999
 50
215.78405000000001
 51
270.00022999999999
  0
ARC
  8
_0-5_金属
  6
CONTINUOUS
 62
    7
 10
1139.0356499999996
 20
630.52297109341998
 40
1.7999992
 50
215.78405000000001
 51
270.00022999999999
  0
ARC
  8
_0-5_金属
  6
CONTINUOUS
 62
    7
 10
1118.999799999998
 20
658.52297109341953
 40
1.9000091499999998
 50
94.580906999999996
 51
179.9999
  0
ARC
  8
_0-5_金属
  6
CONTINUOUS
 62
    7
 10
1118.7998499999992
 20
663.52297109341953
 40
1.8999938500000002
 50
274.57776999999999
 51
359.99995999999999
  0
ARC
  8
_0-5_金属
  6
CONTINUOUS
 62
    7
 10
1119.0998499999989
 20
658.52297109341953
 40
3.2000122000000002
 50
180.00009000000003
 51
215.78394000000003
  0
ARC
  8
_0-5_金属
  6
CONTINUOUS
 62
    7
 10
1118.7998499999992
 20
663.52297109341953
 40
3.0999907999999996
 50
274.58181000000002
 51
359.99996000000004
  0
ARC
  8
_0-5_金属
  6
CONTINUOUS
 62
    7
 10
1118.999799999998
 20
658.52297109341953
 40
3.1000213500000005
 50
94.576591000000008
 51
179.99990000000003
  0
ARC
  8
_0-5_金属
  6
CONTINUOUS
 62
    7
 10
1119.0998499999989
 20
658.52297109341953
 40
2.0000114
 50
180.00009000000003
 51
216.07594000000003
  0
ARC
  8
_0-5_金属
  6
CONTINUOUS
 62
    7
 10
1118.699949999999
 20
663.52297109341953
 40
1.9999961500000007
 50
0.000035
 51
35.949717000000007
  0
ARC
  8
_0-5_金属
  6
CONTINUOUS
 62
    7
 10
1118.699949999999
 20
663.52297109341953
 40
3.1999969500000001
 50
0.000035
 51
35.949935000000004
  0
ARC
  8
_0-5_金属
  6
CONTINUOUS
 62
    7
 10
810.97014999999965
 20
674.52297109341976
 40
3.0000000000000004
 50
35.949770999999998
 51
89.999654000000007
  0
ARC
  8
_0-5_金属
  6
CONTINUOUS
 62
    7
 10
810.97014999999965
 20
674.52297109341976
 40
1.7999992
 50
35.949661999999996
 51
89.999489999999994
  0
ARC
  8
_0-5_金属
  6
CONTINUOUS
 62
    7
 10
839.0360499999988
 20
630.52322109341935
 40
2.9999989999999999
 50
215.78405000000001
 51
270.00022999999999
  0
ARC
  8
_0-5_金属
  6
CONTINUOUS
 62
    7
 10
839.0360499999988
 20
630.52322109341935
 40
1.7999992
 50
215.78405000000001
 51
270.00022999999999
  0
ARC
  8
_0-5_金属
  6
CONTINUOUS
 62
    7
 10
819.00039999999899
 20
658.52297109341953
 40
1.9000091499999998
 50
94.580906999999996
 51
179.9999
  0
ARC
  8
_0-5_金属
  6
CONTINUOUS
 62
    7
 10
818.80019999999854
 20
663.52297109341953
 40
1.8999938500000002
 50
274.57776999999999
 51
359.99995999999999
  0
ARC
  8
_0-5_金属
  6
CONTINUOUS
 62
    7
 10
819.10024999999928
 20
658.52297109341953
 40
3.2000122000000002
 50
180.00009000000003
 51
215.78394000000003
  0
ARC
  8
_0-5_金属
  6
CONTINUOUS
 62
    7
 10
818.80019999999854
 20
663.52297109341953
 40
3.0999907999999996
 50
274.58181000000002
 51
359.99996000000004
  0
ARC
  8
_0-5_金属
  6
CONTINUOUS
 62
    7
 10
819.00039999999899
 20
658.52297109341953
 40
3.1000213500000005
 50
94.576591000000008
 51
179.99990000000003
  0
ARC
  8
_0-5_金属
  6
CONTINUOUS
 62
    7
 10
819.10024999999928
 20
658.52297109341953
 40
2.0000114
 50
180.00009000000003
 51
216.07594000000003
  0
ARC
  8
_0-5_金属
  6
CONTINUOUS
 62
    7
 10
818.70034999999939
 20
663.52297109341953
 40
1.9999961500000007
 50
0.000035
 51
35.949717000000007
  0
ARC
  8
_0-5_金属
  6
CONTINUOUS
 62
    7
 10
818.70034999999939
 20
663.52297109341953
 40
3.1999969500000001
 50
0.000035
 51
35.949935000000004
  0
ARC
  8
_0-5_金属
  6
CONTINUOUS
 62
    7
 10
886.20009999999888
 20
637.32302109342049
 40
3.1999998000000001
 50
180.00009000000003
 51
236.88223000000005
  0
ARC
  8
_0-5_金属
  6
CONTINUOUS
 62
    7
 10
886.20009999999888
 20
637.32302109342049
 40
1.9999990000000001
 50
180.00009000000003
 51
236.88223000000005
  0
ARC
  8
_0-5_金属
  6
CONTINUOUS
 62
    7
 10
886.79999999999859
 20
630.72317109342043
 40
2
 50
270.00011999999998
 51
56.882114999999992
  0
ARC
  8
_0-5_金属
  6
CONTINUOUS
 62
    7
 10
886.20009999999888
 20
637.32302109342049
 40
1.9999990000000001
 50
89.999927
 51
179.99990000000003
  0
ARC
  8
_0-5_金属
  6
CONTINUOUS
 62
    7
 10
886.20009999999888
 20
637.32302109342049
 40
3.1999998000000001
 50
89.999927
 51
179.99990000000003
  0
ARC
  8
_0-5_金属
  6
CONTINUOUS
 62
    7
 10
886.79999999999859
 20
630.72317109342043
 40
3.2000007500000005
 50
270.00011999999998
 51
56.882114999999992
  0
ARC
  8
_0-5_金属
  6
CONTINUOUS
 62
    7
 10
989.03019999999856
 20
674.52297109341976
 40
3.0000000000000004
 50
90.000200000000021
 51
144.05016000000001
  0
ARC
  8
_0-5_金属
  6
CONTINUOUS
 62
    7
 10
989.03019999999856
 20
674.52297109341976
 40
1.7999992
 50
90.000364000000005
 51
144.05026999999998
  0
ARC
  8
_0-5_金属
  6
CONTINUOUS
 62
    7
 10
960.96429999999941
 20
630.52322109341935
 40
2.9999989999999999
 50
269.99990000000003
 51
324.21602000000001
  0
ARC
  8
_0-5_金属
  6
CONTINUOUS
 62
    7
 10
960.96429999999941
 20
630.52322109341935
 40
1.7999992
 50
269.99990000000003
 51
324.21602000000001
  0
ARC
  8
_0-5_金属
  6
CONTINUOUS
 62
    7
 10
980.99994999999808
 20
658.52297109341953
 40
1.9000091499999998
 50
359.99999000000003
 51
85.418945999999991
  0
ARC
  8
_0-5_金属
  6
CONTINUOUS
 62
    7
 10
981.20009999999866
 20
663.52297109341953
 40
1.8999938500000002
 50
180.00009000000003
 51
265.42237
  0
ARC
  8
_0-5_金属
  6
CONTINUOUS
 62
    7
 10
980.90009999999893
 20
658.5232210934189
 40
3.2000122000000002
 50
324.21614
 51
359.99997999999999
  0
ARC
  8
_0-5_金属
  6
CONTINUOUS
 62
    7
 10
981.20009999999866
 20
663.52297109341953
 40
3.0999907999999996
 50
180.00009000000003
 51
265.41831999999999
  0
ARC
  8
_0-5_金属
  6
CONTINUOUS
 62
    7
 10
980.99994999999808
 20
658.52297109341953
 40
3.1000213500000005
 50
359.99999000000003
 51
85.42326300000002
  0
ARC
  8
_0-5_金属
  6
CONTINUOUS
 62
    7
 10
980.90009999999893
 20
658.5232210934189
 40
2.0000114
 50
323.92412999999999
 51
359.99997999999999
  0
ARC
  8
_0-5_金属
  6
CONTINUOUS
 62
    7
 10
981.29999999999882
 20
663.52297109341953
 40
1.9999961500000007
 50
144.05027000000001
 51
179.99995999999999
  0
ARC
  8
_0-5_金属
  6
CONTINUOUS
 62
    7
 10
981.29999999999882
 20
663.52297109341953
 40
3.1999969500000001
 50
144.05005000000003
 51
179.99995999999999
  0
ARC
  8
_0-5_金属
  6
CONTINUOUS
 62
    7
 10
913.79999999999905
 20
637.32302109342049
 40
3.1999998000000001
 50
303.11786999999998
 51
359.99997999999999
  0
ARC
  8
_0-5_金属
  6
CONTINUOUS
 62
    7
 10
913.79999999999905
 20
637.32302109342049
 40
1.9999990000000001
 50
303.11786999999998
 51
359.99997999999999
  0
ARC
  8
_0-5_金属
  6
CONTINUOUS
 62
    7
 10
913.20009999999934
 20
630.72317109342043
 40
2
 50
123.11782000000001
 51
269.99988999999999
  0
ARC
  8
_0-5_金属
  6
CONTINUOUS
 62
    7
 10
913.79999999999905
 20
637.32302109342049
 40
1.9999990000000001
 50
359.99999000000003
 51
89.999927
  0
ARC
  8
_0-5_金属
  6
CONTINUOUS
 62
    7
 10
913.79999999999905
 20
637.32302109342049
 40
3.1999998000000001
 50
359.99999000000003
 51
89.999927
  0
ARC
  8
_0-5_金属
  6
CONTINUOUS
 62
    7
 10
913.20009999999934
 20
630.72317109342043
 40
3.2000007500000005
 50
123.11782000000001
 51
269.99988999999999
  0
LINE
  8
_0-5_金属
  6
CONTINUOUS
 62
    7
 10
1047.8747499999986
 20
665.40532109341916
 11
1037.5293999999985
 21
675.79287109341954
  0
LINE
  8
_0-5_金属
  6
CONTINUOUS
 62
    7
 10
1048.7250999999981
 20
666.25227109341927
 11
1038.379799999999
 21
676.63982109341964
  0
LINE
  8
_0-5_金属
  6
CONTINUOUS
 62
    7
 10
1062.4710499999981
 20
675.79267109342004
 11
1052.1260999999993
 21
665.40547109341992
  0
LINE
  8
_0-5_金属
  6
CONTINUOUS
 62
    7
 10
1061.6208499999982
 20
676.63942109341951
 11
1051.2758499999984
 21
666.25222109341939
  0
LINE
  8
_0-5_金属
  6
CONTINUOUS
 62
    7
 10
762.47159999999781
 20
675.79322109341979
 11
752.12614999999801
 21
665.40552109341979
  0
LINE
  8
_0-5_金属
  6
CONTINUOUS
 62
    7
 10
761.62109999999871
 20
676.64002109341914
 11
751.27574999999865
 21
666.2524710934199
  0
LINE
  8
_0-5_金属
  6
CONTINUOUS
 62
    7
 10
747.87479999999846
 20
665.40572109342042
 11
737.52984999999853
 21
675.79292109341941
  0
LINE
  8
_0-5_金属
  6
CONTINUOUS
 62
    7
 10
748.72509999999806
 20
666.25252109341977
 11
738.38009999999827
 21
676.63977109341977
  0
LINE
  8
_0-5_金属
  6
CONTINUOUS
 62
    7
 10
1186.8157499999995
 20
632.97682109342054
 11
1188.364049999999
 21
632.68957109341932
  0
LINE
  8
_0-5_金属
  6
CONTINUOUS
 62
    7
 10
1187.0346999999981
 20
634.15692109341967
 11
1188.5829999999987
 21
633.86962109341971
  0
LINE
  8
_0-5_金属
  6
CONTINUOUS
 62
    7
 10
689.03069999999843
 20
676.32302109341913
 11
736.25454999999874
 21
676.32302109341913
  0
LINE
  8
_0-5_金属
  6
CONTINUOUS
 62
    7
 10
689.03069999999843
 20
677.5229710934193
 11
736.25454999999874
 21
677.5229710934193
  0
LINE
  8
_0-5_金属
  6
CONTINUOUS
 62
    7
 10
679.68134999999847
 20
664.69732109341953
 11
687.57339999999886
 21
675.5798210934197
  0
LINE
  8
_0-5_金属
  6
CONTINUOUS
 62
    7
 10
682.52289999999789
 20
657.35362109341941
 11
662.42489999999862
 21
629.47062109342005
  0
LINE
  8
_0-5_金属
  6
CONTINUOUS
 62
    7
 10
680.95269999999914
 20
660.43292109341996
 11
681.15194999999858
 21
660.41692109341943
  0
LINE
  8
_0-5_金属
  6
CONTINUOUS
 62
    7
 10
681.04869999999892
 20
661.62922109341912
 11
681.24779999999873
 21
661.6132710934196
  0
LINE
  8
_0-5_金属
  6
CONTINUOUS
 62
    7
 10
683.49634999999921
 20
656.65202109341953
 11
663.3983499999988
 21
628.7689710934203
  0
LINE
  8
_0-5_金属
  6
CONTINUOUS
 62
    7
 10
678.70989999999779
 20
665.40177109342017
 11
686.60204999999905
 21
676.28432109341907
  0
LINE
  8
_0-5_金属
  6
CONTINUOUS
 62
    7
 10
1063.2641999999987
 20
676.32302109341913
 11
1110.9697999999992
 21
676.32302109341913
  0
LINE
  8
_0-5_金属
  6
CONTINUOUS
 62
    7
 10
1063.5748499999988
 20
677.5229710934193
 11
1110.9697999999992
 21
677.5229710934193
  0
LINE
  8
_0-5_金属
  6
CONTINUOUS
 62
    7
 10
1139.0356999999983
 20
628.72317109341998
 11
1187.9996999999992
 21
628.72317109341998
  0
LINE
  8
_0-5_金属
  6
CONTINUOUS
 62
    7
 10
1112.4267999999995
 20
675.57972109341995
 11
1120.3189499999985
 21
664.69707109341903
  0
LINE
  8
_0-5_金属
  6
CONTINUOUS
 62
    7
 10
1137.5752999999986
 20
629.4707210934198
 11
1117.4773999999991
 21
657.35372109342029
  0
LINE
  8
_0-5_金属
  6
CONTINUOUS
 62
    7
 10
1118.848099999999
 20
660.41702109341918
 11
1119.0474499999993
 21
660.43297109341984
  0
LINE
  8
_0-5_金属
  6
CONTINUOUS
 62
    7
 10
1118.7524999999994
 20
661.6132710934196
 11
1118.9515499999982
 21
661.62917109342038
  0
LINE
  8
_0-5_金属
  6
CONTINUOUS
 62
    7
 10
1136.6018999999994
 20
628.76907109342005
 11
1116.5039499999989
 21
656.65207109341941
  0
LINE
  8
_0-5_金属
  6
CONTINUOUS
 62
    7
 10
1113.398199999998
 20
676.28417109342058
 11
1121.2903499999982
 21
665.40157109341953
  0
LINE
  8
_0-5_金属
  6
CONTINUOUS
 62
    7
 10
1139.0659499999981
 20
627.5229710934193
 11
1187.9996999999992
 21
627.5229710934193
  0
LINE
  8
_0-5_金属
  6
CONTINUOUS
 62
    7
 10
763.74724999999899
 20
676.32302109341913
 11
810.97014999999965
 21
676.32302109341913
  0
LINE
  8
_0-5_金属
  6
CONTINUOUS
 62
    7
 10
763.74699999999848
 20
677.5229710934193
 11
810.97014999999965
 21
677.5229710934193
  0
LINE
  8
_0-5_金属
  6
CONTINUOUS
 62
    7
 10
839.0360499999988
 20
628.72317109341998
 11
886.80019999999922
 21
628.72317109341998
  0
LINE
  8
_0-5_金属
  6
CONTINUOUS
 62
    7
 10
812.42729999999847
 20
675.5798210934197
 11
820.3194499999986
 21
664.69722109341978
  0
LINE
  8
_0-5_金属
  6
CONTINUOUS
 62
    7
 10
837.57579999999871
 20
629.47067109341992
 11
817.47784999999931
 21
657.35372109342029
  0
LINE
  8
_0-5_金属
  6
CONTINUOUS
 62
    7
 10
818.84859999999799
 20
660.41707109342019
 11
819.04789999999957
 21
660.43302109341971
  0
LINE
  8
_0-5_金属
  6
CONTINUOUS
 62
    7
 10
818.75294999999846
 20
661.61322109341972
 11
818.95204999999942
 21
661.62912109341937
  0
LINE
  8
_0-5_金属
  6
CONTINUOUS
 62
    7
 10
836.60229999999865
 20
628.76902109341904
 11
816.50439999999912
 21
656.65202109341953
  0
LINE
  8
_0-5_金属
  6
CONTINUOUS
 62
    7
 10
813.39874999999915
 20
676.28432109341907
 11
821.29089999999815
 21
665.40167109342042
  0
LINE
  8
_0-5_金属
  6
CONTINUOUS
 62
    7
 10
839.0663499999996
 20
627.5229710934193
 11
886.80019999999922
 21
627.5229710934193
  0
LINE
  8
_0-5_金属
  6
CONTINUOUS
 62
    7
 10
886.20034999999939
 20
639.32302109341981
 11
900.00039999999808
 21
639.32302109341981
  0
LINE
  8
_0-5_金属
  6
CONTINUOUS
 62
    7
 10
887.89294999999834
 20
632.39827109342036
 11
884.45199999999795
 21
634.64297109341919
  0
LINE
  8
_0-5_金属
  6
CONTINUOUS
 62
    7
 10
888.54859999999826
 20
633.40337109342022
 11
885.10764999999901
 21
635.64802109342031
  0
LINE
  8
_0-5_金属
  6
CONTINUOUS
 62
    7
 10
886.20034999999939
 20
640.52297109341885
 11
900.00039999999808
 21
640.52297109341885
  0
LINE
  8
_0-5_金属
  6
CONTINUOUS
 62
    7
 10
989.03044999999906
 20
676.32302109341913
 11
1036.3071999999988
 21
676.32302109341913
  0
LINE
  8
_0-5_金属
  6
CONTINUOUS
 62
    7
 10
989.03044999999906
 20
677.5229710934193
 11
1036.2589499999979
 21
677.52272109341993
  0
LINE
  8
_0-5_金属
  6
CONTINUOUS
 62
    7
 10
913.20034999999871
 20
628.72317109341998
 11
960.96454999999878
 21
628.72317109341998
  0
LINE
  8
_0-5_金属
  6
CONTINUOUS
 62
    7
 10
979.68094999999835
 20
664.69732109341953
 11
987.57294999999772
 21
675.57977109341982
  0
LINE
  8
_0-5_金属
  6
CONTINUOUS
 62
    7
 10
982.52239999999915
 20
657.35367109341928
 11
962.42449999999849
 21
629.4707210934198
  0
LINE
  8
_0-5_金属
  6
CONTINUOUS
 62
    7
 10
980.95254999999838
 20
660.43297109341984
 11
981.1520999999982
 21
660.41697109342044
  0
LINE
  8
_0-5_金属
  6
CONTINUOUS
 62
    7
 10
981.04864999999904
 20
661.62912109341937
 11
981.24749999999835
 21
661.61322109341972
  0
LINE
  8
_0-5_金属
  6
CONTINUOUS
 62
    7
 10
983.49599999999896
 20
656.65187109341991
 11
963.39814999999817
 21
628.76892109341929
  0
LINE
  8
_0-5_金属
  6
CONTINUOUS
 62
    7
 10
978.70954999999867
 20
665.4018210934189
 11
986.60169999999766
 21
676.28442109341881
  0
LINE
  8
_0-5_金属
  6
CONTINUOUS
 62
    7
 10
913.20034999999871
 20
627.5229710934193
 11
960.93424999999911
 21
627.5229710934193
  0
LINE
  8
_0-5_金属
  6
CONTINUOUS
 62
    7
 10
900.00039999999808
 20
639.32302109341981
 11
913.80019999999968
 21
639.32302109341981
  0
LINE
  8
_0-5_金属
  6
CONTINUOUS
 62
    7
 10
915.54854999999884
 20
634.64297109341919
 11
912.10739999999896
 21
632.39817109341948
  0
LINE
  8
_0-5_金属
  6
CONTINUOUS
 62
    7
 10
914.89294999999879
 20
635.6479710934193
 11
911.45179999999891
 21
633.40322109341946
  0
LINE
  8
_0-5_金属
  6
CONTINUOUS
 62
    7
 10
900.00039999999808
 20
640.52297109341885
 11
913.80019999999968
 21
640.52297109341885
  0
ARC
  8
_0-5_金属
  6
CONTINUOUS
 62
    7
 10
1363.7469999999989
 20
674.52297109341976
 40
1.7999992
 50
89.999435000000005
 51
135.11660000000001
  0
ARC
  8
_0-5_金属
  6
CONTINUOUS
 62
    7
 10
1363.7467499999998
 20
674.52297109341976
 40
3.0000000000000004
 50
89.997741000000005
 51
135.11528999999999
  0
ARC
  8
_0-5_金属
  6
CONTINUOUS
 62
    7
 10
1336.2542999999987
 20
674.52297109341976
 40
3.0000000000000004
 50
44.881701999999997
 51
89.998013999999998
  0
ARC
  8
_0-5_金属
  6
CONTINUOUS
 62
    7
 10
1336.2542999999987
 20
674.52297109341976
 40
1.7999992
 50
44.880642999999999
 51
89.996648000000008
  0
ARC
  8
_0-5_金属
  6
CONTINUOUS
 62
    7
 10
1350.0003999999985
 20
667.52272109341993
 40
1.79999825
 50
224.57187999999999
 51
315.11669999999998
  0
ARC
  8
_0-5_金属
  6
CONTINUOUS
 62
    7
 10
1350.0003999999985
 20
667.52272109341993
 40
2.9999989999999999
 50
224.88328000000001
 51
315.11669999999998
  0
ARC
  8
_0-5_金属
  6
CONTINUOUS
 62
    7
 10
1187.4010499999986
 20
636.12307109342032
 40
4.4001951000000004
 50
180.00009000000003
 51
216.22041000000002
  0
ARC
  8
_0-5_金属
  6
CONTINUOUS
 62
    7
 10
1187.4010499999986
 20
636.12307109342032
 40
3.2001952999999999
 50
180.00009000000003
 51
216.22260000000003
  0
ARC
  8
_0-5_金属
  6
CONTINUOUS
 62
    7
 10
1186.2005999999985
 20
637.32302109342049
 40
1.9999990000000001
 50
89.999927
 51
179.99990000000003
  0
ARC
  8
_0-5_金属
  6
CONTINUOUS
 62
    7
 10
1186.2005999999985
 20
637.32302109342049
 40
3.1999998000000001
 50
89.999927
 51
179.99990000000003
  0
ARC
  8
_0-5_金属
  6
CONTINUOUS
 62
    7
 10
1289.0304499999997
 20
674.52297109341976
 40
3.0000000000000004
 50
90.000200000000021
 51
144.05016000000001
  0
ARC
  8
_0-5_金属
  6
CONTINUOUS
 62
    7
 10
1289.0304499999997
 20
674.52297109341976
 40
1.7999992
 50
90.000364000000005
 51
144.05026999999998
  0
ARC
  8
_0-5_金属
  6
CONTINUOUS
 62
    7
 10
1260.9647500000001
 20
630.52322109341935
 40
2.9999989999999999
 50
269.99990000000003
 51
324.21600000000001
  0
ARC
  8
_0-5_金属
  6
CONTINUOUS
 62
    7
 10
1260.9647500000001
 20
630.52322109341935
 40
1.7999992
 50
269.99990000000003
 51
324.21600000000001
  0
ARC
  8
_0-5_金属
  6
CONTINUOUS
 62
    7
 10
1281.0003999999999
 20
658.52297109341953
 40
1.9000091499999998
 50
0.000035
 51
85.418946000000005
  0
ARC
  8
_0-5_金属
  6
CONTINUOUS
 62
    7
 10
1281.2003499999987
 20
663.52297109341953
 40
1.8999938500000002
 50
180.00009000000003
 51
265.42237
  0
ARC
  8
_0-5_金属
  6
CONTINUOUS
 62
    7
 10
1280.9003000000002
 20
658.52297109341953
 40
3.2000122000000002
 50
324.21611000000001
 51
359.99995999999999
  0
ARC
  8
_0-5_金属
  6
CONTINUOUS
 62
    7
 10
1281.2003499999987
 20
663.52297109341953
 40
3.0999907999999996
 50
180.00009000000003
 51
265.41831999999999
  0
ARC
  8
_0-5_金属
  6
CONTINUOUS
 62
    7
 10
1281.0003999999999
 20
658.52297109341953
 40
3.1000213500000005
 50
0.000035
 51
85.42326300000002
  0
ARC
  8
_0-5_金属
  6
CONTINUOUS
 62
    7
 10
1280.9003000000002
 20
658.52297109341953
 40
2.0000114
 50
323.92410000000001
 51
359.99995999999999
  0
ARC
  8
_0-5_金属
  6
CONTINUOUS
 62
    7
 10
1281.3004499999993
 20
663.52297109341953
 40
1.9999961500000007
 50
144.05027000000001
 51
179.99995999999999
  0
ARC
  8
_0-5_金属
  6
CONTINUOUS
 62
    7
 10
1281.3004499999993
 20
663.52297109341953
 40
3.1999969500000001
 50
144.05005000000003
 51
179.99995999999999
  0
ARC
  8
_0-5_金属
  6
CONTINUOUS
 62
    7
 10
1213.8004499999993
 20
637.32302109342049
 40
3.1999998000000001
 50
303.11781999999999
 51
359.99995999999999
  0
ARC
  8
_0-5_金属
  6
CONTINUOUS
 62
    7
 10
1213.8004499999993
 20
637.32302109342049
 40
1.9999990000000001
 50
303.11781999999999
 51
359.99995999999999
  0
ARC
  8
_0-5_金属
  6
CONTINUOUS
 62
    7
 10
1213.2005999999997
 20
630.72317109342043
 40
2
 50
123.11782000000001
 51
269.99982999999997
  0
ARC
  8
_0-5_金属
  6
CONTINUOUS
 62
    7
 10
1213.8004499999993
 20
637.32302109342049
 40
1.9999990000000001
 50
0.000035
 51
89.999927
  0
ARC
  8
_0-5_金属
  6
CONTINUOUS
 62
    7
 10
1213.8004499999993
 20
637.32302109342049
 40
3.1999998000000001
 50
0.000035
 51
89.999927
  0
ARC
  8
_0-5_金属
  6
CONTINUOUS
 62
    7
 10
1213.2005999999997
 20
630.72317109342043
 40
3.2000007500000005
 50
123.11782000000001
 51
269.99982999999997
  0
ARC
  8
_0-5_金属
  6
CONTINUOUS
 62
    7
 10
1410.9701500000001
 20
674.52297109341976
 40
3.0000000000000004
 50
35.949770999999998
 51
89.999654000000007
  0
ARC
  8
_0-5_金属
  6
CONTINUOUS
 62
    7
 10
1410.9701500000001
 20
674.52297109341976
 40
1.7999992
 50
35.949661999999996
 51
89.999489999999994
  0
ARC
  8
_0-5_金属
  6
CONTINUOUS
 62
    7
 10
1439.0360499999992
 20
630.52322109341935
 40
2.9999989999999999
 50
215.78405000000001
 51
270.00022999999999
  0
ARC
  8
_0-5_金属
  6
CONTINUOUS
 62
    7
 10
1439.0360499999992
 20
630.52322109341935
 40
1.7999992
 50
215.78405000000001
 51
270.00022999999999
  0
ARC
  8
_0-5_金属
  6
CONTINUOUS
 62
    7
 10
1419.0003999999994
 20
658.52297109341953
 40
1.9000091499999998
 50
94.580906999999996
 51
179.9999
  0
ARC
  8
_0-5_金属
  6
CONTINUOUS
 62
    7
 10
1418.8001999999988
 20
663.52297109341953
 40
1.8999938500000002
 50
274.57776999999999
 51
359.99995999999999
  0
ARC
  8
_0-5_金属
  6
CONTINUOUS
 62
    7
 10
1419.1002499999995
 20
658.52297109341953
 40
3.2000122000000002
 50
180.00009000000003
 51
215.78394000000003
  0
ARC
  8
_0-5_金属
  6
CONTINUOUS
 62
    7
 10
1418.8001999999988
 20
663.52297109341953
 40
3.0999907999999996
 50
274.58181000000002
 51
359.99996000000004
  0
ARC
  8
_0-5_金属
  6
CONTINUOUS
 62
    7
 10
1419.0003999999994
 20
658.52297109341953
 40
3.1000213500000005
 50
94.576591000000008
 51
179.99990000000003
  0
ARC
  8
_0-5_金属
  6
CONTINUOUS
 62
    7
 10
1419.1002499999995
 20
658.52297109341953
 40
2.0000114
 50
180.00009000000003
 51
216.07594000000003
  0
ARC
  8
_0-5_金属
  6
CONTINUOUS
 62
    7
 10
1418.7003499999996
 20
663.52297109341953
 40
1.9999961500000007
 50
0.000035
 51
35.949717000000007
  0
ARC
  8
_0-5_金属
  6
CONTINUOUS
 62
    7
 10
1418.7003499999996
 20
663.52297109341953
 40
3.1999969500000001
 50
0.000035
 51
35.949935000000004
  0
LINE
  8
_0-5_金属
  6
CONTINUOUS
 62
    7
 10
1362.4715999999985
 20
675.79322109341979
 11
1352.1261499999987
 21
665.40552109341979
  0
LINE
  8
_0-5_金属
  6
CONTINUOUS
 62
    7
 10
1361.6210999999994
 20
676.64002109341914
 11
1351.2757499999993
 21
666.2524710934199
  0
LINE
  8
_0-5_金属
  6
CONTINUOUS
 62
    7
 10
1347.8747999999991
 20
665.40572109342042
 11
1337.529849999999
 21
675.79292109341941
  0
LINE
  8
_0-5_金属
  6
CONTINUOUS
 62
    7
 10
1348.7250999999987
 20
666.25252109341977
 11
1338.3800999999989
 21
676.63977109341977
  0
LINE
  8
_0-5_金属
  6
CONTINUOUS
 62
    7
 10
1187.4009999999987
 20
636.12312109341906
 11
1183.8511999999992
 21
633.52307109342041
  0
LINE
  8
_0-5_金属
  6
CONTINUOUS
 62
    7
 10
1183.0013999999983
 20
636.12312109341906
 11
1187.4015499999985
 21
636.12312109341906
  0
LINE
  8
_0-5_金属
  6
CONTINUOUS
 62
    7
 10
1183.8515499999983
 20
633.5234710934194
 11
1184.8197999999991
 21
634.23267109341941
  0
LINE
  8
_0-5_金属
  6
CONTINUOUS
 62
    7
 10
1183.0011499999989
 20
637.32302109342049
 11
1183.0011499999989
 21
636.12307109342032
  0
LINE
  8
_0-5_金属
  6
CONTINUOUS
 62
    7
 10
1184.2010999999991
 20
637.32302109342049
 11
1184.2010999999991
 21
636.12307109342032
  0
LINE
  8
_0-5_金属
  6
CONTINUOUS
 62
    7
 10
1289.0306999999989
 20
676.32302109341913
 11
1336.2545499999992
 21
676.32302109341913
  0
LINE
  8
_0-5_金属
  6
CONTINUOUS
 62
    7
 10
1289.0306999999989
 20
677.5229710934193
 11
1336.2545499999992
 21
677.5229710934193
  0
LINE
  8
_0-5_金属
  6
CONTINUOUS
 62
    7
 10
1213.2008499999988
 20
628.72317109341998
 11
1260.9647500000001
 21
628.72317109341998
  0
LINE
  8
_0-5_金属
  6
CONTINUOUS
 62
    7
 10
1279.6813499999989
 20
664.69732109341953
 11
1287.5733999999993
 21
675.5798210934197
  0
LINE
  8
_0-5_金属
  6
CONTINUOUS
 62
    7
 10
1282.5228999999986
 20
657.35362109341941
 11
1262.4248999999991
 21
629.47062109342005
  0
LINE
  8
_0-5_金属
  6
CONTINUOUS
 62
    7
 10
1280.9526999999998
 20
660.43292109341996
 11
1281.151949999999
 21
660.41692109341943
  0
LINE
  8
_0-5_金属
  6
CONTINUOUS
 62
    7
 10
1281.0486999999994
 20
661.62922109341912
 11
1281.2477999999992
 21
661.6132710934196
  0
LINE
  8
_0-5_金属
  6
CONTINUOUS
 62
    7
 10
1283.4963499999999
 20
656.65202109341953
 11
1263.3983499999995
 21
628.7689710934203
  0
LINE
  8
_0-5_金属
  6
CONTINUOUS
 62
    7
 10
1278.7098999999985
 20
665.40177109342017
 11
1286.6020499999995
 21
676.28432109341907
  0
LINE
  8
_0-5_金属
  6
CONTINUOUS
 62
    7
 10
1213.2008499999988
 20
627.5229710934193
 11
1260.9345000000003
 21
627.5229710934193
  0
LINE
  8
_0-5_金属
  6
CONTINUOUS
 62
    7
 10
1215.5487999999987
 20
634.6430210934202
 11
1212.1078499999994
 21
632.39837109342011
  0
LINE
  8
_0-5_金属
  6
CONTINUOUS
 62
    7
 10
1214.8931999999986
 20
635.64807109341905
 11
1211.4521999999993
 21
633.40337109342022
  0
LINE
  8
_0-5_金属
  6
CONTINUOUS
 62
    7
 10
1363.7472499999994
 20
676.32302109341913
 11
1410.9701500000001
 21
676.32302109341913
  0
LINE
  8
_0-5_金属
  6
CONTINUOUS
 62
    7
 10
1363.7469999999989
 20
677.5229710934193
 11
1410.9701500000001
 21
677.5229710934193
  0
LINE
  8
_0-5_金属
  6
CONTINUOUS
 62
    7
 10
1412.4272999999989
 20
675.5798210934197
 11
1420.3194499999991
 21
664.69722109341978
  0
LINE
  8
_0-5_金属
  6
CONTINUOUS
 62
    7
 10
1437.5757999999992
 20
629.47067109341992
 11
1417.4778499999998
 21
657.35372109342029
  0
LINE
  8
_0-5_金属
  6
CONTINUOUS
 62
    7
 10
1418.8485999999984
 20
660.41707109342019
 11
1419.0479
 21
660.43302109341971
  0
LINE
  8
_0-5_金属
  6
CONTINUOUS
 62
    7
 10
1418.7529499999987
 20
661.61322109341972
 11
1418.9520499999999
 21
661.62912109341937
  0
LINE
  8
_0-5_金属
  6
CONTINUOUS
 62
    7
 10
1436.6022999999991
 20
628.76902109341904
 11
1416.5043999999994
 21
656.65202109341953
  0
LINE
  8
_0-5_金属
  6
CONTINUOUS
 62
    7
 10
1413.3987499999994
 20
676.28432109341907
 11
1421.2908999999986
 21
665.40167109342042
  0
LINE
  8
_0-7_ビス
  6
CONTINUOUS
 62
    4
 10
1347.3617247230918
 20
643.02297109336564
 11
1353.4999999999993
 21
644.66777086717627
  0
LINE
  8
_0-7_ビス
  6
CONTINUOUS
 62
    4
 10
1346.4999999999995
 20
644.79206508708785
 11
1353.4999999999993
 21
646.66777086717673
  0
LINE
  8
_0-7_ビス
  6
CONTINUOUS
 62
    4
 10
1346.4999999999995
 20
657.09828561646475
 11
1353.4999999999993
 21
658.97399139655363
  0
LINE
  8
_0-7_ビス
  6
CONTINUOUS
 62
    4
 10
1346.4999999999995
 20
655.0982856164643
 11
1353.4999999999993
 21
656.97399139655317
  0
LINE
  8
_0-7_ビス
  6
CONTINUOUS
 62
    4
 10
1346.4999999999995
 20
653.09828561646441
 11
1353.4999999999993
 21
654.97399139655329
  0
LINE
  8
_0-7_ビス
  6
CONTINUOUS
 62
    4
 10
1346.4999999999995
 20
651.09828561646452
 11
1353.4999999999993
 21
652.97399139655283
  0
LINE
  8
_0-7_ビス
  6
CONTINUOUS
 62
    4
 10
1346.4999999999995
 20
649.09828561646464
 11
1353.4999999999993
 21
650.97399139655295
  0
LINE
  8
_0-7_ビス
  6
CONTINUOUS
 62
    4
 10
1346.4999999999995
 20
647.09828561646418
 11
1353.4999999999993
 21
648.97399139655306
  0
LINE
  8
_0-7_ビス
  6
CONTINUOUS
 62
    4
 10
1346.4999999999995
 20
669.40450614584165
 11
1353.4999999999993
 21
671.28021192593053
  0
LINE
  8
_0-7_ビス
  6
CONTINUOUS
 62
    4
 10
1346.4999999999995
 20
667.4045061458412
 11
1353.4999999999993
 21
669.28021192593008
  0
LINE
  8
_0-7_ビス
  6
CONTINUOUS
 62
    4
 10
1346.4999999999995
 20
665.40450614584131
 11
1353.4999999999993
 21
667.28021192593019
  0
LINE
  8
_0-7_ビス
  6
CONTINUOUS
 62
    4
 10
1346.4999999999995
 20
663.40450614584142
 11
1353.4999999999993
 21
665.28021192592973
  0
LINE
  8
_0-7_ビス
  6
CONTINUOUS
 62
    4
 10
1346.4999999999995
 20
661.40450614584154
 11
1353.4999999999993
 21
663.28021192592985
  0
LINE
  8
_0-7_ビス
  6
CONTINUOUS
 62
    4
 10
1346.4999999999995
 20
659.40450614584108
 11
1353.4999999999993
 21
661.28021192592996
  0
LINE
  8
_0-7_ビス
  6
CONTINUOUS
 62
    4
 10
1346.4999999999995
 20
681.71072667521855
 11
1353.4999999999993
 21
683.5864324553072
  0
LINE
  8
_0-7_ビス
  6
CONTINUOUS
 62
    4
 10
1346.4999999999995
 20
679.7107266752181
 11
1353.4999999999993
 21
681.58643245530675
  0
LINE
  8
_0-7_ビス
  6
CONTINUOUS
 62
    4
 10
1346.4999999999995
 20
677.71072667521821
 11
1353.4999999999993
 21
679.58643245530675
  0
LINE
  8
_0-7_ビス
  6
CONTINUOUS
 62
    4
 10
1346.4999999999995
 20
675.71072667521832
 11
1353.4999999999993
 21
677.58643245530664
  0
LINE
  8
_0-7_ビス
  6
CONTINUOUS
 62
    4
 10
1346.4999999999995
 20
673.71072667521844
 11
1353.4999999999993
 21
675.58643245530675
  0
LINE
  8
_0-7_ビス
  6
CONTINUOUS
 62
    4
 10
1346.4999999999995
 20
671.71072667521798
 11
1353.4999999999993
 21
673.58643245530686
  0
LINE
  8
_0-7_ビス
  6
CONTINUOUS
 62
    4
 10
1346.4999999999995
 20
694.01694720459545
 11
1353.4999999999993
 21
695.89265298468433
  0
LINE
  8
_0-7_ビス
  6
CONTINUOUS
 62
    4
 10
1346.4999999999995
 20
692.016947204595
 11
1353.4999999999993
 21
693.89265298468388
  0
LINE
  8
_0-7_ビス
  6
CONTINUOUS
 62
    4
 10
1346.4999999999995
 20
690.01694720459511
 11
1353.4999999999993
 21
691.89265298468342
  0
LINE
  8
_0-7_ビス
  6
CONTINUOUS
 62
    4
 10
1346.4999999999995
 20
688.01694720459523
 11
1353.4999999999993
 21
689.89265298468354
  0
LINE
  8
_0-7_ビス
  6
CONTINUOUS
 62
    4
 10
1346.4999999999995
 20
686.01694720459534
 11
1353.4999999999993
 21
687.89265298468365
  0
LINE
  8
_0-7_ビス
  6
CONTINUOUS
 62
    4
 10
1346.4999999999995
 20
684.01694720459489
 11
1353.4999999999993
 21
685.89265298468376
  0
LINE
  8
_0-7_ビス
  6
CONTINUOUS
 62
    4
 10
1346.4999999999995
 20
696.32316773397179
 11
1350.9775804419401
 21
697.5229710933661
  0
LINE
  8
_0-7_ビス
  6
CONTINUOUS
 62
    7
 10
1353.4999999999993
 20
697.5229710933661
 11
1346.4999999999995
 21
697.5229710933661
  0
LINE
  8
_0-7_ビス
  6
CONTINUOUS
 62
    7
 10
1353.4999999999993
 20
708.80992858400418
 11
1353.4999999999993
 21
639.5436970355297
  0
LINE
  8
_0-7_ビス
  6
CONTINUOUS
 62
    7
 10
1353.4999999999993
 20
639.5436970355297
 11
1349.9999999999995
 21
637.5229710933661
  0
LINE
  8
_0-7_ビス
  6
CONTINUOUS
 62
    7
 10
1353.4999999999993
 20
643.02297109336564
 11
1346.4999999999995
 21
643.02297109336564
  0
LINE
  8
_0-7_ビス
  6
CONTINUOUS
 62
    7
 10
1346.4999999999995
 20
708.80992858400418
 11
1346.4999999999995
 21
639.54369703552914
  0
LINE
  8
_0-7_ビス
  6
CONTINUOUS
 62
    7
 10
1346.4999999999995
 20
639.54369703552914
 11
1349.9999999999995
 21
637.5229710933661
  0
LINE
  8
_0-7_ビス
  6
CONTINUOUS
 62
    7
 10
1353.4999999999993
 20
708.52297109336575
 11
1346.4999999999995
 21
708.52297109336575
  0
ARC
  8
_0-7_ビス
  6
CONTINUOUS
 62
    7
 10
1344.4999999999995
 20
708.80992858400418
 40
2
 50
0
 51
44.999999999998501
  0
LINE
  8
_0-7_ビス
  6
CONTINUOUS
 62
    7
 10
1345.9142135623729
 20
710.22414214637706
 11
1343.9999999999995
 21
712.13835570875005
  0
ARC
  8
_0-7_ビス
  6
CONTINUOUS
 62
    7
 10
1355.4999999999993
 20
708.80992858400418
 40
2
 50
135.00000000000153
 51
180.00000000000003
  0
LINE
  8
_0-7_ビス
  6
CONTINUOUS
 62
    7
 10
1354.0857864376262
 20
710.22414214637706
 11
1355.9999999999993
 21
712.13835570875005
  0
ARC
  8
_0-7_ビス
  6
DASHED3
 62
    7
 10
1349.9999999999995
 20
711.0841446608049
 40
1.8403175392666382
 50
217.11750793457031
 51
322.88247680664062
  0
LINE
  8
_0-7_ビス
  6
CONTINUOUS
 62
    7
 10
1355.9999999999995
 20
712.5229710933661
 11
1343.9999999999998
 21
712.5229710933661
  0
LINE
  8
_0-7_ビス
  6
CONTINUOUS
 62
    7
 10
1355.9999999999995
 20
712.13835570875005
 11
1343.9999999999998
 21
712.13835570875005
  0
LINE
  8
_0-7_ビス
  6
DASHED3
 62
    7
 10
1348.5325318837449
 20
709.97360156253819
 11
1347.449984163851
 21
712.5229710933661
  0
LINE
  8
_0-7_ビス
  6
CONTINUOUS
 62
    7
 10
1343.9999999999998
 20
712.13835570875005
 11
1343.9999999999998
 21
712.5229710933661
  0
LINE
  8
_0-7_ビス
  6
DASHED3
 62
    7
 10
1351.4674681162546
 20
709.97360156253819
 11
1352.5500158361483
 21
712.5229710933661
  0
LINE
  8
_0-7_ビス
  6
CONTINUOUS
 62
    7
 10
1355.9999999999995
 20
712.13835570875005
 11
1355.9999999999995
 21
712.5229710933661
  0
LINE
  8
ADD_LINE
  6
DOT
 62
    4
 10
1349.9999999999995
 20
629.40360643141503
 11
1349.9999999999995
 21
719.02032617403222
  0
LINE
  8
_0-a_文字
  6
CONTINUOUS
 62
    7
 10
1349.9999999999995
 20
712.5229710933661
 11
1381.7388273727238
 21
767.49623267557922
  0
TEXT
  8
_0-a_文字
 62
    7
 10
1406.7388273727261
 20
759.99623267558036
 40
14.999999999997726
 41
1.0000000000000957
 50
0
  1
ＢＰ－Ｈ１Ｎ または ＢＳ－Ｈ１
  0
LINE
  8
_0-a_文字
  6
CONTINUOUS
 62
    7
 10
1381.7388273727238
 20
767.49623267557922
 11
1401.7388273727238
 21
767.49623267557922
  0
TEXT
  8
_0-a_文字
 62
    7
 10
1128.7891838388634
 20
834.99623267557922
 40
15.000000000000036
 41
0.9999999999999977
 50
0
  1
ＢＰ－Ｈ１Ｎ
  0
LINE
  8
_0-2_線色２__白__
  6
CONTINUOUS
 62
    7
 10
1349.9999999999995
 20
677.5229710933661
 11
1349.9999999999995
 21
712.5229710933661
  0
LINE
  8
_0-a_文字
  6
CONTINUOUS
 62
    7
 10
705.56459067596677
 20
695.0229710933661
 11
776.27456121898717
 21
817.49623267557922
  0
LINE
  8
_0-a_文字
  6
CONTINUOUS
 62
    7
 10
1146.7876234679534
 20
767.49623267557922
 11
1166.7876234679534
 21
767.49623267557922
  0
TEXT
  8
_0-a_文字
 62
    7
 10
1171.7876234679534
 20
759.99623267557922
 40
15.000000000000036
 41
0.9999999999999981
 50
0
  1
プルーフシーラー
  0
LINE
  8
_0-a_文字
  6
CONTINUOUS
 62
    7
 10
1125.1450200286115
 20
730.01014391057311
 11
1146.7876234679534
 21
767.49623267557922
  0
LINE
  8
_0-a_文字
  6
CONTINUOUS
 62
    7
 10
1021.163224422304
 20
724.38387294197469
 11
1103.7891838388623
 21
867.49623267557922
  0
LINE
  8
_0-a_文字
  6
CONTINUOUS
 62
    7
 10
1050.4200522026349
 20
725.43421141445265
 11
1089.1383282301467
 21
792.49623267557922
  0
TEXT
  8
_0-a_文字
 62
    7
 10
1114.1383282301479
 20
784.99623267557922
 40
15.000000000000036
 41
0.9999999999999952
 50
0
  1
ロンシーラントＳ
  0
LINE
  8
_0-a_文字
  6
CONTINUOUS
 62
    7
 10
1089.1383282301467
 20
792.49623267557922
 11
1109.1383282301467
 21
792.49623267557922
  0
LINE
  8
_0-a_文字
  6
CONTINUOUS
 62
    7
 10
1089.3554271091216
 20
842.49623267557922
 11
1123.7891838388623
 21
842.49623267557922
  0
LINE
  8
_0-a_文字
  6
CONTINUOUS
 62
    7
 10
1074.9216703793809
 20
817.49623267557922
 11
1123.7891838388623
 21
817.49623267557922
  0
LINE
  8
_0-a_文字
  6
CONTINUOUS
 62
    7
 10
1103.7891838388623
 20
867.49623267557922
 11
1123.7891838388623
 21
867.49623267557922
  0
TEXT
  8
_0-a_文字
 62
    7
 10
1128.7891838388634
 20
809.99623267557922
 40
15.000000000000036
 41
0.9999999999999963
 50
0
  1
補強用シートＳ
  0
TEXT
  8
_0-a_文字
 62
    7
 10
1128.7891838388634
 20
859.99623267557922
 40
15.000000000000036
 41
0.9999999999999963
 50
0
  1
補強用シートＬ
  0
LINE
  8
_0-d_断熱__ハッチ
  6
CONTINUOUS
 62
    4
 10
1043.8519367746858
 20
731.05323567339269
 11
1044.1107138148993
 21
731.3120127136051
  0
LINE
  8
_0-d_断熱__ハッチ
  6
CONTINUOUS
 62
    4
 10
1045.8893630933574
 20
729.55512808613548
 11
1047.646247720827
 21
731.3120127136051
  0
LINE
  8
_0-d_断熱__ハッチ
  6
CONTINUOUS
 62
    4
 10
1044.5000000000005
 20
724.63023108684865
 11
1051.181781626758
 21
731.31201271360624
  0
LINE
  8
_0-d_断熱__ハッチ
  6
CONTINUOUS
 62
    4
 10
1045.928273912449
 20
722.52297109336496
 11
1054.7173155326914
 21
731.31201271360624
  0
LINE
  8
_0-d_断熱__ハッチ
  6
CONTINUOUS
 62
    4
 10
1049.4638078183823
 20
722.52297109336496
 11
1054.4638078183857
 21
727.52297109336837
  0
LINE
  8
_0-d_断熱__ハッチ
  6
CONTINUOUS
 62
    4
 10
1052.9993417243168
 20
722.52297109336496
 11
1055.4999999999984
 21
725.02362936904774
  0
LINE
  8
_0-7_ビス
  6
CONTINUOUS
 62
    4
 10
1047.3617247231118
 20
651.81201271360464
 11
1053.5000000000002
 21
653.45681248741016
  0
LINE
  8
_0-7_ビス
  6
CONTINUOUS
 62
    4
 10
1046.4999999999998
 20
653.58110670732117
 11
1053.5000000000002
 21
655.45681248741062
  0
LINE
  8
_0-7_ビス
  6
CONTINUOUS
 62
    4
 10
1046.4999999999998
 20
655.58110670732276
 11
1053.5000000000002
 21
657.45681248741221
  0
LINE
  8
_0-7_ビス
  6
CONTINUOUS
 62
    4
 10
1046.4999999999998
 20
657.58110670732435
 11
1053.5000000000002
 21
659.4568124874138
  0
LINE
  8
_0-7_ビス
  6
CONTINUOUS
 62
    4
 10
1046.4999999999998
 20
659.58110670732481
 11
1053.5000000000002
 21
661.45681248741425
  0
LINE
  8
_0-7_ビス
  6
CONTINUOUS
 62
    4
 10
1046.4999999999998
 20
661.58110670732526
 11
1053.5000000000002
 21
663.45681248741471
  0
LINE
  8
_0-7_ビス
  6
CONTINUOUS
 62
    7
 10
1046.4999999999998
 20
648.33273865576871
 11
1049.9999999999989
 21
646.3120127136051
  0
LINE
  8
_0-7_ビス
  6
CONTINUOUS
 62
    7
 10
1046.4999999999998
 20
727.59897020424319
 11
1046.4999999999998
 21
648.33273865576871
  0
LINE
  8
_0-7_ビス
  6
CONTINUOUS
 62
    7
 10
1053.5000000000002
 20
651.81201271360464
 11
1046.4999999999998
 21
651.81201271360464
  0
LINE
  8
_0-7_ビス
  6
CONTINUOUS
 62
    7
 10
1053.5000000000002
 20
648.33273865576871
 11
1049.9999999999989
 21
646.3120127136051
  0
LINE
  8
_0-7_ビス
  6
CONTINUOUS
 62
    7
 10
1053.5000000000002
 20
727.59897020424319
 11
1053.5000000000002
 21
648.33273865576871
  0
LINE
  8
ADD_LINE
  6
DOT
 62
    4
 10
1049.9999999999989
 20
643.19264805165403
 11
1049.9999999999989
 21
742.80936779427179
  0
LINE
  8
_0-7_ビス
  6
CONTINUOUS
 62
    7
 10
1056.0000000000002
 20
730.92739732898963
 11
1056.0000000000002
 21
731.3120127136051
  0
LINE
  8
_0-7_ビス
  6
DASHED3
 62
    7
 10
1051.4674681162535
 20
728.76264318277777
 11
1052.550015836149
 21
731.3120127136051
  0
LINE
  8
_0-7_ビス
  6
CONTINUOUS
 62
    7
 10
1043.9999999999998
 20
730.92739732898963
 11
1043.9999999999998
 21
731.3120127136051
  0
LINE
  8
_0-7_ビス
  6
DASHED3
 62
    7
 10
1048.5325318837442
 20
728.76264318277777
 11
1047.449984163851
 21
731.3120127136051
  0
LINE
  8
_0-7_ビス
  6
CONTINUOUS
 62
    7
 10
1056.0000000000002
 20
730.92739732898963
 11
1043.9999999999998
 21
730.92739732898963
  0
LINE
  8
_0-7_ビス
  6
CONTINUOUS
 62
    7
 10
1056.0000000000002
 20
731.3120127136051
 11
1043.9999999999998
 21
731.3120127136051
  0
ARC
  8
_0-7_ビス
  6
DASHED3
 62
    7
 10
1049.9999999999989
 20
729.8731862810439
 40
1.8403175392666382
 50
217.11750793457031
 51
322.88247680664062
  0
LINE
  8
_0-7_ビス
  6
CONTINUOUS
 62
    7
 10
1054.0857864376255
 20
729.01318376661607
 11
1056.0000000000002
 21
730.92739732898963
  0
ARC
  8
_0-7_ビス
  6
CONTINUOUS
 62
    7
 10
1055.4999999999984
 20
727.59897020424319
 40
2
 50
135.00000000000153
 51
180.00000000000003
  0
LINE
  8
_0-7_ビス
  6
CONTINUOUS
 62
    7
 10
1045.9142135623722
 20
729.01318376661607
 11
1043.9999999999998
 21
730.92739732898963
  0
ARC
  8
_0-7_ビス
  6
CONTINUOUS
 62
    7
 10
1044.4999999999993
 20
727.59897020424319
 40
2
 50
0
 51
44.999999999998501
  0
LINE
  8
_0-7_ビス
  6
CONTINUOUS
 62
    7
 10
1053.5000000000002
 20
727.31201271360533
 11
1046.4999999999998
 21
727.31201271360533
  0
LINE
  8
_0-7_ビス
  6
CONTINUOUS
 62
    7
 10
1053.5000000000002
 20
716.3120127136051
 11
1046.4999999999998
 21
716.3120127136051
  0
LINE
  8
_0-7_ビス
  6
CONTINUOUS
 62
    4
 10
1046.4999999999998
 20
715.11220935421079
 11
1050.9775804419394
 21
716.3120127136051
  0
LINE
  8
_0-7_ビス
  6
CONTINUOUS
 62
    4
 10
1046.4999999999998
 20
702.80598882483332
 11
1053.5000000000002
 21
704.68169460492277
  0
LINE
  8
_0-7_ビス
  6
CONTINUOUS
 62
    4
 10
1046.4999999999998
 20
704.80598882483378
 11
1053.5000000000002
 21
706.68169460492322
  0
LINE
  8
_0-7_ビス
  6
CONTINUOUS
 62
    4
 10
1046.4999999999998
 20
706.80598882483423
 11
1053.5000000000002
 21
708.68169460492254
  0
LINE
  8
_0-7_ビス
  6
CONTINUOUS
 62
    4
 10
1046.4999999999998
 20
708.80598882483469
 11
1053.5000000000002
 21
710.681694604923
  0
LINE
  8
_0-7_ビス
  6
CONTINUOUS
 62
    4
 10
1046.4999999999998
 20
710.805988824834
 11
1053.5000000000002
 21
712.68169460492231
  0
LINE
  8
_0-7_ビス
  6
CONTINUOUS
 62
    4
 10
1046.4999999999998
 20
712.80598882483446
 11
1053.5000000000002
 21
714.68169460492277
  0
LINE
  8
_0-7_ビス
  6
CONTINUOUS
 62
    4
 10
1046.4999999999998
 20
690.49976829545699
 11
1053.5000000000002
 21
692.37547407554644
  0
LINE
  8
_0-7_ビス
  6
CONTINUOUS
 62
    4
 10
1046.4999999999998
 20
692.49976829545744
 11
1053.5000000000002
 21
694.37547407554575
  0
LINE
  8
_0-7_ビス
  6
CONTINUOUS
 62
    4
 10
1046.4999999999998
 20
694.4997682954579
 11
1053.5000000000002
 21
696.37547407554507
  0
LINE
  8
_0-7_ビス
  6
CONTINUOUS
 62
    4
 10
1046.4999999999998
 20
696.49976829545722
 11
1053.5000000000002
 21
698.37547407554553
  0
LINE
  8
_0-7_ビス
  6
CONTINUOUS
 62
    4
 10
1046.4999999999998
 20
698.49976829545653
 11
1053.5000000000002
 21
700.37547407554598
  0
LINE
  8
_0-7_ビス
  6
CONTINUOUS
 62
    4
 10
1046.4999999999998
 20
700.49976829545699
 11
1053.5000000000002
 21
702.37547407554644
  0
LINE
  8
_0-7_ビス
  6
CONTINUOUS
 62
    4
 10
1046.4999999999998
 20
678.19354776608066
 11
1053.5000000000002
 21
680.06925354616897
  0
LINE
  8
_0-7_ビス
  6
CONTINUOUS
 62
    4
 10
1046.4999999999998
 20
680.19354776608111
 11
1053.5000000000002
 21
682.06925354616828
  0
LINE
  8
_0-7_ビス
  6
CONTINUOUS
 62
    4
 10
1046.4999999999998
 20
682.19354776608043
 11
1053.5000000000002
 21
684.06925354616874
  0
LINE
  8
_0-7_ビス
  6
CONTINUOUS
 62
    4
 10
1046.4999999999998
 20
684.19354776607975
 11
1053.5000000000002
 21
686.06925354616919
  0
LINE
  8
_0-7_ビス
  6
CONTINUOUS
 62
    4
 10
1046.4999999999998
 20
686.1935477660802
 11
1053.5000000000002
 21
688.06925354616965
  0
LINE
  8
_0-7_ビス
  6
CONTINUOUS
 62
    4
 10
1046.4999999999998
 20
688.19354776608066
 11
1053.5000000000002
 21
690.0692535461701
  0
LINE
  8
_0-7_ビス
  6
CONTINUOUS
 62
    4
 10
1046.4999999999998
 20
665.88732723670319
 11
1053.5000000000002
 21
667.7630330167915
  0
LINE
  8
_0-7_ビス
  6
CONTINUOUS
 62
    4
 10
1046.4999999999998
 20
667.88732723670364
 11
1053.5000000000002
 21
669.76303301679195
  0
LINE
  8
_0-7_ビス
  6
CONTINUOUS
 62
    4
 10
1046.4999999999998
 20
669.88732723670296
 11
1053.5000000000002
 21
671.76303301679241
  0
LINE
  8
_0-7_ビス
  6
CONTINUOUS
 62
    4
 10
1046.4999999999998
 20
671.88732723670341
 11
1053.5000000000002
 21
673.76303301679286
  0
LINE
  8
_0-7_ビス
  6
CONTINUOUS
 62
    4
 10
1046.4999999999998
 20
673.88732723670387
 11
1053.5000000000002
 21
675.76303301679218
  0
LINE
  8
_0-7_ビス
  6
CONTINUOUS
 62
    4
 10
1046.4999999999998
 20
675.88732723670432
 11
1053.5000000000002
 21
677.76303301679263
  0
LINE
  8
_0-7_ビス
  6
CONTINUOUS
 62
    4
 10
1046.4999999999998
 20
663.58110670732685
 11
1053.5000000000002
 21
665.45681248741516
  0
LINE
  8
_0-d_断熱__ハッチ
  6
CONTINUOUS
 62
    4
 10
1073.7599073514036
 20
677.5229710933661
 11
1108.7599073514036
 21
712.5229710933661
  0
LINE
  8
_0-d_断熱__ハッチ
  6
CONTINUOUS
 62
    4
 10
999.10782632864198
 20
712.5229710933661
 11
1034.1078263286431
 21
677.5229710933661
  0
LINE
  8
_0-d_断熱__ハッチ
  6
CONTINUOUS
 62
    4
 10
1045.4756361039358
 20
677.5229710933661
 11
1080.4756361039369
 21
712.5229710933661
  0
LINE
  8
_0-d_断熱__ハッチ
  6
CONTINUOUS
 62
    4
 10
1027.3920975760996
 20
712.5229710933661
 11
1062.3920975760984
 21
677.5229710933661
  0
LINE
  8
_0-2_線色２__白__
  6
CONTINUOUS
 62
    7
 10
1044.4999999999993
 20
727.5229710933661
 11
1044.4999999999993
 21
722.5229710933661
  0
LINE
  8
_0-2_線色２__白__
  6
CONTINUOUS
 62
    7
 10
1055.4999999999984
 20
727.5229710933661
 11
1055.4999999999984
 21
722.5229710933661
  0
LINE
  8
_0-4_線色４__黄__
  6
CONTINUOUS
 62
    2
 10
641.48239966434971
 20
722.5229710933661
 11
974.99999999999886
 21
722.5229710933661
  0
LINE
  8
_0-4_線色４__黄__
  6
CONTINUOUS
 62
    2
 10
1124.9999999999989
 20
727.5229710933661
 11
1124.9999999999989
 21
722.5229710933661
  0
LINE
  8
_0-4_線色４__黄__
  6
CONTINUOUS
 62
    2
 10
974.99999999999886
 20
727.5229710933661
 11
974.99999999999886
 21
722.5229710933661
  0
LINE
  8
_0-2_線色２__白__
  6
CONTINUOUS
 62
    7
 10
974.99999999999886
 20
722.5229710933661
 11
1124.9999999999989
 21
722.5229710933661
  0
LINE
  8
_0-2_線色２__白__
  6
CONTINUOUS
 62
    7
 10
1135.721977313143
 20
722.63327472502738
 11
1135.7478758626132
 21
722.5229710933661
  0
LINE
  8
_0-2_線色２__白__
  6
CONTINUOUS
 62
    7
 10
1135.6761404174665
 20
722.82294967213033
 11
1135.721977313143
 21
722.63327472502738
  0
LINE
  8
_0-2_線色２__白__
  6
CONTINUOUS
 62
    7
 10
1135.6270140101788
 20
723.01122537430615
 11
1135.6761404174665
 21
722.82294967213033
  0
LINE
  8
_0-2_線色２__白__
  6
CONTINUOUS
 62
    7
 10
1135.5725161219095
 20
723.19721623349551
 11
1135.6270140101788
 21
723.01122537430615
  0
LINE
  8
_0-2_線色２__白__
  6
CONTINUOUS
 62
    7
 10
1135.5105647832863
 20
723.38003665164365
 11
1135.5725161219095
 21
723.19721623349551
  0
LINE
  8
_0-2_線色２__白__
  6
CONTINUOUS
 62
    7
 10
1135.4390780249366
 20
723.5588010306958
 11
1135.5105647832863
 21
723.38003665164365
  0
LINE
  8
_0-2_線色２__白__
  6
CONTINUOUS
 62
    7
 10
1135.3924261715781
 20
723.66027692174498
 11
1135.4390780249366
 21
723.5588010306958
  0
LINE
  8
_0-2_線色２__白__
  6
CONTINUOUS
 62
    7
 10
1135.3563862604915
 20
723.7319285795877
 11
1135.3924261715781
 21
723.66027692174498
  0
LINE
  8
_0-2_線色２__白__
  6
CONTINUOUS
 62
    7
 10
1135.2893657621621
 20
723.8532223332902
 11
1135.3563862604915
 21
723.7319285795877
  0
LINE
  8
_0-2_線色２__白__
  6
CONTINUOUS
 62
    7
 10
1135.2166581960171
 20
723.97163409798281
 11
1135.2893657621621
 21
723.8532223332902
  0
LINE
  8
_0-2_線色２__白__
  6
CONTINUOUS
 62
    7
 10
1135.1388375052727
 20
724.08711503069526
 11
1135.2166581960171
 21
723.97163409798281
  0
LINE
  8
_0-2_線色２__白__
  6
CONTINUOUS
 62
    7
 10
1135.0564776331396
 20
724.19961628845499
 11
1135.1388375052727
 21
724.08711503069526
  0
LINE
  8
_0-2_線色２__白__
  6
CONTINUOUS
 62
    7
 10
1134.9701525228352
 20
724.30908902829174
 11
1135.0564776331396
 21
724.19961628845499
  0
LINE
  8
_0-2_線色２__白__
  6
CONTINUOUS
 62
    7
 10
1134.9184932501987
 20
724.37117630381522
 11
1134.9701525228352
 21
724.30908902829174
  0
LINE
  8
_0-2_線色２__白__
  6
CONTINUOUS
 62
    7
 10
1134.8274246682593
 20
724.47537761202625
 11
1134.9184932501987
 21
724.37117630381522
  0
LINE
  8
_0-2_線色２__白__
  6
CONTINUOUS
 62
    7
 10
1134.664110796981
 20
724.64865461503564
 11
1134.8274246682593
 21
724.47537761202625
  0
LINE
  8
_0-2_線色２__白__
  6
CONTINUOUS
 62
    7
 10
1134.4940655978701
 20
724.81514075788368
 11
1134.664110796981
 21
724.64865461503564
  0
LINE
  8
_0-2_線色２__白__
  6
CONTINUOUS
 62
    7
 10
1134.3187334716458
 20
724.97633095581136
 11
1134.4940655978701
 21
724.81514075788368
  0
LINE
  8
_0-2_線色２__白__
  6
CONTINUOUS
 62
    7
 10
1134.139558819021
 20
725.13372012405284
 11
1134.3187334716458
 21
724.97633095581136
  0
LINE
  8
_0-2_線色２__白__
  6
CONTINUOUS
 62
    7
 10
1133.9579860407105
 20
725.28880317784683
 11
1134.139558819021
 21
725.13372012405284
  0
LINE
  8
_0-2_線色２__白__
  6
CONTINUOUS
 62
    7
 10
1133.8521441770934
 20
725.37828376174843
 11
1133.9579860407105
 21
725.28880317784683
  0
LINE
  8
_0-2_線色２__白__
  6
CONTINUOUS
 62
    7
 10
1133.7676910076891
 20
725.44954094084119
 11
1133.8521441770934
 21
725.37828376174843
  0
LINE
  8
_0-2_線色２__白__
  6
CONTINUOUS
 62
    7
 10
1133.6215834065933
 20
725.57174102076601
 11
1133.7676910076891
 21
725.44954094084119
  0
LINE
  8
_0-2_線色２__白__
  6
CONTINUOUS
 62
    7
 10
1133.4741785648998
 20
725.69207336981322
 11
1133.6215834065933
 21
725.57174102076601
  0
LINE
  8
_0-2_線色２__白__
  6
CONTINUOUS
 62
    7
 10
1133.3247020761644
 20
725.80933342220874
 11
1133.4741785648998
 21
725.69207336981322
  0
LINE
  8
_0-2_線色２__白__
  6
CONTINUOUS
 62
    7
 10
1133.1723795339428
 20
725.92231661217852
 11
1133.3247020761644
 21
725.80933342220874
  0
LINE
  8
_0-2_線色２__白__
  6
CONTINUOUS
 62
    7
 10
1133.0164365317899
 20
726.02981837394623
 11
1133.1723795339428
 21
725.92231661217852
  0
LINE
  8
_0-2_線色２__白__
  6
CONTINUOUS
 62
    7
 10
1132.9240255393904
 20
726.08918314381754
 11
1133.0164365317899
 21
726.02981837394623
  0
LINE
  8
_0-2_線色２__白__
  6
CONTINUOUS
 62
    7
 10
1132.8323105310653
 20
726.14487008532933
 11
1132.9240255393904
 21
726.08918314381754
  0
LINE
  8
_0-2_線色２__白__
  6
CONTINUOUS
 62
    7
 10
1132.6715068050532
 20
726.23682685605559
 11
1132.8323105310653
 21
726.14487008532933
  0
LINE
  8
_0-2_線色２__白__
  6
CONTINUOUS
 62
    7
 10
1132.508789377099
 20
726.32592701839144
 11
1132.6715068050532
 21
726.23682685605559
  0
LINE
  8
_0-2_線色２__白__
  6
CONTINUOUS
 62
    7
 10
1132.3458694288058
 20
726.41481772684187
 11
1132.508789377099
 21
726.32592701839144
  0
LINE
  8
_0-2_線色２__白__
  6
CONTINUOUS
 62
    7
 10
1132.1844581417747
 20
726.50614613591301
 11
1132.3458694288058
 21
726.41481772684187
  0
LINE
  8
_0-2_線色２__白__
  6
CONTINUOUS
 62
    7
 10
1132.0262666976032
 20
726.60255940010757
 11
1132.1844581417747
 21
726.50614613591301
  0
LINE
  8
_0-2_線色２__白__
  6
CONTINUOUS
 62
    7
 10
1131.9366652865153
 20
726.66185209048535
 11
1132.0262666976032
 21
726.60255940010757
  0
LINE
  8
_0-2_線色２__白__
  6
CONTINUOUS
 62
    7
 10
1131.8826380616213
 20
726.69971938687581
 11
1131.9366652865153
 21
726.66185209048535
  0
LINE
  8
_0-2_線色２__白__
  6
CONTINUOUS
 62
    7
 10
1131.7912835626692
 20
726.76764721640552
 11
1131.8826380616213
 21
726.69971938687581
  0
LINE
  8
_0-2_線色２__白__
  6
CONTINUOUS
 62
    7
 10
1131.7022535516332
 20
726.83873869309423
 11
1131.7912835626692
 21
726.76764721640552
  0
LINE
  8
_0-2_線色２__白__
  6
CONTINUOUS
 62
    7
 10
1131.6156075761376
 20
726.91278759642159
 11
1131.7022535516332
 21
726.83873869309423
  0
LINE
  8
_0-2_線色２__白__
  6
CONTINUOUS
 62
    7
 10
1131.5314051838084
 20
726.98958770586273
 11
1131.6156075761376
 21
726.91278759642159
  0
LINE
  8
_0-2_線色２__白__
  6
CONTINUOUS
 62
    7
 10
1131.4497059222674
 20
727.0689328008973
 11
1131.5314051838084
 21
726.98958770586273
  0
LINE
  8
_0-2_線色２__白__
  6
CONTINUOUS
 62
    7
 10
1131.4034907499627
 20
727.11603780680775
 11
1131.4497059222674
 21
727.0689328008973
  0
LINE
  8
_0-2_線色２__白__
  6
CONTINUOUS
 62
    7
 10
1131.275608742136
 20
727.25529070658808
 11
1131.4034907499627
 21
727.11603780680775
  0
LINE
  8
_0-2_線色２__白__
  6
CONTINUOUS
 62
    7
 10
1131.0703231158607
 20
727.50813316234598
 11
1131.275608742136
 21
727.25529070658808
  0
LINE
  8
_0-2_線色２__白__
  6
CONTINUOUS
 62
    7
 10
1130.8817111174608
 20
727.77456468353307
 11
1131.0703231158607
 21
727.50813316234598
  0
LINE
  8
_0-2_線色２__白__
  6
CONTINUOUS
 62
    7
 10
1130.7067871300762
 20
728.05161811155017
 11
1130.8817111174608
 21
727.77456468353307
  0
LINE
  8
_0-2_線色２__白__
  6
CONTINUOUS
 62
    7
 10
1130.5425655368481
 20
728.33632628780265
 11
1130.7067871300762
 21
728.05161811155017
  0
LINE
  8
_0-2_線色２__白__
  6
CONTINUOUS
 62
    7
 10
1130.3860607209185
 20
728.62572205368906
 11
1130.5425655368481
 21
728.33632628780265
  0
LINE
  8
_0-2_線色２__白__
  6
CONTINUOUS
 62
    7
 10
1130.2976472667422
 20
728.79455023669493
 11
1130.3860607209185
 21
728.62572205368906
  0
LINE
  8
_0-2_線色２__白__
  6
CONTINUOUS
 62
    7
 10
1130.2326892721123
 20
728.9199899861967
 11
1130.2976472667422
 21
728.79455023669493
  0
LINE
  8
_0-2_線色２__白__
  6
CONTINUOUS
 62
    7
 10
1130.1215622799145
 20
729.1361298254526
 11
1130.2326892721123
 21
728.9199899861967
  0
LINE
  8
_0-2_線色２__白__
  6
CONTINUOUS
 62
    7
 10
1130.0108748560558
 20
729.35189336643248
 11
1130.1215622799145
 21
729.1361298254526
  0
LINE
  8
_0-2_線色２__白__
  6
CONTINUOUS
 62
    7
 10
1129.8998582468084
 20
729.56704262750804
 11
1130.0108748560558
 21
729.35189336643248
  0
LINE
  8
_0-2_線色２__白__
  6
CONTINUOUS
 62
    7
 10
1129.7877436984447
 20
729.78133962704419
 11
1129.8998582468084
 21
729.56704262750804
  0
LINE
  8
_0-2_線色２__白__
  6
CONTINUOUS
 62
    7
 10
1129.6737624572359
 20
729.99454638341263
 11
1129.7877436984447
 21
729.78133962704419
  0
LINE
  8
_0-2_線色２__白__
  6
CONTINUOUS
 62
    7
 10
1129.6064950897301
 20
730.11761297554813
 11
1129.6737624572359
 21
729.99454638341263
  0
LINE
  8
_0-2_線色２__白__
  6
CONTINUOUS
 62
    7
 10
1129.54260476287
 20
730.23229177257804
 11
1129.6064950897301
 21
730.11761297554813
  0
LINE
  8
_0-2_線色２__白__
  6
CONTINUOUS
 62
    7
 10
1129.4296519093018
 20
730.4285457713604
 11
1129.54260476287
 21
730.23229177257804
  0
LINE
  8
_0-2_線色２__白__
  6
CONTINUOUS
 62
    7
 10
1129.3121511451329
 20
730.62225494050381
 11
1129.4296519093018
 21
730.4285457713604
  0
LINE
  8
_0-2_線色２__白__
  6
CONTINUOUS
 62
    7
 10
1129.1889312431465
 20
730.81262100159279
 11
1129.3121511451329
 21
730.62225494050381
  0
LINE
  8
_0-2_線色２__白__
  6
CONTINUOUS
 62
    7
 10
1129.0588209761268
 20
730.99884567621302
 11
1129.1889312431465
 21
730.81262100159279
  0
LINE
  8
_0-2_線色２__白__
  6
CONTINUOUS
 62
    7
 10
1128.9206491168591
 20
731.18013068594905
 11
1129.0588209761268
 21
730.99884567621302
  0
LINE
  8
_0-2_線色２__白__
  6
CONTINUOUS
 62
    7
 10
1128.8363540924877
 20
731.28269807394076
 11
1128.9206491168591
 21
731.18013068594905
  0
LINE
  8
_0-2_線色２__白__
  6
CONTINUOUS
 62
    7
 10
1128.7609120125012
 20
731.36955177793766
 11
1128.8363540924877
 21
731.28269807394076
  0
LINE
  8
_0-2_線色２__白__
  6
CONTINUOUS
 62
    7
 10
1128.625002559296
 20
731.51457360726795
 11
1128.7609120125012
 21
731.36955177793766
  0
LINE
  8
_0-2_線色２__白__
  6
CONTINUOUS
 62
    7
 10
1128.4817082189318
 20
731.65199101311487
 11
1128.625002559296
 21
731.51457360726795
  0
LINE
  8
_0-2_線色２__白__
  6
CONTINUOUS
 62
    7
 10
1128.3310331725136
 20
731.77991768642983
 11
1128.4817082189318
 21
731.65199101311487
  0
LINE
  8
_0-2_線色２__白__
  6
CONTINUOUS
 62
    7
 10
1128.1729816011546
 20
731.89646731816083
 11
1128.3310331725136
 21
731.77991768642983
  0
LINE
  8
_0-2_線色２__白__
  6
CONTINUOUS
 62
    7
 10
1128.0075576859633
 20
731.99975359926043
 11
1128.1729816011546
 21
731.89646731816083
  0
LINE
  8
_0-2_線色２__白__
  6
CONTINUOUS
 62
    7
 10
1127.9082354547847
 20
732.05283907118314
 11
1128.0075576859633
 21
731.99975359926043
  0
LINE
  8
_0-2_線色２__白__
  6
CONTINUOUS
 62
    7
 10
1127.7976976286641
 20
732.10444901184019
 11
1127.9082354547847
 21
732.05283907118314
  0
LINE
  8
_0-2_線色２__白__
  6
CONTINUOUS
 62
    7
 10
1127.6012036530653
 20
732.18034854557459
 11
1127.7976976286641
 21
732.10444901184019
  0
LINE
  8
_0-2_線色２__白__
  6
CONTINUOUS
 62
    7
 10
1127.3986504532093
 20
732.24275671247256
 11
1127.6012036530653
 21
732.18034854557459
  0
LINE
  8
_0-2_線色２__白__
  6
CONTINUOUS
 62
    7
 10
1127.1916935039428
 20
732.29524275417589
 11
1127.3986504532093
 21
732.24275671247256
  0
LINE
  8
_0-2_線色２__白__
  6
CONTINUOUS
 62
    7
 10
1126.981988280105
 20
732.34137591232525
 11
1127.1916935039428
 21
732.29524275417589
  0
LINE
  8
_0-2_線色２__白__
  6
CONTINUOUS
 62
    7
 10
1126.7711902565418
 20
732.38472542856016
 11
1126.981988280105
 21
732.34137591232525
  0
LINE
  8
_0-2_線色２__白__
  6
CONTINUOUS
 62
    7
 10
1126.6490790252135
 20
732.40999915005773
 11
1126.7711902565418
 21
732.38472542856016
  0
LINE
  8
_0-2_線色２__白__
  6
CONTINUOUS
 62
    7
 10
1126.5415167996764
 20
732.43298093694534
 11
1126.6490790252135
 21
732.40999915005773
  0
LINE
  8
_0-2_線色２__白__
  6
CONTINUOUS
 62
    7
 10
1126.3567972617489
 20
732.47342493452038
 11
1126.5415167996764
 21
732.43298093694534
  0
LINE
  8
_0-2_線色２__白__
  6
CONTINUOUS
 62
    7
 10
1126.1726916657278
 20
732.51348259922793
 11
1126.3567972617489
 21
732.47342493452038
  0
LINE
  8
_0-2_線色２__白__
  6
CONTINUOUS
 62
    7
 10
1125.98883562987
 20
732.55149742525532
 11
1126.1726916657278
 21
732.51348259922793
  0
LINE
  8
_0-2_線色２__白__
  6
CONTINUOUS
 62
    7
 10
1125.8048647724297
 20
732.58581290679331
 11
1125.98883562987
 21
732.55149742525532
  0
LINE
  8
_0-2_線色２__白__
  6
CONTINUOUS
 62
    7
 10
1125.6204147116603
 20
732.61477253803378
 11
1125.8048647724297
 21
732.58581290679331
  0
LINE
  8
_0-2_線色２__白__
  6
CONTINUOUS
 62
    7
 10
1125.5130705200941
 20
732.62846232412016
 11
1125.6204147116603
 21
732.61477253803378
  0
LINE
  8
_0-2_線色２__白__
  6
CONTINUOUS
 62
    7
 10
1125.3665190438585
 20
732.6428989328997
 11
1125.5130705200941
 21
732.62846232412016
  0
LINE
  8
_0-2_線色２__白__
  6
CONTINUOUS
 62
    7
 10
1125.112553856867
 20
732.65696808090183
 11
1125.3665190438585
 21
732.6428989328997
  0
LINE
  8
_0-2_線色２__白__
  6
CONTINUOUS
 62
    7
 10
1124.8573360674322
 20
732.65859778814956
 11
1125.112553856867
 21
732.65696808090183
  0
LINE
  8
_0-2_線色２__白__
  6
CONTINUOUS
 62
    7
 10
1124.6013082308014
 20
732.64925169696312
 11
1124.8573360674322
 21
732.65859778814956
  0
LINE
  8
_0-2_線色２__白__
  6
CONTINUOUS
 62
    7
 10
1124.3449129022201
 20
732.63039344966387
 11
1124.6013082308014
 21
732.64925169696312
  0
LINE
  8
_0-2_線色２__白__
  6
CONTINUOUS
 62
    7
 10
1124.0885926369356
 20
732.60348668857318
 11
1124.3449129022201
 21
732.63039344966387
  0
LINE
  8
_0-2_線色２__白__
  6
CONTINUOUS
 62
    7
 10
1123.940135666852
 20
732.58476968930722
 11
1124.0885926369356
 21
732.60348668857318
  0
LINE
  8
_0-2_線色２__白__
  6
CONTINUOUS
 62
    7
 10
1123.8173668188222
 20
732.56771632327286
 11
1123.940135666852
 21
732.58476968930722
  0
LINE
  8
_0-2_線色２__白__
  6
CONTINUOUS
 62
    7
 10
1123.6065237752666
 20
732.53436360763658
 11
1123.8173668188222
 21
732.56771632327286
  0
LINE
  8
_0-2_線色２__白__
  6
CONTINUOUS
 62
    7
 10
1123.3973443835578
 20
732.49473901252827
 11
1123.6065237752666
 21
732.53436360763658
  0
LINE
  8
_0-2_線色２__白__
  6
CONTINUOUS
 62
    7
 10
1123.1905453067486
 20
732.4473641387965
 11
1123.3973443835578
 21
732.49473901252827
  0
LINE
  8
_0-2_線色２__白__
  6
CONTINUOUS
 62
    7
 10
1122.9868432078899
 20
732.39076058729893
 11
1123.1905453067486
 21
732.4473641387965
  0
LINE
  8
_0-2_線色２__白__
  6
CONTINUOUS
 62
    7
 10
1122.7869547500359
 20
732.32344995888411
 11
1122.9868432078899
 21
732.39076058729893
  0
LINE
  8
_0-2_線色２__白__
  6
CONTINUOUS
 62
    7
 10
1122.6730492572972
 20
732.27892124562118
 11
1122.7869547500359
 21
732.32344995888411
  0
LINE
  8
_0-2_線色２__白__
  6
CONTINUOUS
 62
    7
 10
1122.5716529961278
 20
732.23503897470096
 11
1122.6730492572972
 21
732.27892124562118
  0
LINE
  8
_0-2_線色２__白__
  6
CONTINUOUS
 62
    7
 10
1122.4000548985248
 20
732.15153079418997
 11
1122.5716529961278
 21
732.23503897470096
  0
LINE
  8
_0-2_線色２__白__
  6
CONTINUOUS
 62
    7
 10
1122.2325972564931
 20
732.05891039890389
 11
1122.4000548985248
 21
732.15153079418997
  0
LINE
  8
_0-2_線色２__白__
  6
CONTINUOUS
 62
    7
 10
1122.0693505992665
 20
731.95813516747762
 11
1122.2325972564931
 21
732.05891039890389
  0
LINE
  8
_0-2_線色２__白__
  6
CONTINUOUS
 62
    7
 10
1121.9103854560774
 20
731.85016247854605
 11
1122.0693505992665
 21
731.95813516747762
  0
LINE
  8
_0-2_線色２__白__
  6
CONTINUOUS
 62
    7
 10
1121.7557723561561
 20
731.73594971074522
 11
1121.9103854560774
 21
731.85016247854605
  0
LINE
  8
_0-2_線色２__白__
  6
CONTINUOUS
 62
    7
 10
1121.6681186566143
 20
731.66722435824909
 11
1121.7557723561561
 21
731.73594971074522
  0
LINE
  8
_0-2_線色２__白__
  6
CONTINUOUS
 62
    7
 10
1121.5708912150274
 20
731.58767455096836
 11
1121.6681186566143
 21
731.66722435824909
  0
LINE
  8
_0-2_線色２__白__
  6
CONTINUOUS
 62
    7
 10
1121.4073663716465
 20
731.44621129814027
 11
1121.5708912150274
 21
731.58767455096836
  0
LINE
  8
_0-2_線色２__白__
  6
CONTINUOUS
 62
    7
 10
1121.24845241554
 20
731.29998456774388
 11
1121.4073663716465
 21
731.44621129814027
  0
LINE
  8
_0-2_線色２__白__
  6
CONTINUOUS
 62
    7
 10
1121.0934633360364
 20
731.1497969288223
 11
1121.24845241554
 21
731.29998456774388
  0
LINE
  8
_0-2_線色２__白__
  6
CONTINUOUS
 62
    7
 10
1120.9417131224666
 20
730.9964509504232
 11
1121.0934633360364
 21
731.1497969288223
  0
LINE
  8
_0-2_線色２__白__
  6
CONTINUOUS
 62
    7
 10
1120.7925157641591
 20
730.84074920158969
 11
1120.9417131224666
 21
730.9964509504232
  0
LINE
  8
_0-2_線色２__白__
  6
CONTINUOUS
 62
    7
 10
1120.7068806907444
 20
730.74967902719209
 11
1120.7925157641591
 21
730.84074920158969
  0
LINE
  8
_0-2_線色２__白__
  6
CONTINUOUS
 62
    7
 10
1120.6255247928323
 20
730.66225593418608
 11
1120.7068806907444
 21
730.74967902719209
  0
LINE
  8
_0-2_線色２__白__
  6
CONTINUOUS
 62
    7
 10
1120.4864756975235
 20
730.51051069092978
 11
1120.6255247928323
 21
730.66225593418608
  0
LINE
  8
_0-2_線色２__白__
  6
CONTINUOUS
 62
    7
 10
1120.3492118007
 20
730.35713070384304
 11
1120.4864756975235
 21
730.51051069092978
  0
LINE
  8
_0-2_線色２__白__
  6
CONTINUOUS
 62
    7
 10
1120.2140136625724
 20
730.2017102103764
 11
1120.3492118007
 21
730.35713070384304
  0
LINE
  8
_0-2_線色２__白__
  6
CONTINUOUS
 62
    7
 10
1120.0811618433511
 20
730.04384344798609
 11
1120.2140136625724
 21
730.2017102103764
  0
LINE
  8
_0-2_線色２__白__
  6
CONTINUOUS
 62
    7
 10
1119.9509369032478
 20
729.88312465412378
 11
1120.0811618433511
 21
730.04384344798609
  0
LINE
  8
_0-2_線色２__白__
  6
CONTINUOUS
 62
    7
 10
1119.8767206293121
 20
729.78844106132215
 11
1119.9509369032478
 21
729.88312465412378
  0
LINE
  8
_0-2_線色２__白__
  6
CONTINUOUS
 62
    7
 10
1119.8145130496334
 20
729.70707321411737
 11
1119.8767206293121
 21
729.78844106132215
  0
LINE
  8
_0-2_線色２__白__
  6
CONTINUOUS
 62
    7
 10
1119.7098137113164
 20
729.5646440333212
 11
1119.8145130496334
 21
729.70707321411737
  0
LINE
  8
_0-2_線色２__白__
  6
CONTINUOUS
 62
    7
 10
1119.6095646141714
 20
729.41928299154938
 11
1119.7098137113164
 21
729.5646440333212
  0
LINE
  8
_0-2_線色２__白__
  6
CONTINUOUS
 62
    7
 10
1119.5151796250241
 20
729.27073047574936
 11
1119.6095646141714
 21
729.41928299154938
  0
LINE
  8
_0-2_線色２__白__
  6
CONTINUOUS
 62
    7
 10
1119.4280726106967
 20
729.11872687286746
 11
1119.5151796250241
 21
729.27073047574936
  0
LINE
  8
_0-2_線色２__白__
  6
CONTINUOUS
 62
    7
 10
1119.3496574380151
 20
728.96301256985566
 11
1119.4280726106967
 21
729.11872687286746
  0
LINE
  8
_0-2_線色２__白__
  6
CONTINUOUS
 62
    7
 10
1119.3087163767518
 20
728.87089573026401
 11
1119.3496574380151
 21
728.96301256985566
  0
LINE
  8
_0-2_線色２__白__
  6
CONTINUOUS
 62
    7
 10
1119.2614926784597
 20
728.7509306272716
 11
1119.3087163767518
 21
728.87089573026401
  0
LINE
  8
_0-2_線色２__白__
  6
CONTINUOUS
 62
    7
 10
1119.1925775354696
 20
728.53937769545269
 11
1119.2614926784597
 21
728.7509306272716
  0
LINE
  8
_0-2_線色２__白__
  6
CONTINUOUS
 62
    7
 10
1119.1369891379395
 20
728.32279828679475
 11
1119.1925775354696
 21
728.53937769545269
  0
LINE
  8
_0-2_線色２__白__
  6
CONTINUOUS
 62
    7
 10
1119.0918177161154
 20
728.10228988532458
 11
1119.1369891379395
 21
728.32279828679475
  0
LINE
  8
_0-2_線色２__白__
  6
CONTINUOUS
 62
    7
 10
1119.0541535002501
 20
727.87894997506669
 11
1119.0918177161154
 21
728.10228988532458
  0
LINE
  8
_0-2_線色２__白__
  6
CONTINUOUS
 62
    7
 10
1119.0210867205894
 20
727.65387604004673
 11
1119.0541535002501
 21
727.87894997506669
  0
LINE
  8
_0-2_線色２__白__
  6
CONTINUOUS
 62
    7
 10
1119.0028679330658
 20
727.5229710933661
 11
1119.0210867205894
 21
727.65387604004673
  0
LINE
  8
_0-2_線色２__白__
  6
CONTINUOUS
 62
    7
 10
964.27802268685241
 20
722.63327472502738
 11
964.25212413738336
 21
722.5229710933661
  0
LINE
  8
_0-2_線色２__白__
  6
CONTINUOUS
 62
    7
 10
964.32385958253121
 20
722.82294967213033
 11
964.27802268685241
 21
722.63327472502738
  0
LINE
  8
_0-2_線色２__白__
  6
CONTINUOUS
 62
    7
 10
964.37298598981783
 20
723.01122537430615
 11
964.32385958253121
 21
722.82294967213033
  0
LINE
  8
_0-2_線色２__白__
  6
CONTINUOUS
 62
    7
 10
964.42748387808706
 20
723.19721623349551
 11
964.37298598981783
 21
723.01122537430615
  0
LINE
  8
_0-2_線色２__白__
  6
CONTINUOUS
 62
    7
 10
964.48943521671026
 20
723.38003665164365
 11
964.42748387808706
 21
723.19721623349551
  0
LINE
  8
_0-2_線色２__白__
  6
CONTINUOUS
 62
    7
 10
964.56092197506109
 20
723.5588010306958
 11
964.48943521671026
 21
723.38003665164365
  0
LINE
  8
_0-2_線色２__白__
  6
CONTINUOUS
 62
    7
 10
964.60757382841848
 20
723.66027692174498
 11
964.56092197506109
 21
723.5588010306958
  0
LINE
  8
_0-2_線色２__白__
  6
CONTINUOUS
 62
    7
 10
964.6436137395051
 20
723.7319285795877
 11
964.60757382841848
 21
723.66027692174498
  0
LINE
  8
_0-2_線色２__白__
  6
CONTINUOUS
 62
    7
 10
964.71063423783448
 20
723.8532223332902
 11
964.6436137395051
 21
723.7319285795877
  0
LINE
  8
_0-2_線色２__白__
  6
CONTINUOUS
 62
    7
 10
964.78334180397837
 20
723.97163409798281
 11
964.71063423783448
 21
723.8532223332902
  0
LINE
  8
_0-2_線色２__白__
  6
CONTINUOUS
 62
    7
 10
964.86116249472389
 20
724.08711503069526
 11
964.78334180397837
 21
723.97163409798281
  0
LINE
  8
_0-2_線色２__白__
  6
CONTINUOUS
 62
    7
 10
964.94352236685586
 20
724.19961628845499
 11
964.86116249472389
 21
724.08711503069526
  0
LINE
  8
_0-2_線色２__白__
  6
CONTINUOUS
 62
    7
 10
965.02984747716141
 20
724.30908902829174
 11
964.94352236685586
 21
724.19961628845499
  0
LINE
  8
_0-2_線色２__白__
  6
CONTINUOUS
 62
    7
 10
965.08150674979902
 20
724.37117630381522
 11
965.02984747716141
 21
724.30908902829174
  0
LINE
  8
_0-2_線色２__白__
  6
CONTINUOUS
 62
    7
 10
965.17257533173847
 20
724.47537761202625
 11
965.08150674979902
 21
724.37117630381522
  0
LINE
  8
_0-2_線色２__白__
  6
CONTINUOUS
 62
    7
 10
965.33588920301668
 20
724.64865461503564
 11
965.17257533173847
 21
724.47537761202625
  0
LINE
  8
_0-2_線色２__白__
  6
CONTINUOUS
 62
    7
 10
965.50593440212538
 20
724.81514075788368
 11
965.33588920301668
 21
724.64865461503564
  0
LINE
  8
_0-2_線色２__白__
  6
CONTINUOUS
 62
    7
 10
965.68126652835076
 20
724.97633095581136
 11
965.50593440212538
 21
724.81514075788368
  0
LINE
  8
_0-2_線色２__白__
  6
CONTINUOUS
 62
    7
 10
965.86044118097561
 20
725.13372012405284
 11
965.68126652835076
 21
724.97633095581136
  0
LINE
  8
_0-2_線色２__白__
  6
CONTINUOUS
 62
    7
 10
966.04201395928499
 20
725.28880317784683
 11
965.86044118097561
 21
725.13372012405284
  0
LINE
  8
_0-2_線色２__白__
  6
CONTINUOUS
 62
    7
 10
966.14785582290438
 20
725.37828376174843
 11
966.04201395928499
 21
725.28880317784683
  0
LINE
  8
_0-2_線色２__白__
  6
CONTINUOUS
 62
    7
 10
966.23230899230634
 20
725.44954094084119
 11
966.14785582290438
 21
725.37828376174843
  0
LINE
  8
_0-2_線色２__白__
  6
CONTINUOUS
 62
    7
 10
966.37841659340324
 20
725.57174102076601
 11
966.23230899230634
 21
725.44954094084119
  0
LINE
  8
_0-2_線色２__白__
  6
CONTINUOUS
 62
    7
 10
966.52582143509676
 20
725.69207336981322
 11
966.37841659340324
 21
725.57174102076601
  0
LINE
  8
_0-2_線色２__白__
  6
CONTINUOUS
 62
    7
 10
966.67529792383107
 20
725.80933342220874
 11
966.52582143509676
 21
725.69207336981322
  0
LINE
  8
_0-2_線色２__白__
  6
CONTINUOUS
 62
    7
 10
966.82762046605262
 20
725.92231661217852
 11
966.67529792383107
 21
725.80933342220874
  0
LINE
  8
_0-2_線色２__白__
  6
CONTINUOUS
 62
    7
 10
966.98356346820788
 20
726.02981837394623
 11
966.82762046605262
 21
725.92231661217852
  0
LINE
  8
_0-2_線色２__白__
  6
CONTINUOUS
 62
    7
 10
967.07597446060618
 20
726.08918314381754
 11
966.98356346820788
 21
726.02981837394623
  0
LINE
  8
_0-2_線色２__白__
  6
CONTINUOUS
 62
    7
 10
967.16768946893239
 20
726.14487008532933
 11
967.07597446060618
 21
726.08918314381754
  0
LINE
  8
_0-2_線色２__白__
  6
CONTINUOUS
 62
    7
 10
967.32849319494449
 20
726.23682685605559
 11
967.16768946893239
 21
726.14487008532933
  0
LINE
  8
_0-2_線色２__白__
  6
CONTINUOUS
 62
    7
 10
967.49121062289646
 20
726.32592701839144
 11
967.32849319494449
 21
726.23682685605559
  0
LINE
  8
_0-2_線色２__白__
  6
CONTINUOUS
 62
    7
 10
967.65413057118963
 20
726.41481772684187
 11
967.49121062289646
 21
726.32592701839144
  0
LINE
  8
_0-2_線色２__白__
  6
CONTINUOUS
 62
    7
 10
967.81554185822301
 20
726.50614613591301
 11
967.65413057118963
 21
726.41481772684187
  0
LINE
  8
_0-2_線色２__白__
  6
CONTINUOUS
 62
    7
 10
967.97373330239338
 20
726.60255940010757
 11
967.81554185822301
 21
726.50614613591301
  0
LINE
  8
_0-2_線色２__白__
  6
CONTINUOUS
 62
    7
 10
968.06333471348125
 20
726.66185209048535
 11
967.97373330239338
 21
726.60255940010757
  0
LINE
  8
_0-2_線色２__白__
  6
CONTINUOUS
 62
    7
 10
968.11736193837646
 20
726.69971938687581
 11
968.06333471348125
 21
726.66185209048535
  0
LINE
  8
_0-2_線色２__白__
  6
CONTINUOUS
 62
    7
 10
968.20871643732744
 20
726.76764721640552
 11
968.11736193837646
 21
726.69971938687581
  0
LINE
  8
_0-2_線色２__白__
  6
CONTINUOUS
 62
    7
 10
968.29774644836334
 20
726.83873869309423
 11
968.20871643732744
 21
726.76764721640552
  0
LINE
  8
_0-2_線色２__白__
  6
CONTINUOUS
 62
    7
 10
968.38439242385903
 20
726.91278759642159
 11
968.29774644836334
 21
726.83873869309423
  0
LINE
  8
_0-2_線色２__白__
  6
CONTINUOUS
 62
    7
 10
968.46859481618935
 20
726.98958770586273
 11
968.38439242385903
 21
726.91278759642159
  0
LINE
  8
_0-2_線色２__白__
  6
CONTINUOUS
 62
    7
 10
968.55029407772918
 20
727.0689328008973
 11
968.46859481618935
 21
726.98958770586273
  0
LINE
  8
_0-2_線色２__白__
  6
CONTINUOUS
 62
    7
 10
968.59650925003393
 20
727.11603780680775
 11
968.55029407772918
 21
727.0689328008973
  0
LINE
  8
_0-2_線色２__白__
  6
CONTINUOUS
 62
    7
 10
968.72439125785945
 20
727.25529070658808
 11
968.59650925003393
 21
727.11603780680775
  0
LINE
  8
_0-2_線色２__白__
  6
CONTINUOUS
 62
    7
 10
968.92967688413478
 20
727.50813316234598
 11
968.72439125785945
 21
727.25529070658808
  0
LINE
  8
_0-2_線色２__白__
  6
CONTINUOUS
 62
    7
 10
969.11828888253581
 20
727.77456468353307
 11
968.92967688413478
 21
727.50813316234598
  0
LINE
  8
_0-2_線色２__白__
  6
CONTINUOUS
 62
    7
 10
969.29321286992149
 20
728.05161811155017
 11
969.11828888253581
 21
727.77456468353307
  0
LINE
  8
_0-2_線色２__白__
  6
CONTINUOUS
 62
    7
 10
969.4574344631485
 20
728.33632628780265
 11
969.29321286992149
 21
728.05161811155017
  0
LINE
  8
_0-2_線色２__白__
  6
CONTINUOUS
 62
    7
 10
969.61393927907807
 20
728.62572205368906
 11
969.4574344631485
 21
728.33632628780265
  0
LINE
  8
_0-2_線色２__白__
  6
CONTINUOUS
 62
    7
 10
969.70235273325329
 20
728.79455023669493
 11
969.61393927907807
 21
728.62572205368906
  0
LINE
  8
_0-2_線色２__白__
  6
CONTINUOUS
 62
    7
 10
969.76731072788539
 20
728.9199899861967
 11
969.70235273325329
 21
728.79455023669493
  0
LINE
  8
_0-2_線色２__白__
  6
CONTINUOUS
 62
    7
 10
969.87843772008205
 20
729.1361298254526
 11
969.76731072788539
 21
728.9199899861967
  0
LINE
  8
_0-2_線色２__白__
  6
CONTINUOUS
 62
    7
 10
969.98912514394078
 20
729.35189336643248
 11
969.87843772008205
 21
729.1361298254526
  0
LINE
  8
_0-2_線色２__白__
  6
CONTINUOUS
 62
    7
 10
970.10014175318815
 20
729.56704262750804
 11
969.98912514394078
 21
729.35189336643248
  0
LINE
  8
_0-2_線色２__白__
  6
CONTINUOUS
 62
    7
 10
970.212256301553
 20
729.78133962704419
 11
970.10014175318815
 21
729.56704262750804
  0
LINE
  8
_0-2_線色２__白__
  6
CONTINUOUS
 62
    7
 10
970.32623754276074
 20
729.99454638341263
 11
970.212256301553
 21
729.78133962704419
  0
LINE
  8
_0-2_線色２__白__
  6
CONTINUOUS
 62
    7
 10
970.39350491026653
 20
730.11761297554813
 11
970.32623754276074
 21
729.99454638341263
  0
LINE
  8
_0-2_線色２__白__
  6
CONTINUOUS
 62
    7
 10
970.45739523712655
 20
730.23229177257804
 11
970.39350491026653
 21
730.11761297554813
  0
LINE
  8
_0-2_線色２__白__
  6
CONTINUOUS
 62
    7
 10
970.57034809069478
 20
730.4285457713604
 11
970.45739523712655
 21
730.23229177257804
  0
LINE
  8
_0-2_線色２__白__
  6
CONTINUOUS
 62
    7
 10
970.6878488548648
 20
730.62225494050381
 11
970.57034809069478
 21
730.4285457713604
  0
LINE
  8
_0-2_線色２__白__
  6
CONTINUOUS
 62
    7
 10
970.81106875685123
 20
730.81262100159279
 11
970.6878488548648
 21
730.62225494050381
  0
LINE
  8
_0-2_線色２__白__
  6
CONTINUOUS
 62
    7
 10
970.94117902386984
 20
730.99884567621302
 11
970.81106875685123
 21
730.81262100159279
  0
LINE
  8
_0-2_線色２__白__
  6
CONTINUOUS
 62
    7
 10
971.07935088313866
 20
731.18013068594905
 11
970.94117902386984
 21
730.99884567621302
  0
LINE
  8
_0-2_線色２__白__
  6
CONTINUOUS
 62
    7
 10
971.16364590751004
 20
731.28269807394076
 11
971.07935088313866
 21
731.18013068594905
  0
LINE
  8
_0-2_線色２__白__
  6
CONTINUOUS
 62
    7
 10
971.2390879874954
 20
731.36955177793766
 11
971.16364590751004
 21
731.28269807394076
  0
LINE
  8
_0-2_線色２__白__
  6
CONTINUOUS
 62
    7
 10
971.37499744069942
 20
731.51457360726795
 11
971.2390879874954
 21
731.36955177793766
  0
LINE
  8
_0-2_線色２__白__
  6
CONTINUOUS
 62
    7
 10
971.51829178106595
 20
731.65199101311487
 11
971.37499744069942
 21
731.51457360726795
  0
LINE
  8
_0-2_線色２__白__
  6
CONTINUOUS
 62
    7
 10
971.66896682748302
 20
731.77991768642983
 11
971.51829178106595
 21
731.65199101311487
  0
LINE
  8
_0-2_線色２__白__
  6
CONTINUOUS
 62
    7
 10
971.82701839884203
 20
731.89646731816083
 11
971.66896682748302
 21
731.77991768642983
  0
LINE
  8
_0-2_線色２__白__
  6
CONTINUOUS
 62
    7
 10
971.99244231403213
 20
731.99975359926043
 11
971.82701839884203
 21
731.89646731816083
  0
LINE
  8
_0-2_線色２__白__
  6
CONTINUOUS
 62
    7
 10
972.09176454521184
 20
732.05283907118314
 11
971.99244231403213
 21
731.99975359926043
  0
LINE
  8
_0-2_線色２__白__
  6
CONTINUOUS
 62
    7
 10
972.20230237133251
 20
732.10444901184019
 11
972.09176454521184
 21
732.05283907118314
  0
LINE
  8
_0-2_線色２__白__
  6
CONTINUOUS
 62
    7
 10
972.39879634693239
 20
732.18034854557459
 11
972.20230237133251
 21
732.10444901184019
  0
LINE
  8
_0-2_線色２__白__
  6
CONTINUOUS
 62
    7
 10
972.6013495467862
 20
732.24275671247256
 11
972.39879634693239
 21
732.18034854557459
  0
LINE
  8
_0-2_線色２__白__
  6
CONTINUOUS
 62
    7
 10
972.80830649605491
 20
732.29524275417589
 11
972.6013495467862
 21
732.24275671247256
  0
LINE
  8
_0-2_線色２__白__
  6
CONTINUOUS
 62
    7
 10
973.01801171989268
 20
732.34137591232525
 11
972.80830649605491
 21
732.29524275417589
  0
LINE
  8
_0-2_線色２__白__
  6
CONTINUOUS
 62
    7
 10
973.22880974345594
 20
732.38472542856016
 11
973.01801171989268
 21
732.34137591232525
  0
LINE
  8
_0-2_線色２__白__
  6
CONTINUOUS
 62
    7
 10
973.35092097478423
 20
732.40999915005773
 11
973.22880974345594
 21
732.38472542856016
  0
LINE
  8
_0-2_線色２__白__
  6
CONTINUOUS
 62
    7
 10
973.45848320031905
 20
732.43298093694534
 11
973.35092097478423
 21
732.40999915005773
  0
LINE
  8
_0-2_線色２__白__
  6
CONTINUOUS
 62
    7
 10
973.64320273824774
 20
732.47342493452038
 11
973.45848320031905
 21
732.43298093694534
  0
LINE
  8
_0-2_線色２__白__
  6
CONTINUOUS
 62
    7
 10
973.82730833426763
 20
732.51348259922793
 11
973.64320273824774
 21
732.47342493452038
  0
LINE
  8
_0-2_線色２__白__
  6
CONTINUOUS
 62
    7
 10
974.01116437012547
 20
732.55149742525532
 11
973.82730833426763
 21
732.51348259922793
  0
LINE
  8
_0-2_線色２__白__
  6
CONTINUOUS
 62
    7
 10
974.19513522756688
 20
732.58581290679331
 11
974.01116437012547
 21
732.55149742525532
  0
LINE
  8
_0-2_線色２__白__
  6
CONTINUOUS
 62
    7
 10
974.37958528833633
 20
732.61477253803378
 11
974.19513522756688
 21
732.58581290679331
  0
LINE
  8
_0-2_線色２__白__
  6
CONTINUOUS
 62
    7
 10
974.48692947990253
 20
732.62846232412016
 11
974.37958528833633
 21
732.61477253803378
  0
LINE
  8
_0-2_線色２__白__
  6
CONTINUOUS
 62
    7
 10
974.63348095613924
 20
732.6428989328997
 11
974.48692947990253
 21
732.62846232412016
  0
LINE
  8
_0-2_線色２__白__
  6
CONTINUOUS
 62
    7
 10
974.88744614313077
 20
732.65696808090183
 11
974.63348095613924
 21
732.6428989328997
  0
LINE
  8
_0-2_線色２__白__
  6
CONTINUOUS
 62
    7
 10
975.14266393256435
 20
732.65859778814956
 11
974.88744614313077
 21
732.65696808090183
  0
LINE
  8
_0-2_線色２__白__
  6
CONTINUOUS
 62
    7
 10
975.39869176919524
 20
732.64925169696312
 11
975.14266393256435
 21
732.65859778814956
  0
LINE
  8
_0-2_線色２__白__
  6
CONTINUOUS
 62
    7
 10
975.65508709777646
 20
732.63039344966387
 11
975.39869176919524
 21
732.64925169696312
  0
LINE
  8
_0-2_線色２__白__
  6
CONTINUOUS
 62
    7
 10
975.91140736306102
 20
732.60348668857318
 11
975.65508709777646
 21
732.63039344966387
  0
LINE
  8
_0-2_線色２__白__
  6
CONTINUOUS
 62
    7
 10
976.05986433314456
 20
732.58476968930722
 11
975.91140736306102
 21
732.60348668857318
  0
LINE
  8
_0-2_線色２__白__
  6
CONTINUOUS
 62
    7
 10
976.18263318117442
 20
732.56771632327286
 11
976.05986433314456
 21
732.58476968930722
  0
LINE
  8
_0-2_線色２__白__
  6
CONTINUOUS
 62
    7
 10
976.3934762247311
 20
732.53436360763658
 11
976.18263318117442
 21
732.56771632327286
  0
LINE
  8
_0-2_線色２__白__
  6
CONTINUOUS
 62
    7
 10
976.60265561643996
 20
732.49473901252827
 11
976.3934762247311
 21
732.53436360763658
  0
LINE
  8
_0-2_線色２__白__
  6
CONTINUOUS
 62
    7
 10
976.80945469324797
 20
732.4473641387965
 11
976.60265561643996
 21
732.49473901252827
  0
LINE
  8
_0-2_線色２__白__
  6
CONTINUOUS
 62
    7
 10
977.01315679210552
 20
732.39076058729893
 11
976.80945469324797
 21
732.4473641387965
  0
LINE
  8
_0-2_線色２__白__
  6
CONTINUOUS
 62
    7
 10
977.21304524996071
 20
732.32344995888411
 11
977.01315679210552
 21
732.39076058729893
  0
LINE
  8
_0-2_線色２__白__
  6
CONTINUOUS
 62
    7
 10
977.32695074270055
 20
732.27892124562118
 11
977.21304524996071
 21
732.32344995888411
  0
LINE
  8
_0-2_線色２__白__
  6
CONTINUOUS
 62
    7
 10
977.42834700386879
 20
732.23503897470096
 11
977.32695074270055
 21
732.27892124562118
  0
LINE
  8
_0-2_線色２__白__
  6
CONTINUOUS
 62
    7
 10
977.59994510147294
 20
732.15153079418997
 11
977.42834700386879
 21
732.23503897470096
  0
LINE
  8
_0-2_線色２__白__
  6
CONTINUOUS
 62
    7
 10
977.76740274350345
 20
732.05891039890389
 11
977.59994510147294
 21
732.15153079418997
  0
LINE
  8
_0-2_線色２__白__
  6
CONTINUOUS
 62
    7
 10
977.93064940073009
 20
731.95813516747762
 11
977.76740274350345
 21
732.05891039890389
  0
LINE
  8
_0-2_線色２__白__
  6
CONTINUOUS
 62
    7
 10
978.08961454392033
 20
731.85016247854605
 11
977.93064940073009
 21
731.95813516747762
  0
LINE
  8
_0-2_線色２__白__
  6
CONTINUOUS
 62
    7
 10
978.24422764383939
 20
731.73594971074522
 11
978.08961454392033
 21
731.85016247854605
  0
LINE
  8
_0-2_線色２__白__
  6
CONTINUOUS
 62
    7
 10
978.33188134338229
 20
731.66722435824909
 11
978.24422764383939
 21
731.73594971074522
  0
LINE
  8
_0-2_線色２__白__
  6
CONTINUOUS
 62
    7
 10
978.42910878496923
 20
731.58767455096836
 11
978.33188134338229
 21
731.66722435824909
  0
LINE
  8
_0-2_線色２__白__
  6
CONTINUOUS
 62
    7
 10
978.59263362835122
 20
731.44621129814027
 11
978.42910878496923
 21
731.58767455096836
  0
LINE
  8
_0-2_線色２__白__
  6
CONTINUOUS
 62
    7
 10
978.75154758445774
 20
731.29998456774388
 11
978.59263362835122
 21
731.44621129814027
  0
LINE
  8
_0-2_線色２__白__
  6
CONTINUOUS
 62
    7
 10
978.9065366639602
 20
731.1497969288223
 11
978.75154758445774
 21
731.29998456774388
  0
LINE
  8
_0-2_線色２__白__
  6
CONTINUOUS
 62
    7
 10
979.05828687753115
 20
730.9964509504232
 11
978.9065366639602
 21
731.1497969288223
  0
LINE
  8
_0-2_線色２__白__
  6
CONTINUOUS
 62
    7
 10
979.20748423583859
 20
730.84074920158969
 11
979.05828687753115
 21
730.9964509504232
  0
LINE
  8
_0-2_線色２__白__
  6
CONTINUOUS
 62
    7
 10
979.29311930925223
 20
730.74967902719209
 11
979.20748423583859
 21
730.84074920158969
  0
LINE
  8
_0-2_線色２__白__
  6
CONTINUOUS
 62
    7
 10
979.37447520716546
 20
730.66225593418608
 11
979.29311930925223
 21
730.74967902719209
  0
LINE
  8
_0-2_線色２__白__
  6
CONTINUOUS
 62
    7
 10
979.51352430247312
 20
730.51051069092978
 11
979.37447520716546
 21
730.66225593418608
  0
LINE
  8
_0-2_線色２__白__
  6
CONTINUOUS
 62
    7
 10
979.65078819929658
 20
730.35713070384304
 11
979.51352430247312
 21
730.51051069092978
  0
LINE
  8
_0-2_線色２__白__
  6
CONTINUOUS
 62
    7
 10
979.78598633742536
 20
730.2017102103764
 11
979.65078819929658
 21
730.35713070384304
  0
LINE
  8
_0-2_線色２__白__
  6
CONTINUOUS
 62
    7
 10
979.91883815664551
 20
730.04384344798609
 11
979.78598633742536
 21
730.2017102103764
  0
LINE
  8
_0-2_線色２__白__
  6
CONTINUOUS
 62
    7
 10
980.04906309674993
 20
729.88312465412378
 11
979.91883815664551
 21
730.04384344798609
  0
LINE
  8
_0-2_線色２__白__
  6
CONTINUOUS
 62
    7
 10
980.12327937068562
 20
729.78844106132215
 11
980.04906309674993
 21
729.88312465412378
  0
LINE
  8
_0-2_線色２__白__
  6
CONTINUOUS
 62
    7
 10
980.18548695036429
 20
729.70707321411737
 11
980.12327937068562
 21
729.78844106132215
  0
LINE
  8
_0-2_線色２__白__
  6
CONTINUOUS
 62
    7
 10
980.2901862886813
 20
729.5646440333212
 11
980.18548695036429
 21
729.70707321411737
  0
LINE
  8
_0-2_線色２__白__
  6
CONTINUOUS
 62
    7
 10
980.39043538582405
 20
729.41928299154938
 11
980.2901862886813
 21
729.5646440333212
  0
LINE
  8
_0-2_線色２__白__
  6
CONTINUOUS
 62
    7
 10
980.48482037497365
 20
729.27073047574936
 11
980.39043538582405
 21
729.41928299154938
  0
LINE
  8
_0-2_線色２__白__
  6
CONTINUOUS
 62
    7
 10
980.57192738929984
 20
729.11872687286746
 11
980.48482037497365
 21
729.27073047574936
  0
LINE
  8
_0-2_線色２__白__
  6
CONTINUOUS
 62
    7
 10
980.65034256198146
 20
728.96301256985566
 11
980.57192738929984
 21
729.11872687286746
  0
LINE
  8
_0-2_線色２__白__
  6
CONTINUOUS
 62
    7
 10
980.69128362324477
 20
728.87089573026401
 11
980.65034256198146
 21
728.96301256985566
  0
LINE
  8
_0-2_線色２__白__
  6
CONTINUOUS
 62
    7
 10
980.73850732153801
 20
728.7509306272716
 11
980.69128362324477
 21
728.87089573026401
  0
LINE
  8
_0-2_線色２__白__
  6
CONTINUOUS
 62
    7
 10
980.80742246452587
 20
728.53937769545269
 11
980.73850732153801
 21
728.7509306272716
  0
LINE
  8
_0-2_線色２__白__
  6
CONTINUOUS
 62
    7
 10
980.86301086205708
 20
728.32279828679475
 11
980.80742246452587
 21
728.53937769545269
  0
LINE
  8
_0-2_線色２__白__
  6
CONTINUOUS
 62
    7
 10
980.90818228388002
 20
728.10228988532458
 11
980.86301086205708
 21
728.32279828679475
  0
LINE
  8
_0-2_線色２__白__
  6
CONTINUOUS
 62
    7
 10
980.94584649974763
 20
727.87894997506669
 11
980.90818228388002
 21
728.10228988532458
  0
LINE
  8
_0-2_線色２__白__
  6
CONTINUOUS
 62
    7
 10
980.97891327940829
 20
727.65387604004673
 11
980.94584649974763
 21
727.87894997506669
  0
LINE
  8
_0-2_線色２__白__
  6
CONTINUOUS
 62
    7
 10
980.99713206693082
 20
727.5229710933661
 11
980.97891327940829
 21
727.65387604004673
  0
LINE
  8
_0-4_線色４__黄__
  6
CONTINUOUS
 62
    2
 10
1102.4999999999989
 20
727.5229710933661
 11
1124.9999999999989
 21
727.5229710933661
  0
LINE
  8
_0-4_線色４__黄__
  6
CONTINUOUS
 62
    2
 10
1006.1602540378431
 20
732.5229710933661
 11
997.49999999999886
 21
727.5229710933661
  0
LINE
  8
_0-4_線色４__黄__
  6
CONTINUOUS
 62
    2
 10
1014.7659007100822
 20
732.5229710933661
 11
1006.1602540378431
 21
732.5229710933661
  0
LINE
  8
_0-4_線色４__黄__
  6
CONTINUOUS
 62
    2
 10
1022.8915266867841
 20
736.3120127136051
 11
1014.7659007100822
 21
732.5229710933661
  0
LINE
  8
_0-4_線色４__黄__
  6
CONTINUOUS
 62
    2
 10
1077.1084733132136
 20
736.3120127136051
 11
1022.8915266867841
 21
736.3120127136051
  0
LINE
  8
_0-4_線色４__黄__
  6
CONTINUOUS
 62
    2
 10
1077.1084733132136
 20
736.3120127136051
 11
1085.2340992899155
 21
732.5229710933661
  0
LINE
  8
_0-4_線色４__黄__
  6
CONTINUOUS
 62
    2
 10
1093.8397459621535
 20
732.5229710933661
 11
1085.2340992899155
 21
732.5229710933661
  0
LINE
  8
_0-4_線色４__黄__
  6
CONTINUOUS
 62
    2
 10
1093.8397459621535
 20
732.5229710933661
 11
1102.4999999999989
 21
727.5229710933661
  0
LINE
  8
_0-2_線色２__白__
  6
CONTINUOUS
 62
    7
 10
1019.9999999999989
 20
729.4467820809848
 11
1015.8743740232967
 21
727.5229710933661
  0
LINE
  8
_0-2_線色２__白__
  6
CONTINUOUS
 62
    7
 10
1007.4999999999989
 20
727.5229710933661
 11
998.83974596215353
 21
722.5229710933661
  0
LINE
  8
_0-2_線色２__白__
  6
CONTINUOUS
 62
    7
 10
1079.9999999999989
 20
729.4467820809848
 11
1084.1256259766999
 21
727.5229710933661
  0
LINE
  8
_0-2_線色２__白__
  6
CONTINUOUS
 62
    7
 10
1092.4999999999989
 20
727.5229710933661
 11
1101.1602540378431
 21
722.5229710933661
  0
LINE
  8
_0-2_線色２__白__
  6
CONTINUOUS
 62
    7
 10
1092.4999999999989
 20
722.5229710933661
 11
1092.4999999999989
 21
727.5229710933661
  0
LINE
  8
_0-2_線色２__白__
  6
CONTINUOUS
 62
    7
 10
1007.4999999999989
 20
727.5229710933661
 11
1007.4999999999989
 21
722.5229710933661
  0
LINE
  8
_0-2_線色２__白__
  6
CONTINUOUS
 62
    7
 10
1092.4999999999989
 20
727.5229710933661
 11
1007.4999999999989
 21
727.5229710933661
  0
LINE
  8
_0-4_線色４__黄__
  6
CONTINUOUS
 62
    2
 10
974.99999999999886
 20
727.5229710933661
 11
997.49999999999886
 21
727.5229710933661
  0
LINE
  8
_0-d_断熱__ハッチ
  6
CONTINUOUS
 62
    4
 10
1017.1913648564794
 20
677.5229710933661
 11
1052.1913648564782
 21
712.5229710933661
  0
ARC
  8
_0-1_線色１__水色__
  6
CONTINUOUS
 62
    4
 10
1052.6929953230308
 20
715.98130441686067
 40
1.2083333333333581
 50
307.52351320333912
 51
232.47648680464988
  0
ARC
  8
_0-1_線色１__水色__
  6
CONTINUOUS
 62
    4
 10
1051.2210351788246
 20
714.06463775005591
 40
1.2083333333333179
 50
127.52351320610693
 51
52.47648680188081
  0
ARC
  8
_0-1_線色１__水色__
  6
CONTINUOUS
 62
    4
 10
1049.7490750343479
 20
715.98130441665603
 40
1.2083333333333581
 50
307.52351320333912
 51
232.47648680464988
  0
ARC
  8
_0-1_線色１__水色__
  6
CONTINUOUS
 62
    4
 10
1048.2771148901418
 20
714.06463774985127
 40
1.2083333333333179
 50
127.52351320610693
 51
52.47648680188081
  0
ARC
  8
_0-1_線色１__水色__
  6
CONTINUOUS
 62
    4
 10
1046.805154745665
 20
715.98130441645139
 40
1.2083333333333581
 50
307.52351320333912
 51
232.47648680464988
  0
ARC
  8
_0-1_線色１__水色__
  6
CONTINUOUS
 62
    4
 10
1045.3331946014589
 20
714.0646377496455
 40
1.2083333333333179
 50
127.52351320610693
 51
52.47648680188081
  0
ARC
  8
_0-1_線色１__水色__
  6
CONTINUOUS
 62
    4
 10
1054.1649554675087
 20
714.0646377496455
 40
1.2083333333333179
 50
127.52351320610693
 51
52.47648680188081
  0
LINE
  8
_0-a_文字
  6
CONTINUOUS
 62
    7
 10
1153.6192947895574
 20
627.52322109510146
 11
1178.0519939784961
 21
585.20454473381392
  0
LINE
  8
_0-a_文字
  6
CONTINUOUS
 62
    7
 10
1178.0519939784961
 20
585.20454473381392
 11
1198.0519939784967
 21
585.20454473381392
  0
LINE
  8
_0-d_断熱__ハッチ
  6
CONTINUOUS
 62
    4
 10
1055.6763688235662
 20
712.5229710933661
 11
1090.6763688235662
 21
677.5229710933661
  0
LINE
  8
_0-d_断熱__ハッチ
  6
CONTINUOUS
 62
    4
 10
970.8235550811753
 20
712.5229710933661
 11
1005.8235550811753
 21
677.5229710933661
  0
TEXT
  8
_0-a_文字
 62
    7
 10
801.2745612189874
 20
759.99623267557922
 40
15.00000000000008
 41
0.9999999999999914
 50
0
  1
断熱材
  0
LINE
  8
_0-d_断熱__ハッチ
  6
CONTINUOUS
 62
    4
 10
1413.1711623209385
 20
677.52297109336496
 11
1448.1711623209408
 21
712.5229710933661
  0
LINE
  8
_0-d_断熱__ハッチ
  6
CONTINUOUS
 62
    4
 10
1384.8868910734832
 20
677.5229710933661
 11
1419.8868910734832
 21
712.5229710933661
  0
LINE
  8
_0-d_断熱__ハッチ
  6
CONTINUOUS
 62
    4
 10
1356.6026198260142
 20
677.52297109336496
 11
1391.6026198260165
 21
712.5229710933661
  0
LINE
  8
_0-d_断熱__ハッチ
  6
CONTINUOUS
 62
    4
 10
1271.7498060836347
 20
677.5229710933661
 11
1306.7498060836347
 21
712.5229710933661
  0
LINE
  8
_0-d_断熱__ハッチ
  6
CONTINUOUS
 62
    4
 10
1243.465534836168
 20
677.5229710933661
 11
1278.465534836168
 21
712.5229710933661
  0
LINE
  8
_0-d_断熱__ハッチ
  6
CONTINUOUS
 62
    4
 10
1215.1812635887104
 20
677.5229710933661
 11
1250.1812635887104
 21
712.5229710933661
  0
LINE
  8
_0-d_断熱__ハッチ
  6
CONTINUOUS
 62
    4
 10
1158.6127210937855
 20
677.52297109336723
 11
1193.6127210937855
 21
712.5229710933661
  0
LINE
  8
_0-d_断熱__ハッチ
  6
CONTINUOUS
 62
    4
 10
1130.3284498463188
 20
677.5229710933661
 11
1165.3284498463188
 21
712.5229710933661
  0
LINE
  8
_0-d_断熱__ハッチ
  6
CONTINUOUS
 62
    4
 10
1102.0441785988612
 20
677.52297109336723
 11
1137.0441785988612
 21
712.5229710933661
  0
LINE
  8
_0-d_断熱__ハッチ
  6
CONTINUOUS
 62
    4
 10
988.90709360901269
 20
677.52297109336496
 11
1023.9070936090127
 21
712.5229710933661
  0
LINE
  8
_0-d_断熱__ハッチ
  6
CONTINUOUS
 62
    4
 10
960.62282236155511
 20
677.5229710933661
 11
995.62282236155511
 21
712.5229710933661
  0
LINE
  8
_0-d_断熱__ハッチ
  6
CONTINUOUS
 62
    4
 10
932.33855111408639
 20
677.52297109336382
 11
967.33855111408843
 21
712.5229710933661
  0
LINE
  8
_0-d_断熱__ハッチ
  6
CONTINUOUS
 62
    4
 10
904.05427986663108
 20
677.5229710933661
 11
939.05427986663085
 21
712.5229710933661
  0
LINE
  8
_0-d_断熱__ハッチ
  6
CONTINUOUS
 62
    4
 10
875.77000861916213
 20
677.52297109336382
 11
910.7700086191644
 21
712.5229710933661
  0
LINE
  8
_0-d_断熱__ハッチ
  6
CONTINUOUS
 62
    4
 10
847.48573737170682
 20
677.5229710933661
 11
882.48573737170682
 21
712.5229710933661
  0
LINE
  8
_0-d_断熱__ハッチ
  6
CONTINUOUS
 62
    4
 10
819.20146612423787
 20
677.52297109336382
 11
854.20146612424014
 21
712.5229710933661
  0
LINE
  8
_0-d_断熱__ハッチ
  6
CONTINUOUS
 62
    4
 10
790.91719487678256
 20
677.5229710933661
 11
825.91719487678256
 21
712.5229710933661
  0
LINE
  8
_0-d_断熱__ハッチ
  6
CONTINUOUS
 62
    4
 10
762.63292362931338
 20
677.52297109336382
 11
797.63292362931588
 21
712.5229710933661
  0
LINE
  8
_0-d_断熱__ハッチ
  6
CONTINUOUS
 62
    4
 10
734.34865238185807
 20
677.52297109336723
 11
769.34865238185807
 21
712.5229710933661
  0
LINE
  8
_0-d_断熱__ハッチ
  6
CONTINUOUS
 62
    4
 10
706.06438113438912
 20
677.52297109336382
 11
741.0643811343914
 21
712.5229710933661
  0
LINE
  8
_0-d_断熱__ハッチ
  6
CONTINUOUS
 62
    4
 10
677.78010988693381
 20
677.52297109336723
 11
712.78010988693381
 21
712.5229710933661
  0
LINE
  8
_0-d_断熱__ハッチ
  6
CONTINUOUS
 62
    4
 10
649.49583863946486
 20
677.52297109336496
 11
684.49583863946714
 21
712.5229710933661
  0
LINE
  8
_0-d_断熱__ハッチ
  6
CONTINUOUS
 62
    4
 10
659.69657135909642
 20
712.5229710933661
 11
694.69657135909642
 21
677.52297109336723
  0
LINE
  8
_0-d_断熱__ハッチ
  6
CONTINUOUS
 62
    4
 10
687.9808426065631
 20
712.5229710933661
 11
722.98084260656537
 21
677.52297109336496
  0
LINE
  8
_0-d_断熱__ハッチ
  6
CONTINUOUS
 62
    4
 10
716.26511385402068
 20
712.5229710933661
 11
751.26511385402068
 21
677.52297109336723
  0
LINE
  8
_0-d_断熱__ハッチ
  6
CONTINUOUS
 62
    4
 10
744.54938510148736
 20
712.5229710933661
 11
779.54938510148963
 21
677.52297109336496
  0
LINE
  8
_0-d_断熱__ハッチ
  6
CONTINUOUS
 62
    4
 10
772.83365634894494
 20
712.5229710933661
 11
807.83365634894517
 21
677.5229710933661
  0
LINE
  8
_0-d_断熱__ハッチ
  6
CONTINUOUS
 62
    4
 10
801.11792759641185
 20
712.5229710933661
 11
836.11792759641185
 21
677.5229710933661
  0
LINE
  8
_0-d_断熱__ハッチ
  6
CONTINUOUS
 62
    4
 10
829.40219884386943
 20
712.5229710933661
 11
864.40219884386943
 21
677.5229710933661
  0
LINE
  8
_0-d_断熱__ハッチ
  6
CONTINUOUS
 62
    4
 10
857.6864700913361
 20
712.5229710933661
 11
892.6864700913361
 21
677.5229710933661
  0
LINE
  8
_0-d_断熱__ハッチ
  6
CONTINUOUS
 62
    4
 10
885.97074133879369
 20
712.5229710933661
 11
920.97074133879369
 21
677.5229710933661
  0
LINE
  8
_0-d_断熱__ハッチ
  6
CONTINUOUS
 62
    4
 10
914.25501258625127
 20
712.5229710933661
 11
949.25501258625104
 21
677.5229710933661
  0
LINE
  8
_0-d_断熱__ハッチ
  6
CONTINUOUS
 62
    4
 10
942.53928383371772
 20
712.5229710933661
 11
977.53928383371999
 21
677.52297109336382
  0
LINE
  8
_0-d_断熱__ハッチ
  6
CONTINUOUS
 62
    4
 10
1083.9606400710238
 20
712.5229710933661
 11
1118.9606400710238
 21
677.5229710933661
  0
LINE
  8
_0-d_断熱__ハッチ
  6
CONTINUOUS
 62
    4
 10
1112.2449113184905
 20
712.5229710933661
 11
1147.2449113184928
 21
677.52297109336496
  0
LINE
  8
_0-d_断熱__ハッチ
  6
CONTINUOUS
 62
    4
 10
1140.5291825659481
 20
712.5229710933661
 11
1175.5291825659481
 21
677.5229710933661
  0
LINE
  8
_0-d_断熱__ハッチ
  6
CONTINUOUS
 62
    4
 10
1225.3819963083397
 20
712.5229710933661
 11
1260.3819963083397
 21
677.5229710933661
  0
LINE
  8
_0-d_断熱__ハッチ
  6
CONTINUOUS
 62
    4
 10
1253.6662675557973
 20
712.5229710933661
 11
1288.6662675557973
 21
677.5229710933661
  0
LINE
  8
_0-d_断熱__ハッチ
  6
CONTINUOUS
 62
    4
 10
1281.950538803264
 20
712.5229710933661
 11
1316.950538803264
 21
677.5229710933661
  0
LINE
  8
_0-d_断熱__ハッチ
  6
CONTINUOUS
 62
    4
 10
1310.2348100507215
 20
712.5229710933661
 11
1345.2348100507215
 21
677.5229710933661
  0
LINE
  8
_0-d_断熱__ハッチ
  6
CONTINUOUS
 62
    4
 10
1395.0876237931125
 20
712.5229710933661
 11
1430.0876237931125
 21
677.5229710933661
  0
LINE
  8
_0-d_断熱__ハッチ
  6
CONTINUOUS
 62
    4
 10
1423.3718950405701
 20
712.5229710933661
 11
1458.3718950405701
 21
677.52297109336723
  0
LINE
  8
_0-d_断熱__ハッチ
  6
CONTINUOUS
 62
    4
 10
1451.6561662880276
 20
712.5229710933661
 11
1458.517600335651
 21
705.6615370457439
  0
LINE
  8
_0-d_断熱__ハッチ
  6
CONTINUOUS
 62
    4
 10
641.48239966434744
 20
697.79380336570398
 11
656.21156739200956
 21
712.5229710933661
  0
TEXT
  8
_0-a_文字
 62
    7
 10
801.2745612189874
 20
809.99623267557922
 40
15.000000000000124
 41
0.9999999999999912
 50
0
  1
塩ビシート 機械的固定工法
  0
TEXT
  8
_0-a_文字
 62
    7
 10
801.2745612189874
 20
784.99623267557922
 40
15.000000000000036
 41
0.9999999999999973
 50
0
  1
ラジアルシートＬ６００
  0
LINE
  8
_0-a_文字
  6
CONTINUOUS
 62
    7
 10
747.40704775950576
 20
767.49623267557922
 11
796.2745612189874
 21
767.49623267557922
  0
LINE
  8
_0-a_文字
  6
CONTINUOUS
 62
    7
 10
761.84080448924647
 20
792.49623267557922
 11
796.2745612189874
 21
792.49623267557922
  0
LINE
  8
_0-a_文字
  6
CONTINUOUS
 62
    7
 10
776.27456121898717
 20
817.49623267557922
 11
796.2745612189874
 21
817.49623267557922
  0
ARC
  8
_0-1_線色１__水色__
  6
CONTINUOUS
 62
    4
 10
1085.0761184985038
 20
715.98130441853868
 40
1.2083333333333581
 50
307.52351320333912
 51
232.47648680464988
  0
ARC
  8
_0-1_線色１__水色__
  6
CONTINUOUS
 62
    4
 10
1086.5480786429805
 20
714.06463775193856
 40
1.2083333333333179
 50
127.52351320610693
 51
52.47648680188081
  0
ARC
  8
_0-1_線色１__水色__
  6
CONTINUOUS
 62
    4
 10
1082.1321982098209
 20
715.98130441833291
 40
1.2083333333333581
 50
307.52351320333912
 51
232.47648680464988
  0
ARC
  8
_0-1_線色１__水色__
  6
CONTINUOUS
 62
    4
 10
1083.6041583542954
 20
714.06463775173393
 40
1.2083333333333179
 50
127.52351320610693
 51
52.47648680188081
  0
ARC
  8
_0-1_線色１__水色__
  6
CONTINUOUS
 62
    4
 10
1079.188277921138
 20
715.98130441812827
 40
1.2083333333333581
 50
307.52351320333912
 51
232.47648680464988
  0
ARC
  8
_0-1_線色１__水色__
  6
CONTINUOUS
 62
    4
 10
1080.6602380656125
 20
714.06463775152815
 40
1.2083333333333179
 50
127.52351320610693
 51
52.47648680188081
  0
ARC
  8
_0-1_線色１__水色__
  6
CONTINUOUS
 62
    4
 10
1076.2443576324551
 20
715.9813044179225
 40
1.2083333333333581
 50
307.52351320333912
 51
232.47648680464988
  0
ARC
  8
_0-1_線色１__水色__
  6
CONTINUOUS
 62
    4
 10
1077.7163177769296
 20
714.06463775132352
 40
1.2083333333333179
 50
127.52351320610693
 51
52.47648680188081
  0
ARC
  8
_0-1_線色１__水色__
  6
CONTINUOUS
 62
    4
 10
1073.30043734377
 20
715.98130441771787
 40
1.2083333333333581
 50
307.52351320333912
 51
232.47648680464988
  0
ARC
  8
_0-1_線色１__水色__
  6
CONTINUOUS
 62
    4
 10
1074.7723974882467
 20
714.06463775111774
 40
1.2083333333333179
 50
127.52351320610693
 51
52.47648680188081
  0
ARC
  8
_0-1_線色１__水色__
  6
CONTINUOUS
 62
    4
 10
1070.3565170550871
 20
715.98130441751209
 40
1.2083333333333581
 50
307.52351320333912
 51
232.47648680464988
  0
ARC
  8
_0-1_線色１__水色__
  6
CONTINUOUS
 62
    4
 10
1071.8284771995616
 20
714.06463775091311
 40
1.2083333333333179
 50
127.52351320610693
 51
52.47648680188081
  0
ARC
  8
_0-1_線色１__水色__
  6
CONTINUOUS
 62
    4
 10
1067.4125967664042
 20
715.98130441730746
 40
1.2083333333333581
 50
307.52351320333912
 51
232.47648680464988
  0
ARC
  8
_0-1_線色１__水色__
  6
CONTINUOUS
 62
    4
 10
1065.9406366221958
 20
714.0646377505027
 40
1.2083333333333179
 50
127.52351320610693
 51
52.47648680188081
  0
ARC
  8
_0-1_線色１__水色__
  6
CONTINUOUS
 62
    4
 10
1068.8845569108787
 20
714.06463775070733
 40
1.2083333333333179
 50
127.52351320610693
 51
52.47648680188081
  0
ARC
  8
_0-1_線色１__水色__
  6
CONTINUOUS
 62
    4
 10
1089.4919989316634
 20
714.06463775152815
 40
1.2083333333333179
 50
127.52351320610693
 51
52.47648680188081
  0
ARC
  8
_0-1_線色１__水色__
  6
CONTINUOUS
 62
    4
 10
1088.0200387871866
 20
715.98130441812827
 40
1.2083333333333581
 50
307.52351320333912
 51
232.47648680464988
  0
ARC
  8
_0-1_線色１__水色__
  6
CONTINUOUS
 62
    4
 10
1064.4686764777214
 20
715.98130441710168
 40
1.2083333333333581
 50
307.52351320333912
 51
232.47648680464988
  0
ARC
  8
_0-1_線色１__水色__
  6
CONTINUOUS
 62
    4
 10
1111.5714010966542
 20
715.98130441976991
 40
1.2083333333333581
 50
307.52351320333912
 51
232.47648680464988
  0
ARC
  8
_0-1_線色１__水色__
  6
CONTINUOUS
 62
    4
 10
1113.0433612411287
 20
714.06463775316979
 40
1.2083333333333179
 50
127.52351320610693
 51
52.47648680188081
  0
ARC
  8
_0-1_線色１__水色__
  6
CONTINUOUS
 62
    4
 10
1108.6274808079713
 20
715.98130441956414
 40
1.2083333333333581
 50
307.52351320333912
 51
232.47648680464988
  0
ARC
  8
_0-1_線色１__水色__
  6
CONTINUOUS
 62
    4
 10
1110.0994409524458
 20
714.06463775296402
 40
1.2083333333333179
 50
127.52351320610693
 51
52.47648680188081
  0
ARC
  8
_0-1_線色１__水色__
  6
CONTINUOUS
 62
    4
 10
1105.6835605192884
 20
715.9813044193595
 40
1.2083333333333581
 50
307.52351320333912
 51
232.47648680464988
  0
ARC
  8
_0-1_線色１__水色__
  6
CONTINUOUS
 62
    4
 10
1107.1555206637629
 20
714.06463775275938
 40
1.2083333333333179
 50
127.52351320610693
 51
52.47648680188081
  0
ARC
  8
_0-1_線色１__水色__
  6
CONTINUOUS
 62
    4
 10
1102.7396402306033
 20
715.98130441915373
 40
1.2083333333333581
 50
307.52351320333912
 51
232.47648680464988
  0
ARC
  8
_0-1_線色１__水色__
  6
CONTINUOUS
 62
    4
 10
1104.21160037508
 20
714.06463775255361
 40
1.2083333333333179
 50
127.52351320610693
 51
52.47648680188081
  0
ARC
  8
_0-1_線色１__水色__
  6
CONTINUOUS
 62
    4
 10
1099.7957199419204
 20
715.98130441894909
 40
1.2083333333333581
 50
307.52351320333912
 51
232.47648680464988
  0
ARC
  8
_0-1_線色１__水色__
  6
CONTINUOUS
 62
    4
 10
1101.2676800863949
 20
714.06463775234897
 40
1.2083333333333179
 50
127.52351320610693
 51
52.47648680188081
  0
ARC
  8
_0-1_線色１__水色__
  6
CONTINUOUS
 62
    4
 10
1096.8517996532375
 20
715.98130441874332
 40
1.2083333333333581
 50
307.52351320333912
 51
232.47648680464988
  0
ARC
  8
_0-1_線色１__水色__
  6
CONTINUOUS
 62
    4
 10
1098.323759797712
 20
714.06463775214434
 40
1.2083333333333179
 50
127.52351320610693
 51
52.47648680188081
  0
ARC
  8
_0-1_線色１__水色__
  6
CONTINUOUS
 62
    4
 10
1093.9078793645547
 20
715.98130441853868
 40
1.2083333333333581
 50
307.52351320333912
 51
232.47648680464988
  0
ARC
  8
_0-1_線色１__水色__
  6
CONTINUOUS
 62
    4
 10
1092.4359192203462
 20
714.06463775173393
 40
1.2083333333333179
 50
127.52351320610693
 51
52.47648680188081
  0
ARC
  8
_0-1_線色１__水色__
  6
CONTINUOUS
 62
    4
 10
1095.3798395090291
 20
714.06463775193856
 40
1.2083333333333179
 50
127.52351320610693
 51
52.47648680188081
  0
ARC
  8
_0-1_線色１__水色__
  6
CONTINUOUS
 62
    4
 10
1114.5153213853371
 20
715.9813044193595
 40
1.2083333333333581
 50
307.52351320333912
 51
232.47648680464988
  0
ARC
  8
_0-1_線色１__水色__
  6
CONTINUOUS
 62
    4
 10
1090.9639590758695
 20
715.98130441833291
 40
1.2083333333333581
 50
307.52351320333912
 51
232.47648680464988
  0
ARC
  8
_0-1_線色１__水色__
  6
CONTINUOUS
 62
    4
 10
1061.524756189059
 20
715.98130441687886
 40
1.2083333333333581
 50
307.52351320333912
 51
232.47648680464988
  0
ARC
  8
_0-1_線色１__水色__
  6
CONTINUOUS
 62
    4
 10
1058.5808359003761
 20
715.98130441667422
 40
1.2083333333333581
 50
307.52351320333912
 51
232.47648680464988
  0
ARC
  8
_0-1_線色１__水色__
  6
CONTINUOUS
 62
    4
 10
1060.0527960448528
 20
714.0646377500741
 40
1.2083333333333179
 50
127.52351320610693
 51
52.47648680188081
  0
ARC
  8
_0-1_線色１__水色__
  6
CONTINUOUS
 62
    4
 10
1055.6369156116932
 20
715.98130441646845
 40
1.2083333333333581
 50
307.52351320333912
 51
232.47648680464988
  0
ARC
  8
_0-1_線色１__水色__
  6
CONTINUOUS
 62
    4
 10
1057.1088757561677
 20
714.06463774986946
 40
1.2083333333333179
 50
127.52351320610693
 51
52.47648680188081
  0
ARC
  8
_0-1_線色１__水色__
  6
CONTINUOUS
 62
    4
 10
1062.9967163335357
 20
714.06463775027873
 40
1.2083333333333179
 50
127.52351320610693
 51
52.47648680188081
  0
ARC
  8
_0-1_線色１__水色__
  6
CONTINUOUS
 62
    4
 10
1017.365951858834
 20
715.98130441501439
 40
1.2083333333333581
 50
307.52351320333912
 51
232.47648680464988
  0
ARC
  8
_0-1_線色１__水色__
  6
CONTINUOUS
 62
    4
 10
1018.8379120033085
 20
714.06463774841427
 40
1.2083333333333179
 50
127.52351320610693
 51
52.47648680188081
  0
ARC
  8
_0-1_線色１__水色__
  6
CONTINUOUS
 62
    4
 10
1014.4220315701489
 20
715.98130441480976
 40
1.2083333333333581
 50
307.52351320333912
 51
232.47648680464988
  0
ARC
  8
_0-1_線色１__水色__
  6
CONTINUOUS
 62
    4
 10
1015.8939917146256
 20
714.06463774820963
 40
1.2083333333333179
 50
127.52351320610693
 51
52.47648680188081
  0
ARC
  8
_0-1_線色１__水色__
  6
CONTINUOUS
 62
    4
 10
1011.478111281466
 20
715.98130441460398
 40
1.2083333333333581
 50
307.52351320333912
 51
232.47648680464988
  0
ARC
  8
_0-1_線色１__水色__
  6
CONTINUOUS
 62
    4
 10
1012.9500714259427
 20
714.064637748005
 40
1.2083333333333179
 50
127.52351320610693
 51
52.47648680188081
  0
ARC
  8
_0-1_線色１__水色__
  6
CONTINUOUS
 62
    4
 10
1008.5341909927831
 20
715.98130441439821
 40
1.2083333333333581
 50
307.52351320333912
 51
232.47648680464988
  0
ARC
  8
_0-1_線色１__水色__
  6
CONTINUOUS
 62
    4
 10
1010.0061511372576
 20
714.06463774779922
 40
1.2083333333333179
 50
127.52351320610693
 51
52.47648680188081
  0
ARC
  8
_0-1_線色１__水色__
  6
CONTINUOUS
 62
    4
 10
1005.5902707041002
 20
715.98130441419357
 40
1.2083333333333581
 50
307.52351320333912
 51
232.47648680464988
  0
ARC
  8
_0-1_線色１__水色__
  6
CONTINUOUS
 62
    4
 10
1007.0622308485747
 20
714.06463774759345
 40
1.2083333333333179
 50
127.52351320610693
 51
52.47648680188081
  0
ARC
  8
_0-1_線色１__水色__
  6
CONTINUOUS
 62
    4
 10
1002.6463504154174
 20
715.98130441398894
 40
1.2083333333333581
 50
307.52351320333912
 51
232.47648680464988
  0
ARC
  8
_0-1_線色１__水色__
  6
CONTINUOUS
 62
    4
 10
1004.1183105598918
 20
714.06463774738882
 40
1.2083333333333179
 50
127.52351320610693
 51
52.47648680188081
  0
ARC
  8
_0-1_線色１__水色__
  6
CONTINUOUS
 62
    4
 10
999.70243012673222
 20
715.98130441378316
 40
1.2083333333333581
 50
307.52351320333912
 51
232.47648680464988
  0
ARC
  8
_0-1_線色１__水色__
  6
CONTINUOUS
 62
    4
 10
998.23046998252607
 20
714.06463774697841
 40
1.2083333333333179
 50
127.52351320610693
 51
52.47648680188081
  0
ARC
  8
_0-1_線色１__水色__
  6
CONTINUOUS
 62
    4
 10
1001.1743902712089
 20
714.06463774718418
 40
1.2083333333333179
 50
127.52351320610693
 51
52.47648680188081
  0
ARC
  8
_0-1_線色１__水色__
  6
CONTINUOUS
 62
    4
 10
1021.7818322919913
 20
714.064637748005
 40
1.2083333333333179
 50
127.52351320610693
 51
52.47648680188081
  0
ARC
  8
_0-1_線色１__水色__
  6
CONTINUOUS
 62
    4
 10
1020.3098721475169
 20
715.98130441460398
 40
1.2083333333333581
 50
307.52351320333912
 51
232.47648680464988
  0
ARC
  8
_0-1_線色１__水色__
  6
CONTINUOUS
 62
    4
 10
996.75850983804935
 20
715.98130441357739
 40
1.2083333333333581
 50
307.52351320333912
 51
232.47648680464988
  0
ARC
  8
_0-1_線色１__水色__
  6
CONTINUOUS
 62
    4
 10
1043.8612344569822
 20
715.98130441624562
 40
1.2083333333333581
 50
307.52351320333912
 51
232.47648680464988
  0
ARC
  8
_0-1_線色１__水色__
  6
CONTINUOUS
 62
    4
 10
1040.9173141682993
 20
715.98130441603985
 40
1.2083333333333581
 50
307.52351320333912
 51
232.47648680464988
  0
ARC
  8
_0-1_線色１__水色__
  6
CONTINUOUS
 62
    4
 10
1042.389274312776
 20
714.06463774943973
 40
1.2083333333333179
 50
127.52351320610693
 51
52.47648680188081
  0
ARC
  8
_0-1_線色１__水色__
  6
CONTINUOUS
 62
    4
 10
1037.9733938796164
 20
715.98130441583521
 40
1.2083333333333581
 50
307.52351320333912
 51
232.47648680464988
  0
ARC
  8
_0-1_線色１__水色__
  6
CONTINUOUS
 62
    4
 10
1039.4453540240909
 20
714.06463774923509
 40
1.2083333333333179
 50
127.52351320610693
 51
52.47648680188081
  0
ARC
  8
_0-1_線色１__水色__
  6
CONTINUOUS
 62
    4
 10
1035.0294735909335
 20
715.98130441563058
 40
1.2083333333333581
 50
307.52351320333912
 51
232.47648680464988
  0
ARC
  8
_0-1_線色１__水色__
  6
CONTINUOUS
 62
    4
 10
1036.501433735408
 20
714.06463774903045
 40
1.2083333333333179
 50
127.52351320610693
 51
52.47648680188081
  0
ARC
  8
_0-1_線色１__水色__
  6
CONTINUOUS
 62
    4
 10
1032.0855533022507
 20
715.9813044154248
 40
1.2083333333333581
 50
307.52351320333912
 51
232.47648680464988
  0
ARC
  8
_0-1_線色１__水色__
  6
CONTINUOUS
 62
    4
 10
1033.5575134467251
 20
714.06463774882582
 40
1.2083333333333179
 50
127.52351320610693
 51
52.47648680188081
  0
ARC
  8
_0-1_線色１__水色__
  6
CONTINUOUS
 62
    4
 10
1029.1416330135655
 20
715.98130441521903
 40
1.2083333333333581
 50
307.52351320333912
 51
232.47648680464988
  0
ARC
  8
_0-1_線色１__水色__
  6
CONTINUOUS
 62
    4
 10
1030.6135931580422
 20
714.06463774862004
 40
1.2083333333333179
 50
127.52351320610693
 51
52.47648680188081
  0
ARC
  8
_0-1_線色１__水色__
  6
CONTINUOUS
 62
    4
 10
1026.1977127248826
 20
715.98130441501439
 40
1.2083333333333581
 50
307.52351320333912
 51
232.47648680464988
  0
ARC
  8
_0-1_線色１__水色__
  6
CONTINUOUS
 62
    4
 10
1024.7257525806742
 20
714.06463774820963
 40
1.2083333333333179
 50
127.52351320610693
 51
52.47648680188081
  0
ARC
  8
_0-1_線色１__水色__
  6
CONTINUOUS
 62
    4
 10
1027.6696728693594
 20
714.06463774841427
 40
1.2083333333333179
 50
127.52351320610693
 51
52.47648680188081
  0
ARC
  8
_0-1_線色１__水色__
  6
CONTINUOUS
 62
    4
 10
1023.2537924361998
 20
715.98130441480976
 40
1.2083333333333581
 50
307.52351320333912
 51
232.47648680464988
  0
ARC
  8
_0-1_線色１__水色__
  6
CONTINUOUS
 62
    4
 10
983.51086853913216
 20
714.06463774593476
 40
1.2083333333333179
 50
127.52351320610693
 51
52.47648680188081
  0
ARC
  8
_0-1_線色１__水色__
  6
CONTINUOUS
 62
    4
 10
982.03890839465544
 20
715.98130441253375
 40
1.2083333333333581
 50
307.52351320333912
 51
232.47648680464988
  0
ARC
  8
_0-1_線色１__水色__
  6
CONTINUOUS
 62
    4
 10
993.81458954938921
 20
715.98130441335456
 40
1.2083333333333581
 50
307.52351320333912
 51
232.47648680464988
  0
ARC
  8
_0-1_線色１__水色__
  6
CONTINUOUS
 62
    4
 10
990.87066926070634
 20
715.98130441314993
 40
1.2083333333333581
 50
307.52351320333912
 51
232.47648680464988
  0
ARC
  8
_0-1_線色１__水色__
  6
CONTINUOUS
 62
    4
 10
992.34262940518079
 20
714.06463774654981
 40
1.2083333333333179
 50
127.52351320610693
 51
52.47648680188081
  0
ARC
  8
_0-1_線色１__水色__
  6
CONTINUOUS
 62
    4
 10
987.92674897202346
 20
715.98130441294529
 40
1.2083333333333581
 50
307.52351320333912
 51
232.47648680464988
  0
ARC
  8
_0-1_線色１__水色__
  6
CONTINUOUS
 62
    4
 10
986.45478882781504
 20
714.06463774614053
 40
1.2083333333333179
 50
127.52351320610693
 51
52.47648680188081
  0
ARC
  8
_0-1_線色１__水色__
  6
CONTINUOUS
 62
    4
 10
989.39870911649791
 20
714.06463774634517
 40
1.2083333333333179
 50
127.52351320610693
 51
52.47648680188081
  0
ARC
  8
_0-1_線色１__水色__
  6
CONTINUOUS
 62
    4
 10
984.98282868333831
 20
715.98130441273952
 40
1.2083333333333581
 50
307.52351320333912
 51
232.47648680464988
  0
ARC
  8
_0-1_線色１__水色__
  6
CONTINUOUS
 62
    4
 10
995.28654969386366
 20
714.06463774675558
 40
1.2083333333333179
 50
127.52351320610693
 51
52.47648680188081
  0
ARC
  8
_0-1_線色１__水色__
  6
CONTINUOUS
 62
    4
 10
949.655785219162
 20
715.9813044114901
 40
1.2083333333333581
 50
307.52351320333912
 51
232.47648680464988
  0
ARC
  8
_0-1_線色１__水色__
  6
CONTINUOUS
 62
    4
 10
951.12774536363872
 20
714.06463774489112
 40
1.2083333333333179
 50
127.52351320610693
 51
52.47648680188081
  0
ARC
  8
_0-1_線色１__水色__
  6
CONTINUOUS
 62
    4
 10
946.71186493047912
 20
715.98130441128546
 40
1.2083333333333581
 50
307.52351320333912
 51
232.47648680464988
  0
ARC
  8
_0-1_線色１__水色__
  6
CONTINUOUS
 62
    4
 10
948.18382507495585
 20
714.06463774468534
 40
1.2083333333333179
 50
127.52351320610693
 51
52.47648680188081
  0
ARC
  8
_0-1_線色１__水色__
  6
CONTINUOUS
 62
    4
 10
943.76794464179625
 20
715.98130441108083
 40
1.2083333333333581
 50
307.52351320333912
 51
232.47648680464988
  0
ARC
  8
_0-1_線色１__水色__
  6
CONTINUOUS
 62
    4
 10
945.2399047862707
 20
714.06463774448071
 40
1.2083333333333179
 50
127.52351320610693
 51
52.47648680188081
  0
ARC
  8
_0-1_線色１__水色__
  6
CONTINUOUS
 62
    4
 10
940.82402435311337
 20
715.98130441087505
 40
1.2083333333333581
 50
307.52351320333912
 51
232.47648680464988
  0
ARC
  8
_0-1_線色１__水色__
  6
CONTINUOUS
 62
    4
 10
942.29598449758782
 20
714.06463774427607
 40
1.2083333333333179
 50
127.52351320610693
 51
52.47648680188081
  0
ARC
  8
_0-1_線色１__水色__
  6
CONTINUOUS
 62
    4
 10
937.88010406443072
 20
715.98130441066928
 40
1.2083333333333581
 50
307.52351320333912
 51
232.47648680464988
  0
ARC
  8
_0-1_線色１__水色__
  6
CONTINUOUS
 62
    4
 10
939.35206420890495
 20
714.0646377440703
 40
1.2083333333333179
 50
127.52351320610693
 51
52.47648680188081
  0
ARC
  8
_0-1_線色１__水色__
  6
CONTINUOUS
 62
    4
 10
934.93618377574558
 20
715.98130441046465
 40
1.2083333333333581
 50
307.52351320333912
 51
232.47648680464988
  0
ARC
  8
_0-1_線色１__水色__
  6
CONTINUOUS
 62
    4
 10
936.4081439202223
 20
714.06463774386452
 40
1.2083333333333179
 50
127.52351320610693
 51
52.47648680188081
  0
ARC
  8
_0-1_線色１__水色__
  6
CONTINUOUS
 62
    4
 10
931.9922634870627
 20
715.98130441026001
 40
1.2083333333333581
 50
307.52351320333912
 51
232.47648680464988
  0
ARC
  8
_0-1_線色１__水色__
  6
CONTINUOUS
 62
    4
 10
930.52030334285428
 20
714.06463774345525
 40
1.2083333333333179
 50
127.52351320610693
 51
52.47648680188081
  0
ARC
  8
_0-1_線色１__水色__
  6
CONTINUOUS
 62
    4
 10
933.46422363153943
 20
714.06463774365989
 40
1.2083333333333179
 50
127.52351320610693
 51
52.47648680188081
  0
ARC
  8
_0-1_線色１__水色__
  6
CONTINUOUS
 62
    4
 10
954.0716656523216
 20
714.06463774448071
 40
1.2083333333333179
 50
127.52351320610693
 51
52.47648680188081
  0
ARC
  8
_0-1_線色１__水色__
  6
CONTINUOUS
 62
    4
 10
952.59970550784715
 20
715.98130441108083
 40
1.2083333333333581
 50
307.52351320333912
 51
232.47648680464988
  0
ARC
  8
_0-1_線色１__水色__
  6
CONTINUOUS
 62
    4
 10
929.04834319837983
 20
715.98130441005424
 40
1.2083333333333581
 50
307.52351320333912
 51
232.47648680464988
  0
ARC
  8
_0-1_線色１__水色__
  6
CONTINUOUS
 62
    4
 10
976.15106781731242
 20
715.98130441272247
 40
1.2083333333333581
 50
307.52351320333912
 51
232.47648680464988
  0
ARC
  8
_0-1_線色１__水色__
  6
CONTINUOUS
 62
    4
 10
977.62302796178915
 20
714.06463774612234
 40
1.2083333333333179
 50
127.52351320610693
 51
52.47648680188081
  0
ARC
  8
_0-1_線色１__水色__
  6
CONTINUOUS
 62
    4
 10
973.20714752862955
 20
715.98130441251669
 40
1.2083333333333581
 50
307.52351320333912
 51
232.47648680464988
  0
ARC
  8
_0-1_線色１__水色__
  6
CONTINUOUS
 62
    4
 10
974.679107673104
 20
714.06463774591657
 40
1.2083333333333179
 50
127.52351320610693
 51
52.47648680188081
  0
ARC
  8
_0-1_線色１__水色__
  6
CONTINUOUS
 62
    4
 10
970.26322723994667
 20
715.98130441231092
 40
1.2083333333333581
 50
307.52351320333912
 51
232.47648680464988
  0
ARC
  8
_0-1_線色１__水色__
  6
CONTINUOUS
 62
    4
 10
971.73518738442112
 20
714.0646377457108
 40
1.2083333333333179
 50
127.52351320610693
 51
52.47648680188081
  0
ARC
  8
_0-1_線色１__水色__
  6
CONTINUOUS
 62
    4
 10
967.3193069512638
 20
715.98130441210628
 40
1.2083333333333581
 50
307.52351320333912
 51
232.47648680464988
  0
ARC
  8
_0-1_線色１__水色__
  6
CONTINUOUS
 62
    4
 10
968.79126709573825
 20
714.06463774550616
 40
1.2083333333333179
 50
127.52351320610693
 51
52.47648680188081
  0
ARC
  8
_0-1_線色１__水色__
  6
CONTINUOUS
 62
    4
 10
964.37538666257865
 20
715.98130441190165
 40
1.2083333333333581
 50
307.52351320333912
 51
232.47648680464988
  0
ARC
  8
_0-1_線色１__水色__
  6
CONTINUOUS
 62
    4
 10
965.84734680705537
 20
714.06463774530152
 40
1.2083333333333179
 50
127.52351320610693
 51
52.47648680188081
  0
ARC
  8
_0-1_線色１__水色__
  6
CONTINUOUS
 62
    4
 10
961.43146637389577
 20
715.98130441169587
 40
1.2083333333333581
 50
307.52351320333912
 51
232.47648680464988
  0
ARC
  8
_0-1_線色１__水色__
  6
CONTINUOUS
 62
    4
 10
962.90342651837022
 20
714.06463774509689
 40
1.2083333333333179
 50
127.52351320610693
 51
52.47648680188081
  0
ARC
  8
_0-1_線色１__水色__
  6
CONTINUOUS
 62
    4
 10
958.4875460852129
 20
715.9813044114901
 40
1.2083333333333581
 50
307.52351320333912
 51
232.47648680464988
  0
ARC
  8
_0-1_線色１__水色__
  6
CONTINUOUS
 62
    4
 10
957.01558594100447
 20
714.06463774468534
 40
1.2083333333333179
 50
127.52351320610693
 51
52.47648680188081
  0
ARC
  8
_0-1_線色１__水色__
  6
CONTINUOUS
 62
    4
 10
959.95950622968735
 20
714.06463774489112
 40
1.2083333333333179
 50
127.52351320610693
 51
52.47648680188081
  0
ARC
  8
_0-1_線色１__水色__
  6
CONTINUOUS
 62
    4
 10
980.56694825047202
 20
714.0646377457108
 40
1.2083333333333179
 50
127.52351320610693
 51
52.47648680188081
  0
ARC
  8
_0-1_線色１__水色__
  6
CONTINUOUS
 62
    4
 10
979.0949881059953
 20
715.98130441231092
 40
1.2083333333333581
 50
307.52351320333912
 51
232.47648680464988
  0
ARC
  8
_0-1_線色１__水色__
  6
CONTINUOUS
 62
    4
 10
955.54362579653002
 20
715.98130441128546
 40
1.2083333333333581
 50
307.52351320333912
 51
232.47648680464988
  0
ARC
  8
_0-1_線色１__水色__
  6
CONTINUOUS
 62
    4
 10
915.80070189946036
 20
714.06463774241047
 40
1.2083333333333179
 50
127.52351320610693
 51
52.47648680188081
  0
ARC
  8
_0-1_線色１__水色__
  6
CONTINUOUS
 62
    4
 10
914.32874175498591
 20
715.98130440901059
 40
1.2083333333333581
 50
307.52351320333912
 51
232.47648680464988
  0
ARC
  8
_0-1_線色１__水色__
  6
CONTINUOUS
 62
    4
 10
926.10442290971969
 20
715.98130440983141
 40
1.2083333333333581
 50
307.52351320333912
 51
232.47648680464988
  0
ARC
  8
_0-1_線色１__水色__
  6
CONTINUOUS
 62
    4
 10
923.16050262103454
 20
715.98130440962564
 40
1.2083333333333581
 50
307.52351320333912
 51
232.47648680464988
  0
ARC
  8
_0-1_線色１__水色__
  6
CONTINUOUS
 62
    4
 10
924.63246276551126
 20
714.06463774302665
 40
1.2083333333333179
 50
127.52351320610693
 51
52.47648680188081
  0
ARC
  8
_0-1_線色１__水色__
  6
CONTINUOUS
 62
    4
 10
920.21658233235166
 20
715.981304409421
 40
1.2083333333333581
 50
307.52351320333912
 51
232.47648680464988
  0
ARC
  8
_0-1_線色１__水色__
  6
CONTINUOUS
 62
    4
 10
918.74462218814324
 20
714.06463774261624
 40
1.2083333333333179
 50
127.52351320610693
 51
52.47648680188081
  0
ARC
  8
_0-1_線色１__水色__
  6
CONTINUOUS
 62
    4
 10
921.68854247682839
 20
714.06463774282088
 40
1.2083333333333179
 50
127.52351320610693
 51
52.47648680188081
  0
ARC
  8
_0-1_線色１__水色__
  6
CONTINUOUS
 62
    4
 10
917.27266204366879
 20
715.98130440921523
 40
1.2083333333333581
 50
307.52351320333912
 51
232.47648680464988
  0
ARC
  8
_0-1_線色１__水色__
  6
CONTINUOUS
 62
    4
 10
927.57638305419414
 20
714.06463774323129
 40
1.2083333333333179
 50
127.52351320610693
 51
52.47648680188081
  0
ARC
  8
_0-1_線色１__水色__
  6
CONTINUOUS
 62
    4
 10
881.94561857949247
 20
715.98130440796695
 40
1.2083333333333581
 50
307.52351320333912
 51
232.47648680464988
  0
ARC
  8
_0-1_線色１__水色__
  6
CONTINUOUS
 62
    4
 10
883.41757872396693
 20
714.06463774136796
 40
1.2083333333333179
 50
127.52351320610693
 51
52.47648680188081
  0
ARC
  8
_0-1_線色１__水色__
  6
CONTINUOUS
 62
    4
 10
879.0016982908096
 20
715.98130440776117
 40
1.2083333333333581
 50
307.52351320333912
 51
232.47648680464988
  0
ARC
  8
_0-1_線色１__水色__
  6
CONTINUOUS
 62
    4
 10
880.47365843528405
 20
714.06463774116219
 40
1.2083333333333179
 50
127.52351320610693
 51
52.47648680188081
  0
ARC
  8
_0-1_線色１__水色__
  6
CONTINUOUS
 62
    4
 10
876.05777800212672
 20
715.98130440755654
 40
1.2083333333333581
 50
307.52351320333912
 51
232.47648680464988
  0
ARC
  8
_0-1_線色１__水色__
  6
CONTINUOUS
 62
    4
 10
877.52973814660118
 20
714.06463774095641
 40
1.2083333333333179
 50
127.52351320610693
 51
52.47648680188081
  0
ARC
  8
_0-1_線色１__水色__
  6
CONTINUOUS
 62
    4
 10
873.11385771344158
 20
715.9813044073519
 40
1.2083333333333581
 50
307.52351320333912
 51
232.47648680464988
  0
ARC
  8
_0-1_線色１__水色__
  6
CONTINUOUS
 62
    4
 10
874.5858178579183
 20
714.06463774075178
 40
1.2083333333333179
 50
127.52351320610693
 51
52.47648680188081
  0
ARC
  8
_0-1_線色１__水色__
  6
CONTINUOUS
 62
    4
 10
870.1699374247587
 20
715.98130440714613
 40
1.2083333333333581
 50
307.52351320333912
 51
232.47648680464988
  0
ARC
  8
_0-1_線色１__水色__
  6
CONTINUOUS
 62
    4
 10
871.64189756923315
 20
714.06463774054714
 40
1.2083333333333179
 50
127.52351320610693
 51
52.47648680188081
  0
ARC
  8
_0-1_線色１__水色__
  6
CONTINUOUS
 62
    4
 10
867.22601713607582
 20
715.98130440694035
 40
1.2083333333333581
 50
307.52351320333912
 51
232.47648680464988
  0
ARC
  8
_0-1_線色１__水色__
  6
CONTINUOUS
 62
    4
 10
868.69797728055028
 20
714.06463774034137
 40
1.2083333333333179
 50
127.52351320610693
 51
52.47648680188081
  0
ARC
  8
_0-1_線色１__水色__
  6
CONTINUOUS
 62
    4
 10
864.28209684739295
 20
715.98130440673572
 40
1.2083333333333581
 50
307.52351320333912
 51
232.47648680464988
  0
ARC
  8
_0-1_線色１__水色__
  6
CONTINUOUS
 62
    4
 10
862.81013670318453
 20
714.06463773993096
 40
1.2083333333333179
 50
127.52351320610693
 51
52.47648680188081
  0
ARC
  8
_0-1_線色１__水色__
  6
CONTINUOUS
 62
    4
 10
865.7540569918674
 20
714.06463774013559
 40
1.2083333333333179
 50
127.52351320610693
 51
52.47648680188081
  0
ARC
  8
_0-1_線色１__水色__
  6
CONTINUOUS
 62
    4
 10
886.3614990126498
 20
714.06463774095641
 40
1.2083333333333179
 50
127.52351320610693
 51
52.47648680188081
  0
ARC
  8
_0-1_線色１__水色__
  6
CONTINUOUS
 62
    4
 10
884.88953886817535
 20
715.98130440755654
 40
1.2083333333333581
 50
307.52351320333912
 51
232.47648680464988
  0
ARC
  8
_0-1_線色１__水色__
  6
CONTINUOUS
 62
    4
 10
861.3381765587078
 20
715.98130440653108
 40
1.2083333333333581
 50
307.52351320333912
 51
232.47648680464988
  0
ARC
  8
_0-1_線色１__水色__
  6
CONTINUOUS
 62
    4
 10
908.4409011776429
 20
715.98130440919817
 40
1.2083333333333581
 50
307.52351320333912
 51
232.47648680464988
  0
ARC
  8
_0-1_線色１__水色__
  6
CONTINUOUS
 62
    4
 10
909.91286132211735
 20
714.06463774259805
 40
1.2083333333333179
 50
127.52351320610693
 51
52.47648680188081
  0
ARC
  8
_0-1_線色１__水色__
  6
CONTINUOUS
 62
    4
 10
905.49698088896002
 20
715.98130440899354
 40
1.2083333333333581
 50
307.52351320333912
 51
232.47648680464988
  0
ARC
  8
_0-1_線色１__水色__
  6
CONTINUOUS
 62
    4
 10
906.96894103343448
 20
714.06463774239342
 40
1.2083333333333179
 50
127.52351320610693
 51
52.47648680188081
  0
ARC
  8
_0-1_線色１__水色__
  6
CONTINUOUS
 62
    4
 10
902.55306060027488
 20
715.98130440878776
 40
1.2083333333333581
 50
307.52351320333912
 51
232.47648680464988
  0
ARC
  8
_0-1_線色１__水色__
  6
CONTINUOUS
 62
    4
 10
904.0250207447516
 20
714.06463774218764
 40
1.2083333333333179
 50
127.52351320610693
 51
52.47648680188081
  0
ARC
  8
_0-1_線色１__水色__
  6
CONTINUOUS
 62
    4
 10
899.609140311592
 20
715.98130440858199
 40
1.2083333333333581
 50
307.52351320333912
 51
232.47648680464988
  0
ARC
  8
_0-1_線色１__水色__
  6
CONTINUOUS
 62
    4
 10
901.08110045606873
 20
714.06463774198187
 40
1.2083333333333179
 50
127.52351320610693
 51
52.47648680188081
  0
ARC
  8
_0-1_線色１__水色__
  6
CONTINUOUS
 62
    4
 10
896.66522002290912
 20
715.98130440837735
 40
1.2083333333333581
 50
307.52351320333912
 51
232.47648680464988
  0
ARC
  8
_0-1_線色１__水色__
  6
CONTINUOUS
 62
    4
 10
898.13718016738358
 20
714.06463774177723
 40
1.2083333333333179
 50
127.52351320610693
 51
52.47648680188081
  0
ARC
  8
_0-1_線色１__水色__
  6
CONTINUOUS
 62
    4
 10
893.72129973422625
 20
715.98130440817272
 40
1.2083333333333581
 50
307.52351320333912
 51
232.47648680464988
  0
ARC
  8
_0-1_線色１__水色__
  6
CONTINUOUS
 62
    4
 10
895.1932598787007
 20
714.0646377415726
 40
1.2083333333333179
 50
127.52351320610693
 51
52.47648680188081
  0
ARC
  8
_0-1_線色１__水色__
  6
CONTINUOUS
 62
    4
 10
890.77737944554337
 20
715.98130440796695
 40
1.2083333333333581
 50
307.52351320333912
 51
232.47648680464988
  0
ARC
  8
_0-1_線色１__水色__
  6
CONTINUOUS
 62
    4
 10
889.30541930133495
 20
714.06463774116219
 40
1.2083333333333179
 50
127.52351320610693
 51
52.47648680188081
  0
ARC
  8
_0-1_線色１__水色__
  6
CONTINUOUS
 62
    4
 10
892.24933959001783
 20
714.06463774136796
 40
1.2083333333333179
 50
127.52351320610693
 51
52.47648680188081
  0
ARC
  8
_0-1_線色１__水色__
  6
CONTINUOUS
 62
    4
 10
912.85678161080023
 20
714.06463774218764
 40
1.2083333333333179
 50
127.52351320610693
 51
52.47648680188081
  0
ARC
  8
_0-1_線色１__水色__
  6
CONTINUOUS
 62
    4
 10
911.38482146632577
 20
715.98130440878776
 40
1.2083333333333581
 50
307.52351320333912
 51
232.47648680464988
  0
ARC
  8
_0-1_線色１__水色__
  6
CONTINUOUS
 62
    4
 10
887.83345915685823
 20
715.98130440776117
 40
1.2083333333333581
 50
307.52351320333912
 51
232.47648680464988
  0
ARC
  8
_0-1_線色１__水色__
  6
CONTINUOUS
 62
    4
 10
848.09053525979061
 20
714.06463773888731
 40
1.2083333333333179
 50
127.52351320610693
 51
52.47648680188081
  0
ARC
  8
_0-1_線色１__水色__
  6
CONTINUOUS
 62
    4
 10
846.61857511531616
 20
715.9813044054863
 40
1.2083333333333581
 50
307.52351320333912
 51
232.47648680464988
  0
ARC
  8
_0-1_線色１__水色__
  6
CONTINUOUS
 62
    4
 10
858.39425627004766
 20
715.98130440630712
 40
1.2083333333333581
 50
307.52351320333912
 51
232.47648680464988
  0
ARC
  8
_0-1_線色１__水色__
  6
CONTINUOUS
 62
    4
 10
855.45033598136479
 20
715.98130440610248
 40
1.2083333333333581
 50
307.52351320333912
 51
232.47648680464988
  0
ARC
  8
_0-1_線色１__水色__
  6
CONTINUOUS
 62
    4
 10
856.92229612584151
 20
714.06463773950236
 40
1.2083333333333179
 50
127.52351320610693
 51
52.47648680188081
  0
ARC
  8
_0-1_線色１__水色__
  6
CONTINUOUS
 62
    4
 10
852.50641569268191
 20
715.98130440589671
 40
1.2083333333333581
 50
307.52351320333912
 51
232.47648680464988
  0
ARC
  8
_0-1_線色１__水色__
  6
CONTINUOUS
 62
    4
 10
851.03445554847349
 20
714.06463773909195
 40
1.2083333333333179
 50
127.52351320610693
 51
52.47648680188081
  0
ARC
  8
_0-1_線色１__水色__
  6
CONTINUOUS
 62
    4
 10
853.97837583715636
 20
714.06463773929772
 40
1.2083333333333179
 50
127.52351320610693
 51
52.47648680188081
  0
ARC
  8
_0-1_線色１__水色__
  6
CONTINUOUS
 62
    4
 10
849.56249540399904
 20
715.98130440569207
 40
1.2083333333333581
 50
307.52351320333912
 51
232.47648680464988
  0
ARC
  8
_0-1_線色１__水色__
  6
CONTINUOUS
 62
    4
 10
859.86621641452439
 20
714.06463773970813
 40
1.2083333333333179
 50
127.52351320610693
 51
52.47648680188081
  0
ARC
  8
_0-1_線色１__水色__
  6
CONTINUOUS
 62
    4
 10
814.23545193982272
 20
715.98130440444379
 40
1.2083333333333581
 50
307.52351320333912
 51
232.47648680464988
  0
ARC
  8
_0-1_線色１__水色__
  6
CONTINUOUS
 62
    4
 10
815.70741208429718
 20
714.06463773784367
 40
1.2083333333333179
 50
127.52351320610693
 51
52.47648680188081
  0
ARC
  8
_0-1_線色１__水色__
  6
CONTINUOUS
 62
    4
 10
811.29153165113757
 20
715.98130440423802
 40
1.2083333333333581
 50
307.52351320333912
 51
232.47648680464988
  0
ARC
  8
_0-1_線色１__水色__
  6
CONTINUOUS
 62
    4
 10
812.7634917956143
 20
714.06463773763903
 40
1.2083333333333179
 50
127.52351320610693
 51
52.47648680188081
  0
ARC
  8
_0-1_線色１__水色__
  6
CONTINUOUS
 62
    4
 10
808.3476113624547
 20
715.98130440403224
 40
1.2083333333333581
 50
307.52351320333912
 51
232.47648680464988
  0
ARC
  8
_0-1_線色１__水色__
  6
CONTINUOUS
 62
    4
 10
809.81957150693142
 20
714.06463773743326
 40
1.2083333333333179
 50
127.52351320610693
 51
52.47648680188081
  0
ARC
  8
_0-1_線色１__水色__
  6
CONTINUOUS
 62
    4
 10
805.40369107377182
 20
715.98130440382761
 40
1.2083333333333581
 50
307.52351320333912
 51
232.47648680464988
  0
ARC
  8
_0-1_線色１__水色__
  6
CONTINUOUS
 62
    4
 10
806.87565121824628
 20
714.06463773722749
 40
1.2083333333333179
 50
127.52351320610693
 51
52.47648680188081
  0
ARC
  8
_0-1_線色１__水色__
  6
CONTINUOUS
 62
    4
 10
802.45977078508895
 20
715.98130440362297
 40
1.2083333333333581
 50
307.52351320333912
 51
232.47648680464988
  0
ARC
  8
_0-1_線色１__水色__
  6
CONTINUOUS
 62
    4
 10
803.9317309295634
 20
714.06463773702285
 40
1.2083333333333179
 50
127.52351320610693
 51
52.47648680188081
  0
ARC
  8
_0-1_線色１__水色__
  6
CONTINUOUS
 62
    4
 10
799.51585049640607
 20
715.9813044034172
 40
1.2083333333333581
 50
307.52351320333912
 51
232.47648680464988
  0
ARC
  8
_0-1_線色１__水色__
  6
CONTINUOUS
 62
    4
 10
800.98781064088053
 20
714.06463773681821
 40
1.2083333333333179
 50
127.52351320610693
 51
52.47648680188081
  0
ARC
  8
_0-1_線色１__水色__
  6
CONTINUOUS
 62
    4
 10
796.57193020772092
 20
715.98130440321142
 40
1.2083333333333581
 50
307.52351320333912
 51
232.47648680464988
  0
ARC
  8
_0-1_線色１__水色__
  6
CONTINUOUS
 62
    4
 10
795.09997006351477
 20
714.06463773640667
 40
1.2083333333333179
 50
127.52351320610693
 51
52.47648680188081
  0
ARC
  8
_0-1_線色１__水色__
  6
CONTINUOUS
 62
    4
 10
798.04389035219765
 20
714.06463773661244
 40
1.2083333333333179
 50
127.52351320610693
 51
52.47648680188081
  0
ARC
  8
_0-1_線色１__水色__
  6
CONTINUOUS
 62
    4
 10
818.65133237298005
 20
714.06463773743326
 40
1.2083333333333179
 50
127.52351320610693
 51
52.47648680188081
  0
ARC
  8
_0-1_線色１__水色__
  6
CONTINUOUS
 62
    4
 10
817.1793722285056
 20
715.98130440403224
 40
1.2083333333333581
 50
307.52351320333912
 51
232.47648680464988
  0
ARC
  8
_0-1_線色１__水色__
  6
CONTINUOUS
 62
    4
 10
793.62800991903805
 20
715.98130440300679
 40
1.2083333333333581
 50
307.52351320333912
 51
232.47648680464988
  0
ARC
  8
_0-1_線色１__水色__
  6
CONTINUOUS
 62
    4
 10
840.73073453797087
 20
715.98130440567388
 40
1.2083333333333581
 50
307.52351320333912
 51
232.47648680464988
  0
ARC
  8
_0-1_線色１__水色__
  6
CONTINUOUS
 62
    4
 10
842.2026946824476
 20
714.06463773907376
 40
1.2083333333333179
 50
127.52351320610693
 51
52.47648680188081
  0
ARC
  8
_0-1_線色１__水色__
  6
CONTINUOUS
 62
    4
 10
837.786814249288
 20
715.98130440546925
 40
1.2083333333333581
 50
307.52351320333912
 51
232.47648680464988
  0
ARC
  8
_0-1_線色１__水色__
  6
CONTINUOUS
 62
    4
 10
839.25877439376472
 20
714.06463773886912
 40
1.2083333333333179
 50
127.52351320610693
 51
52.47648680188081
  0
ARC
  8
_0-1_線色１__水色__
  6
CONTINUOUS
 62
    4
 10
834.84289396060512
 20
715.98130440526461
 40
1.2083333333333581
 50
307.52351320333912
 51
232.47648680464988
  0
ARC
  8
_0-1_線色１__水色__
  6
CONTINUOUS
 62
    4
 10
836.31485410507958
 20
714.06463773866449
 40
1.2083333333333179
 50
127.52351320610693
 51
52.47648680188081
  0
ARC
  8
_0-1_線色１__水色__
  6
CONTINUOUS
 62
    4
 10
831.89897367192225
 20
715.98130440505884
 40
1.2083333333333581
 50
307.52351320333912
 51
232.47648680464988
  0
ARC
  8
_0-1_線色１__水色__
  6
CONTINUOUS
 62
    4
 10
833.3709338163967
 20
714.06463773845871
 40
1.2083333333333179
 50
127.52351320610693
 51
52.47648680188081
  0
ARC
  8
_0-1_線色１__水色__
  6
CONTINUOUS
 62
    4
 10
828.95505338323937
 20
715.98130440485306
 40
1.2083333333333581
 50
307.52351320333912
 51
232.47648680464988
  0
ARC
  8
_0-1_線色１__水色__
  6
CONTINUOUS
 62
    4
 10
830.42701352771383
 20
714.06463773825408
 40
1.2083333333333179
 50
127.52351320610693
 51
52.47648680188081
  0
ARC
  8
_0-1_線色１__水色__
  6
CONTINUOUS
 62
    4
 10
826.01113309455422
 20
715.98130440464843
 40
1.2083333333333581
 50
307.52351320333912
 51
232.47648680464988
  0
ARC
  8
_0-1_線色１__水色__
  6
CONTINUOUS
 62
    4
 10
827.48309323903095
 20
714.0646377380483
 40
1.2083333333333179
 50
127.52351320610693
 51
52.47648680188081
  0
ARC
  8
_0-1_線色１__水色__
  6
CONTINUOUS
 62
    4
 10
823.06721280587135
 20
715.98130440444379
 40
1.2083333333333581
 50
307.52351320333912
 51
232.47648680464988
  0
ARC
  8
_0-1_線色１__水色__
  6
CONTINUOUS
 62
    4
 10
821.59525266166293
 20
714.06463773763903
 40
1.2083333333333179
 50
127.52351320610693
 51
52.47648680188081
  0
ARC
  8
_0-1_線色１__水色__
  6
CONTINUOUS
 62
    4
 10
824.53917295034807
 20
714.06463773784367
 40
1.2083333333333179
 50
127.52351320610693
 51
52.47648680188081
  0
ARC
  8
_0-1_線色１__水色__
  6
CONTINUOUS
 62
    4
 10
845.14661497113048
 20
714.06463773866449
 40
1.2083333333333179
 50
127.52351320610693
 51
52.47648680188081
  0
ARC
  8
_0-1_線色１__水色__
  6
CONTINUOUS
 62
    4
 10
843.67465482665602
 20
715.98130440526461
 40
1.2083333333333581
 50
307.52351320333912
 51
232.47648680464988
  0
ARC
  8
_0-1_線色１__水色__
  6
CONTINUOUS
 62
    4
 10
820.12329251718847
 20
715.98130440423802
 40
1.2083333333333581
 50
307.52351320333912
 51
232.47648680464988
  0
ARC
  8
_0-1_線色１__水色__
  6
CONTINUOUS
 62
    4
 10
780.38036862011836
 20
714.06463773536302
 40
1.2083333333333179
 50
127.52351320610693
 51
52.47648680188081
  0
ARC
  8
_0-1_線色１__水色__
  6
CONTINUOUS
 62
    4
 10
778.90840847564391
 20
715.98130440196314
 40
1.2083333333333581
 50
307.52351320333912
 51
232.47648680464988
  0
ARC
  8
_0-1_線色１__水色__
  6
CONTINUOUS
 62
    4
 10
790.68408963037791
 20
715.98130440278396
 40
1.2083333333333581
 50
307.52351320333912
 51
232.47648680464988
  0
ARC
  8
_0-1_線色１__水色__
  6
CONTINUOUS
 62
    4
 10
787.74016934169504
 20
715.98130440257819
 40
1.2083333333333581
 50
307.52351320333912
 51
232.47648680464988
  0
ARC
  8
_0-1_線色１__水色__
  6
CONTINUOUS
 62
    4
 10
789.21212948616949
 20
714.0646377359792
 40
1.2083333333333179
 50
127.52351320610693
 51
52.47648680188081
  0
ARC
  8
_0-1_線色１__水色__
  6
CONTINUOUS
 62
    4
 10
784.79624905301193
 20
715.98130440237355
 40
1.2083333333333581
 50
307.52351320333912
 51
232.47648680464988
  0
ARC
  8
_0-1_線色１__水色__
  6
CONTINUOUS
 62
    4
 10
783.32428890880351
 20
714.06463773556879
 40
1.2083333333333179
 50
127.52351320610693
 51
52.47648680188081
  0
ARC
  8
_0-1_線色１__水色__
  6
CONTINUOUS
 62
    4
 10
786.26820919748661
 20
714.06463773577343
 40
1.2083333333333179
 50
127.52351320610693
 51
52.47648680188081
  0
ARC
  8
_0-1_線色１__水色__
  6
CONTINUOUS
 62
    4
 10
781.85232876432678
 20
715.98130440216778
 40
1.2083333333333581
 50
307.52351320333912
 51
232.47648680464988
  0
ARC
  8
_0-1_線色１__水色__
  6
CONTINUOUS
 62
    4
 10
792.15604977485236
 20
714.06463773618384
 40
1.2083333333333179
 50
127.52351320610693
 51
52.47648680188081
  0
ARC
  8
_0-1_線色１__水色__
  6
CONTINUOUS
 62
    4
 10
746.52528530015047
 20
715.9813044009195
 40
1.2083333333333581
 50
307.52351320333912
 51
232.47648680464988
  0
ARC
  8
_0-1_線色１__水色__
  6
CONTINUOUS
 62
    4
 10
747.9972454446272
 20
714.06463773431938
 40
1.2083333333333179
 50
127.52351320610693
 51
52.47648680188081
  0
ARC
  8
_0-1_線色１__水色__
  6
CONTINUOUS
 62
    4
 10
743.5813650114676
 20
715.98130440071373
 40
1.2083333333333581
 50
307.52351320333912
 51
232.47648680464988
  0
ARC
  8
_0-1_線色１__水色__
  6
CONTINUOUS
 62
    4
 10
745.05332515594205
 20
714.06463773411474
 40
1.2083333333333179
 50
127.52351320610693
 51
52.47648680188081
  0
ARC
  8
_0-1_線色１__水色__
  6
CONTINUOUS
 62
    4
 10
740.63744472278472
 20
715.98130440050909
 40
1.2083333333333581
 50
307.52351320333912
 51
232.47648680464988
  0
ARC
  8
_0-1_線色１__水色__
  6
CONTINUOUS
 62
    4
 10
742.10940486725917
 20
714.06463773390897
 40
1.2083333333333179
 50
127.52351320610693
 51
52.47648680188081
  0
ARC
  8
_0-1_線色１__水色__
  6
CONTINUOUS
 62
    4
 10
737.69352443410185
 20
715.98130440030332
 40
1.2083333333333581
 50
307.52351320333912
 51
232.47648680464988
  0
ARC
  8
_0-1_線色１__水色__
  6
CONTINUOUS
 62
    4
 10
739.1654845785763
 20
714.06463773370433
 40
1.2083333333333179
 50
127.52351320610693
 51
52.47648680188081
  0
ARC
  8
_0-1_線色１__水色__
  6
CONTINUOUS
 62
    4
 10
734.7496041454167
 20
715.98130440009868
 40
1.2083333333333581
 50
307.52351320333912
 51
232.47648680464988
  0
ARC
  8
_0-1_線色１__水色__
  6
CONTINUOUS
 62
    4
 10
736.22156428989342
 20
714.06463773349856
 40
1.2083333333333179
 50
127.52351320610693
 51
52.47648680188081
  0
ARC
  8
_0-1_線色１__水色__
  6
CONTINUOUS
 62
    4
 10
731.80568385673382
 20
715.98130439989291
 40
1.2083333333333581
 50
307.52351320333912
 51
232.47648680464988
  0
ARC
  8
_0-1_線色１__水色__
  6
CONTINUOUS
 62
    4
 10
733.27764400120827
 20
714.06463773329392
 40
1.2083333333333179
 50
127.52351320610693
 51
52.47648680188081
  0
ARC
  8
_0-1_線色１__水色__
  6
CONTINUOUS
 62
    4
 10
728.86176356805095
 20
715.98130439968827
 40
1.2083333333333581
 50
307.52351320333912
 51
232.47648680464988
  0
ARC
  8
_0-1_線色１__水色__
  6
CONTINUOUS
 62
    4
 10
727.38980342384252
 20
714.06463773288351
 40
1.2083333333333179
 50
127.52351320610693
 51
52.47648680188081
  0
ARC
  8
_0-1_線色１__水色__
  6
CONTINUOUS
 62
    4
 10
730.3337237125254
 20
714.06463773308815
 40
1.2083333333333179
 50
127.52351320610693
 51
52.47648680188081
  0
ARC
  8
_0-1_線色１__水色__
  6
CONTINUOUS
 62
    4
 10
750.94116573331007
 20
714.06463773390897
 40
1.2083333333333179
 50
127.52351320610693
 51
52.47648680188081
  0
ARC
  8
_0-1_線色１__水色__
  6
CONTINUOUS
 62
    4
 10
749.46920558883335
 20
715.98130440050909
 40
1.2083333333333581
 50
307.52351320333912
 51
232.47648680464988
  0
ARC
  8
_0-1_線色１__水色__
  6
CONTINUOUS
 62
    4
 10
725.91784327936807
 20
715.9813043994825
 40
1.2083333333333581
 50
307.52351320333912
 51
232.47648680464988
  0
ARC
  8
_0-1_線色１__水色__
  6
CONTINUOUS
 62
    4
 10
773.0205678983009
 20
715.98130440215073
 40
1.2083333333333581
 50
307.52351320333912
 51
232.47648680464988
  0
ARC
  8
_0-1_線色１__水色__
  6
CONTINUOUS
 62
    4
 10
774.49252804277535
 20
714.0646377355506
 40
1.2083333333333179
 50
127.52351320610693
 51
52.47648680188081
  0
ARC
  8
_0-1_線色１__水色__
  6
CONTINUOUS
 62
    4
 10
770.07664760961802
 20
715.98130440194495
 40
1.2083333333333581
 50
307.52351320333912
 51
232.47648680464988
  0
ARC
  8
_0-1_線色１__水色__
  6
CONTINUOUS
 62
    4
 10
771.54860775409247
 20
714.06463773534483
 40
1.2083333333333179
 50
127.52351320610693
 51
52.47648680188081
  0
ARC
  8
_0-1_線色１__水色__
  6
CONTINUOUS
 62
    4
 10
767.13272732093515
 20
715.98130440174032
 40
1.2083333333333581
 50
307.52351320333912
 51
232.47648680464988
  0
ARC
  8
_0-1_線色１__水色__
  6
CONTINUOUS
 62
    4
 10
768.6046874654096
 20
714.0646377351402
 40
1.2083333333333179
 50
127.52351320610693
 51
52.47648680188081
  0
ARC
  8
_0-1_線色１__水色__
  6
CONTINUOUS
 62
    4
 10
764.18880703225
 20
715.98130440153454
 40
1.2083333333333581
 50
307.52351320333912
 51
232.47648680464988
  0
ARC
  8
_0-1_線色１__水色__
  6
CONTINUOUS
 62
    4
 10
765.66076717672672
 20
714.06463773493442
 40
1.2083333333333179
 50
127.52351320610693
 51
52.47648680188081
  0
ARC
  8
_0-1_線色１__水色__
  6
CONTINUOUS
 62
    4
 10
761.24488674356712
 20
715.98130440132991
 40
1.2083333333333581
 50
307.52351320333912
 51
232.47648680464988
  0
ARC
  8
_0-1_線色１__水色__
  6
CONTINUOUS
 62
    4
 10
762.71684688804385
 20
714.06463773472979
 40
1.2083333333333179
 50
127.52351320610693
 51
52.47648680188081
  0
ARC
  8
_0-1_線色１__水色__
  6
CONTINUOUS
 62
    4
 10
758.30096645488425
 20
715.98130440112413
 40
1.2083333333333581
 50
307.52351320333912
 51
232.47648680464988
  0
ARC
  8
_0-1_線色１__水色__
  6
CONTINUOUS
 62
    4
 10
759.7729265993587
 20
714.06463773452515
 40
1.2083333333333179
 50
127.52351320610693
 51
52.47648680188081
  0
ARC
  8
_0-1_線色１__水色__
  6
CONTINUOUS
 62
    4
 10
755.35704616620137
 20
715.9813044009195
 40
1.2083333333333581
 50
307.52351320333912
 51
232.47648680464988
  0
ARC
  8
_0-1_線色１__水色__
  6
CONTINUOUS
 62
    4
 10
753.88508602199295
 20
714.06463773411474
 40
1.2083333333333179
 50
127.52351320610693
 51
52.47648680188081
  0
ARC
  8
_0-1_線色１__水色__
  6
CONTINUOUS
 62
    4
 10
756.82900631067582
 20
714.06463773431938
 40
1.2083333333333179
 50
127.52351320610693
 51
52.47648680188081
  0
ARC
  8
_0-1_線色１__水色__
  6
CONTINUOUS
 62
    4
 10
777.4364483314605
 20
714.0646377351402
 40
1.2083333333333179
 50
127.52351320610693
 51
52.47648680188081
  0
ARC
  8
_0-1_線色１__水色__
  6
CONTINUOUS
 62
    4
 10
775.96448818698377
 20
715.98130440174032
 40
1.2083333333333581
 50
307.52351320333912
 51
232.47648680464988
  0
ARC
  8
_0-1_線色１__水色__
  6
CONTINUOUS
 62
    4
 10
752.4131258775185
 20
715.98130440071373
 40
1.2083333333333581
 50
307.52351320333912
 51
232.47648680464988
  0
ARC
  8
_0-1_線色１__水色__
  6
CONTINUOUS
 62
    4
 10
712.67020198044861
 20
714.06463773183987
 40
1.2083333333333179
 50
127.52351320610693
 51
52.47648680188081
  0
ARC
  8
_0-1_線色１__水色__
  6
CONTINUOUS
 62
    4
 10
711.19824183597416
 20
715.98130439843885
 40
1.2083333333333581
 50
307.52351320333912
 51
232.47648680464988
  0
ARC
  8
_0-1_線色１__水色__
  6
CONTINUOUS
 62
    4
 10
722.97392299070793
 20
715.98130439925967
 40
1.2083333333333581
 50
307.52351320333912
 51
232.47648680464988
  0
ARC
  8
_0-1_線色１__水色__
  6
CONTINUOUS
 62
    4
 10
720.03000270202278
 20
715.98130439905503
 40
1.2083333333333581
 50
307.52351320333912
 51
232.47648680464988
  0
ARC
  8
_0-1_線色１__水色__
  6
CONTINUOUS
 62
    4
 10
721.50196284649951
 20
714.06463773245491
 40
1.2083333333333179
 50
127.52351320610693
 51
52.47648680188081
  0
ARC
  8
_0-1_線色１__水色__
  6
CONTINUOUS
 62
    4
 10
717.08608241333991
 20
715.98130439884926
 40
1.2083333333333581
 50
307.52351320333912
 51
232.47648680464988
  0
ARC
  8
_0-1_線色１__水色__
  6
CONTINUOUS
 62
    4
 10
715.61412226913149
 20
714.0646377320445
 40
1.2083333333333179
 50
127.52351320610693
 51
52.47648680188081
  0
ARC
  8
_0-1_線色１__水色__
  6
CONTINUOUS
 62
    4
 10
718.55804255781663
 20
714.06463773225028
 40
1.2083333333333179
 50
127.52351320610693
 51
52.47648680188081
  0
ARC
  8
_0-1_線色１__水色__
  6
CONTINUOUS
 62
    4
 10
714.14216212465703
 20
715.98130439864462
 40
1.2083333333333581
 50
307.52351320333912
 51
232.47648680464988
  0
ARC
  8
_0-1_線色１__水色__
  6
CONTINUOUS
 62
    4
 10
724.44588313518238
 20
714.06463773266069
 40
1.2083333333333179
 50
127.52351320610693
 51
52.47648680188081
  0
ARC
  8
_0-1_線色１__水色__
  6
CONTINUOUS
 62
    4
 10
678.81511866048072
 20
715.98130439739521
 40
1.2083333333333581
 50
307.52351320333912
 51
232.47648680464988
  0
ARC
  8
_0-1_線色１__水色__
  6
CONTINUOUS
 62
    4
 10
680.28707880495517
 20
714.06463773079622
 40
1.2083333333333179
 50
127.52351320610693
 51
52.47648680188081
  0
ARC
  8
_0-1_線色１__水色__
  6
CONTINUOUS
 62
    4
 10
675.87119837179785
 20
715.98130439719057
 40
1.2083333333333581
 50
307.52351320333912
 51
232.47648680464988
  0
ARC
  8
_0-1_線色１__水色__
  6
CONTINUOUS
 62
    4
 10
677.3431585162723
 20
714.06463773059045
 40
1.2083333333333179
 50
127.52351320610693
 51
52.47648680188081
  0
ARC
  8
_0-1_線色１__水色__
  6
CONTINUOUS
 62
    4
 10
672.92727808311497
 20
715.9813043969848
 40
1.2083333333333581
 50
307.52351320333912
 51
232.47648680464988
  0
ARC
  8
_0-1_線色１__水色__
  6
CONTINUOUS
 62
    4
 10
674.39923822758942
 20
714.06463773038581
 40
1.2083333333333179
 50
127.52351320610693
 51
52.47648680188081
  0
ARC
  8
_0-1_線色１__水色__
  6
CONTINUOUS
 62
    4
 10
669.98335779442982
 20
715.98130439678016
 40
1.2083333333333581
 50
307.52351320333912
 51
232.47648680464988
  0
ARC
  8
_0-1_線色１__水色__
  6
CONTINUOUS
 62
    4
 10
671.45531793890655
 20
714.06463773018004
 40
1.2083333333333179
 50
127.52351320610693
 51
52.47648680188081
  0
ARC
  8
_0-1_線色１__水色__
  6
CONTINUOUS
 62
    4
 10
667.03943750574695
 20
715.98130439657439
 40
1.2083333333333581
 50
307.52351320333912
 51
232.47648680464988
  0
ARC
  8
_0-1_線色１__水色__
  6
CONTINUOUS
 62
    4
 10
668.5113976502214
 20
714.0646377299754
 40
1.2083333333333179
 50
127.52351320610693
 51
52.47648680188081
  0
ARC
  8
_0-1_線色１__水色__
  6
CONTINUOUS
 62
    4
 10
664.09551721706407
 20
715.98130439636975
 40
1.2083333333333581
 50
307.52351320333912
 51
232.47648680464988
  0
ARC
  8
_0-1_線色１__水色__
  6
CONTINUOUS
 62
    4
 10
665.56747736153852
 20
714.06463772976963
 40
1.2083333333333179
 50
127.52351320610693
 51
52.47648680188081
  0
ARC
  8
_0-1_線色１__水色__
  6
CONTINUOUS
 62
    4
 10
661.1515969283812
 20
715.98130439616398
 40
1.2083333333333581
 50
307.52351320333912
 51
232.47648680464988
  0
ARC
  8
_0-1_線色１__水色__
  6
CONTINUOUS
 62
    4
 10
659.67963678417277
 20
714.06463772935922
 40
1.2083333333333179
 50
127.52351320610693
 51
52.47648680188081
  0
ARC
  8
_0-1_線色１__水色__
  6
CONTINUOUS
 62
    4
 10
662.62355707285565
 20
714.06463772956499
 40
1.2083333333333179
 50
127.52351320610693
 51
52.47648680188081
  0
ARC
  8
_0-1_線色１__水色__
  6
CONTINUOUS
 62
    4
 10
683.23099909363805
 20
714.06463773038581
 40
1.2083333333333179
 50
127.52351320610693
 51
52.47648680188081
  0
ARC
  8
_0-1_線色１__水色__
  6
CONTINUOUS
 62
    4
 10
681.7590389491636
 20
715.9813043969848
 40
1.2083333333333581
 50
307.52351320333912
 51
232.47648680464988
  0
ARC
  8
_0-1_線色１__水色__
  6
CONTINUOUS
 62
    4
 10
658.20767663969605
 20
715.98130439595934
 40
1.2083333333333581
 50
307.52351320333912
 51
232.47648680464988
  0
ARC
  8
_0-1_線色１__水色__
  6
CONTINUOUS
 62
    4
 10
705.31040125863115
 20
715.98130439862643
 40
1.2083333333333581
 50
307.52351320333912
 51
232.47648680464988
  0
ARC
  8
_0-1_線色１__水色__
  6
CONTINUOUS
 62
    4
 10
706.7823614031056
 20
714.06463773202631
 40
1.2083333333333179
 50
127.52351320610693
 51
52.47648680188081
  0
ARC
  8
_0-1_線色１__水色__
  6
CONTINUOUS
 62
    4
 10
702.366480969946
 20
715.9813043984218
 40
1.2083333333333581
 50
307.52351320333912
 51
232.47648680464988
  0
ARC
  8
_0-1_線色１__水色__
  6
CONTINUOUS
 62
    4
 10
703.83844111442272
 20
714.06463773182168
 40
1.2083333333333179
 50
127.52351320610693
 51
52.47648680188081
  0
ARC
  8
_0-1_線色１__水色__
  6
CONTINUOUS
 62
    4
 10
699.42256068126312
 20
715.98130439821603
 40
1.2083333333333581
 50
307.52351320333912
 51
232.47648680464988
  0
ARC
  8
_0-1_線色１__水色__
  6
CONTINUOUS
 62
    4
 10
700.89452082573985
 20
714.0646377316159
 40
1.2083333333333179
 50
127.52351320610693
 51
52.47648680188081
  0
ARC
  8
_0-1_線色１__水色__
  6
CONTINUOUS
 62
    4
 10
696.47864039258025
 20
715.98130439801139
 40
1.2083333333333581
 50
307.52351320333912
 51
232.47648680464988
  0
ARC
  8
_0-1_線色１__水色__
  6
CONTINUOUS
 62
    4
 10
697.9506005370547
 20
714.06463773141127
 40
1.2083333333333179
 50
127.52351320610693
 51
52.47648680188081
  0
ARC
  8
_0-1_線色１__水色__
  6
CONTINUOUS
 62
    4
 10
693.53472010389737
 20
715.98130439780562
 40
1.2083333333333581
 50
307.52351320333912
 51
232.47648680464988
  0
ARC
  8
_0-1_線色１__水色__
  6
CONTINUOUS
 62
    4
 10
695.00668024837182
 20
714.06463773120663
 40
1.2083333333333179
 50
127.52351320610693
 51
52.47648680188081
  0
ARC
  8
_0-1_線色１__水色__
  6
CONTINUOUS
 62
    4
 10
690.5907998152145
 20
715.98130439760098
 40
1.2083333333333581
 50
307.52351320333912
 51
232.47648680464988
  0
ARC
  8
_0-1_線色１__水色__
  6
CONTINUOUS
 62
    4
 10
692.06275995968895
 20
714.06463773100086
 40
1.2083333333333179
 50
127.52351320610693
 51
52.47648680188081
  0
ARC
  8
_0-1_線色１__水色__
  6
CONTINUOUS
 62
    4
 10
687.64687952652935
 20
715.98130439739521
 40
1.2083333333333581
 50
307.52351320333912
 51
232.47648680464988
  0
ARC
  8
_0-1_線色１__水色__
  6
CONTINUOUS
 62
    4
 10
686.1749193823232
 20
714.06463773059045
 40
1.2083333333333179
 50
127.52351320610693
 51
52.47648680188081
  0
ARC
  8
_0-1_線色１__水色__
  6
CONTINUOUS
 62
    4
 10
689.11883967100607
 20
714.06463773079622
 40
1.2083333333333179
 50
127.52351320610693
 51
52.47648680188081
  0
ARC
  8
_0-1_線色１__水色__
  6
CONTINUOUS
 62
    4
 10
709.72628169178847
 20
714.0646377316159
 40
1.2083333333333179
 50
127.52351320610693
 51
52.47648680188081
  0
ARC
  8
_0-1_線色１__水色__
  6
CONTINUOUS
 62
    4
 10
708.25432154731402
 20
715.98130439821603
 40
1.2083333333333581
 50
307.52351320333912
 51
232.47648680464988
  0
ARC
  8
_0-1_線色１__水色__
  6
CONTINUOUS
 62
    4
 10
684.70295923784647
 20
715.98130439719057
 40
1.2083333333333581
 50
307.52351320333912
 51
232.47648680464988
  0
ARC
  8
_0-1_線色１__水色__
  6
CONTINUOUS
 62
    4
 10
644.96003534077886
 20
714.06463772831557
 40
1.2083333333333179
 50
127.52351320610693
 51
52.47648680188081
  0
ARC
  8
_0-1_線色１__水色__
  6
CONTINUOUS
 62
    4
 10
643.48807519630213
 20
715.98130439491456
 40
1.2083333333333581
 50
307.52351320333912
 51
232.47648680464988
  0
ARC
  8
_0-1_線色１__水色__
  6
CONTINUOUS
 62
    4
 10
655.26375635103591
 20
715.98130439573538
 40
1.2083333333333581
 50
307.52351320333912
 51
232.47648680464988
  0
ARC
  8
_0-1_線色１__水色__
  6
CONTINUOUS
 62
    4
 10
652.31983606235303
 20
715.98130439553074
 40
1.2083333333333581
 50
307.52351320333912
 51
232.47648680464988
  0
ARC
  8
_0-1_線色１__水色__
  6
CONTINUOUS
 62
    4
 10
653.79179620682748
 20
714.06463772893062
 40
1.2083333333333179
 50
127.52351320610693
 51
52.47648680188081
  0
ARC
  8
_0-1_線色１__水色__
  6
CONTINUOUS
 62
    4
 10
649.37591577367016
 20
715.98130439532611
 40
1.2083333333333581
 50
307.52351320333912
 51
232.47648680464988
  0
ARC
  8
_0-1_線色１__水色__
  6
CONTINUOUS
 62
    4
 10
647.90395562946173
 20
714.06463772852135
 40
1.2083333333333179
 50
127.52351320610693
 51
52.47648680188081
  0
ARC
  8
_0-1_線色１__水色__
  6
CONTINUOUS
 62
    4
 10
650.84787591814461
 20
714.06463772872598
 40
1.2083333333333179
 50
127.52351320610693
 51
52.47648680188081
  0
ARC
  8
_0-1_線色１__水色__
  6
CONTINUOUS
 62
    4
 10
646.43199548498728
 20
715.98130439512033
 40
1.2083333333333581
 50
307.52351320333912
 51
232.47648680464988
  0
ARC
  8
_0-1_線色１__水色__
  6
CONTINUOUS
 62
    4
 10
656.73571649551263
 20
714.06463772913639
 40
1.2083333333333179
 50
127.52351320610693
 51
52.47648680188081
  0
ARC
  8
_0-1_線色１__水色__
  6
CONTINUOUS
 62
    4
 10
642.01611505211872
 20
714.06463772809275
 40
1.2083333333333179
 50
243.78788958924599
 51
52.476486801880853
  0
ARC
  8
_0-1_線色１__水色__
  6
CONTINUOUS
 62
    4
 10
640.544154907642
 20
715.98130439469287
 40
1.2083333333333581
 50
320.93926410748708
 51
39.060735892512916
  0
LINE
  8
_0-d_断熱__ハッチ
  6
CONTINUOUS
 62
    4
 10
1441.4554335684074
 20
677.52297109336496
 11
1458.5176003356532
 21
694.58513786061076
  0
LINE
  8
_0-d_断熱__ハッチ
  6
CONTINUOUS
 62
    4
 10
641.48239966434744
 20
702.45287154065863
 11
666.41230011164112
 21
677.52297109336382
  0
TEXT
  8
_0-a_文字
 62
    7
 10
1381.7388273727238
 20
784.99623267557922
 40
15.000000000000213
 41
0.9999999999999863
 50
0
  1
［断熱材目地部］
  0
LINE
  8
_f-0_
  6
CONTINUOUS
 62
  136
 10
1714.9999999999989
 20
1192.5
 11
385
 21
1192.5
  0
LINE
  8
_f-0_
  6
CONTINUOUS
 62
  136
 10
385
 20
277.50000000000341
 11
1714.9999999999989
 21
277.50000000000341
  0
LINE
  8
_f-0_
  6
CONTINUOUS
 62
  136
 10
385
 20
1192.5
 11
385
 21
277.50000000000341
  0
LINE
  8
_f-0_
  6
CONTINUOUS
 62
  136
 10
1714.9999999999989
 20
1192.5
 11
1714.9999999999989
 21
277.50000000000341
  0
LINE
  8
_f-0_
  6
CONTINUOUS
 62
    6
 10
1714.9999999999989
 20
1152.5
 11
385
 21
1152.5
  0
LINE
  8
_f-f_
  6
CONTINUOUS
 62
    9
 10
310
 20
217.5
 11
310
 21
1267.5
  0
LINE
  8
_f-f_
  6
CONTINUOUS
 62
    9
 10
1790
 20
217.5
 11
310
 21
217.5
  0
LINE
  8
_f-f_
  6
CONTINUOUS
 62
    9
 10
1790
 20
1267.5
 11
310
 21
1267.5
  0
LINE
  8
_f-f_
  6
CONTINUOUS
 62
    9
 10
1790
 20
1267.5
 11
1790
 21
217.5
  0
LINE
  8
ADD_LINE
  6
DOT
 62
  136
 10
1764.9999999999989
 20
1242.5
 11
335
 21
1242.5
  0
LINE
  8
ADD_LINE
  6
DOT
 62
  136
 10
335
 20
242.50000000000227
 11
335
 21
1242.5
  0
LINE
  8
ADD_LINE
  6
DOT
 62
  136
 10
1765
 20
1242.5
 11
1765
 21
242.5
  0
LINE
  8
ADD_LINE
  6
DOT
 62
  136
 10
1765
 20
242.5
 11
335.00000000000114
 21
242.5
  0
CIRCLE
  8
_1-7_ビス
  6
CONTINUOUS
 62
    2
 10
1330.2625517167942
 20
1060.0425435704833
 40
2.5
  0
CIRCLE
  8
_1-7_ビス
  6
CONTINUOUS
 62
    2
 10
1405.2625517167942
 20
1060.0425435704833
 40
2.5
  0
CIRCLE
  8
_1-7_ビス
  6
CONTINUOUS
 62
    2
 10
1480.2625517167942
 20
1060.0425435704833
 40
2.5
  0
LINE
  8
_1-2_線色２__白__
  6
CONTINUOUS
 62
    7
 10
1480.2625517167942
 20
1060.0425435704833
 11
1330.2625517167942
 21
1060.0425435704833
  0
CIRCLE
  8
_1-7_ビス
  6
CONTINUOUS
 62
    2
 10
1330.2625517167942
 20
984.20921023714959
 40
2.5
  0
CIRCLE
  8
_1-7_ビス
  6
CONTINUOUS
 62
    2
 10
1405.2625517167942
 20
984.20921023714959
 40
2.5
  0
CIRCLE
  8
_1-7_ビス
  6
CONTINUOUS
 62
    2
 10
1480.2625517167942
 20
984.20921023714959
 40
2.5
  0
LINE
  8
_1-2_線色２__白__
  6
CONTINUOUS
 62
    7
 10
1480.2625517167942
 20
984.20921023714959
 11
1480.2625517167942
 21
1060.0425435704833
  0
LINE
  8
_1-2_線色２__白__
  6
CONTINUOUS
 62
    7
 10
1330.2625517167942
 20
1060.0425435704833
 11
1330.2625517167942
 21
984.20921023714959
  0
LINE
  8
_1-2_線色２__白__
  6
CONTINUOUS
 62
    7
 10
1330.2625517167942
 20
984.20921023714959
 11
1480.2625517167942
 21
984.20921023714959
  0
LINE
  8
_1-b_寸法
  6
CONTINUOUS
 62
    7
 10
1330.2625517167942
 20
1100.0425435704833
 11
1480.2625517167942
 21
1100.0425435704833
  0
POINT
  8
_1-b_寸法
 62
    1
 10
1330.2625517167942
 20
1100.0425435704833
  0
POINT
  8
_1-b_寸法
 62
    1
 10
1480.2625517167942
 20
1100.0425435704833
  0
LINE
  8
_1-b_寸法
  6
CONTINUOUS
 62
    7
 10
1330.2625517167942
 20
1100.0425435704833
 11
1330.2625517167942
 21
1065.0425435704833
  0
LINE
  8
_1-b_寸法
  6
CONTINUOUS
 62
    7
 10
1480.2625517167942
 20
1100.0425435704833
 11
1480.2625517167942
 21
1065.0425435704833
  0
TEXT
  8
_1-b_寸法
 62
    7
 10
1386.5125517167942
 20
1102.5425435704835
 40
15
 41
1
 50
0
  1
1,800
  0
LINE
  8
_1-b_寸法
  6
CONTINUOUS
 62
    7
 10
1290.2625517167942
 20
984.20921023714959
 11
1325.2625517167942
 21
984.20921023714959
  0
LINE
  8
_1-b_寸法
  6
CONTINUOUS
 62
    7
 10
1290.2625517167942
 20
1060.0425435704833
 11
1325.2625517167942
 21
1060.0425435704833
  0
POINT
  8
_1-b_寸法
 62
    1
 10
1290.2625517167942
 20
984.20921023714959
  0
POINT
  8
_1-b_寸法
 62
    1
 10
1290.2625517167942
 20
1060.0425435704833
  0
LINE
  8
_1-b_寸法
  6
CONTINUOUS
 62
    7
 10
1290.2625517167942
 20
1060.0425435704833
 11
1290.2625517167942
 21
984.20921023714959
  0
TEXT
  8
_1-b_寸法
 62
    7
 10
1287.7625517167942
 20
977.12587690381633
 40
15
 41
1
 50
90
  1
910（1,000）
  0
LINE
  8
_1-a_文字
  6
CONTINUOUS
 62
    3
 10
1502.5603704073574
 20
951.70921023714959
 11
1307.964733026231
 21
951.70921023714959
  0
LINE
  8
_1-a_文字
  6
CONTINUOUS
 62
    3
 10
1307.964733026231
 20
951.70921023714959
 11
1307.964733026231
 21
919.20921023714959
  0
LINE
  8
_1-a_文字
  6
CONTINUOUS
 62
    3
 10
1307.964733026231
 20
919.20921023714959
 11
1502.5603704073574
 21
919.20921023714959
  0
LINE
  8
_1-a_文字
  6
CONTINUOUS
 62
    3
 10
1502.5603704073574
 20
919.20921023714959
 11
1502.5603704073574
 21
951.70921023714959
  0
TEXT
  8
_1-a_文字
 62
    7
 10
1322.1375517167942
 20
926.70921023714959
 40
17.5
 41
1
 50
0
  1
断熱材 仮固定ピッチ
  0
LINE
  8
_1-a_文字
  6
CONTINUOUS
 62
    7
 10
1503.3565624843809
 20
1100.0425435704833
 11
1523.3565624843809
 21
1100.0425435704833
  0
TEXT
  8
_1-a_文字
 62
    7
 10
1528.3565624843832
 20
1092.5425435704844
 40
14.999999999997726
 41
1.0000000000000957
 50
0
  1
ＢＰ－Ｈ１Ｎ または
  0
TEXT
  8
_1-a_文字
 62
    7
 10
1528.3565624843832
 20
1072.5425435704844
 40
14.999999999997726
 41
1.0000000000000957
 50
0
  1
ＢＳ－Ｈ１
  0
LINE
  8
_1-a_文字
  6
CONTINUOUS
 62
    7
 10
1481.5125517167944
 20
1062.2076070799444
 11
1503.3565624843809
 21
1100.0425435704833
  0
LINE
  8
_1-a_文字
  6
CONTINUOUS
 62
    7
 10
1481.5125517167944
 20
1062.2076070799444
 11
1484.10074216782
 21
1071.8668653428349
  0
TEXT
  8
_f-0_
 62
    7
 10
405.30228976001922
 20
1163.75
 40
17.5
 41
1
 50
0
  1
平場 ＵＳ工法（ディスク板 後付け工法）
  0
LINE
  8
ADD_LINE
  6
DOT
 62
    4
 10
1349.9999999999995
 20
733.04634028184523
 11
1349.9999999999995
 21
698.86198409178292
  0
LINE
  8
_0-6_鋼板__アングル
  6
CONTINUOUS
 62
    4
 10
1342.7126180135651
 20
712.5229710933661
 11
1357.2873819864326
 21
712.5229710933661
  0
LINE
  8
_0-6_鋼板__アングル
  6
CONTINUOUS
 62
    4
 10
1354.0478247207629
 20
708.73392947312709
 11
1345.9521752792348
 21
708.73392947312709
  0
LINE
  8
_0-6_鋼板__アングル
  6
CONTINUOUS
 62
    4
 10
1353.099999999999
 20
710.0229710933661
 11
1346.8999999999987
 21
710.0229710933661
  0
ARC
  8
_0-6_鋼板__アングル
  6
CONTINUOUS
 62
    2
 10
1357.2873819864326
 20
710.122971093366
 40
0.8000000000000001
 50
90
 51
126.32682595211995
  0
LINE
  8
_0-6_鋼板__アングル
  6
CONTINUOUS
 62
    2
 10
1356.8134696260513
 20
710.76749190348551
 11
1354.0478247207629
 21
708.73392947312709
  0
ARC
  8
_0-6_鋼板__アングル
  6
CONTINUOUS
 62
    2
 10
1357.2873819864326
 20
710.122971093366
 40
2.3999999999999999
 50
90.000000000000028
 51
126.32682595212077
  0
LINE
  8
_0-6_鋼板__アングル
  6
CONTINUOUS
 62
    2
 10
1355.8656449052869
 20
712.05653352372451
 11
1353.099999999999
 21
710.0229710933661
  0
LINE
  8
_0-6_鋼板__アングル
  6
CONTINUOUS
 62
    2
 10
1354.0478247207629
 20
708.73392947312709
 11
1353.099999999999
 21
710.0229710933661
  0
ARC
  8
_0-6_鋼板__アングル
  6
CONTINUOUS
 62
    2
 10
1342.7126180135651
 20
710.122971093366
 40
0.8000000000000001
 50
53.673174047880046
 51
90
  0
LINE
  8
_0-6_鋼板__アングル
  6
CONTINUOUS
 62
    2
 10
1343.1865303739478
 20
710.76749190348551
 11
1345.9521752792348
 21
708.73392947312709
  0
ARC
  8
_0-6_鋼板__アングル
  6
CONTINUOUS
 62
    2
 10
1342.7126180135651
 20
710.122971093366
 40
2.3999999999999999
 50
53.673174047879257
 51
90
  0
LINE
  8
_0-6_鋼板__アングル
  6
CONTINUOUS
 62
    2
 10
1344.1343550947108
 20
712.05653352372451
 11
1346.8999999999987
 21
710.0229710933661
  0
LINE
  8
_0-6_鋼板__アングル
  6
CONTINUOUS
 62
    2
 10
1345.9521752792348
 20
708.73392947312709
 11
1346.8999999999987
 21
710.0229710933661
  0
LINE
  8
_0-6_鋼板__アングル
  6
CONTINUOUS
 62
    2
 10
1323.9999999999991
 20
712.5229710933661
 11
1319.9999999999995
 21
710.6577404607458
  0
LINE
  8
_0-6_鋼板__アングル
  6
CONTINUOUS
 62
    2
 10
1319.9999999999995
 20
710.6577404607458
 11
1320.6761892187837
 21
709.20764800148731
  0
LINE
  8
_0-6_鋼板__アングル
  6
CONTINUOUS
 62
    2
 10
1324.3547114602275
 20
710.92297109336528
 11
1320.6761892187837
 21
709.20764800148731
  0
LINE
  8
_0-6_鋼板__アングル
  6
CONTINUOUS
 62
    2
 10
1342.7126180135651
 20
712.5229710933661
 11
1323.9999999999991
 21
712.5229710933661
  0
LINE
  8
_0-6_鋼板__アングル
  6
CONTINUOUS
 62
    2
 10
1342.7126180135651
 20
710.92297109336528
 11
1324.3547114602275
 21
710.92297109336528
  0
LINE
  8
_0-6_鋼板__アングル
  6
CONTINUOUS
 62
    2
 10
1375.6452885397703
 20
710.92297109336528
 11
1379.323810781214
 21
709.20764800148731
  0
LINE
  8
_0-6_鋼板__アングル
  6
CONTINUOUS
 62
    2
 10
1375.9999999999986
 20
712.5229710933661
 11
1379.9999999999995
 21
710.6577404607458
  0
LINE
  8
_0-6_鋼板__アングル
  6
CONTINUOUS
 62
    2
 10
1379.9999999999995
 20
710.6577404607458
 11
1379.323810781214
 21
709.20764800148731
  0
LINE
  8
_0-6_鋼板__アングル
  6
CONTINUOUS
 62
    2
 10
1357.2873819864326
 20
710.92297109336528
 11
1375.6452885397703
 21
710.92297109336528
  0
LINE
  8
_0-6_鋼板__アングル
  6
CONTINUOUS
 62
    2
 10
1357.2873819864326
 20
712.5229710933661
 11
1375.9999999999986
 21
712.5229710933661
  0
LINE
  8
ADD_LINE
  6
DOT
 62
    4
 10
1049.9999999999989
 20
751.83538190208424
 11
1049.9999999999989
 21
717.65102571202192
  0
LINE
  8
_0-6_鋼板__アングル
  6
CONTINUOUS
 62
    4
 10
1042.7126180135645
 20
731.3120127136051
 11
1057.2873819864321
 21
731.3120127136051
  0
LINE
  8
_0-6_鋼板__アングル
  6
CONTINUOUS
 62
    4
 10
1054.0478247207625
 20
727.5229710933661
 11
1045.9521752792341
 21
727.5229710933661
  0
LINE
  8
_0-6_鋼板__アングル
  6
CONTINUOUS
 62
    4
 10
1053.0999999999983
 20
728.8120127136051
 11
1046.8999999999983
 21
728.8120127136051
  0
ARC
  8
_0-6_鋼板__アングル
  6
CONTINUOUS
 62
    2
 10
1057.2873819864321
 20
728.91201271360501
 40
0.8000000000000001
 50
90
 51
126.32682595211995
  0
LINE
  8
_0-6_鋼板__アングル
  6
CONTINUOUS
 62
    2
 10
1056.8134696260506
 20
729.55653352372451
 11
1054.0478247207625
 21
727.5229710933661
  0
ARC
  8
_0-6_鋼板__アングル
  6
CONTINUOUS
 62
    2
 10
1057.2873819864321
 20
728.91201271360501
 40
2.3999999999999999
 50
90.000000000000028
 51
126.32682595212077
  0
LINE
  8
_0-6_鋼板__アングル
  6
CONTINUOUS
 62
    2
 10
1055.8656449052864
 20
730.84557514396352
 11
1053.0999999999983
 21
728.8120127136051
  0
LINE
  8
_0-6_鋼板__アングル
  6
CONTINUOUS
 62
    2
 10
1054.0478247207625
 20
727.5229710933661
 11
1053.0999999999983
 21
728.8120127136051
  0
ARC
  8
_0-6_鋼板__アングル
  6
CONTINUOUS
 62
    2
 10
1042.7126180135645
 20
728.91201271360501
 40
0.8000000000000001
 50
53.673174047880046
 51
90
  0
LINE
  8
_0-6_鋼板__アングル
  6
CONTINUOUS
 62
    2
 10
1043.1865303739471
 20
729.55653352372451
 11
1045.9521752792341
 21
727.5229710933661
  0
ARC
  8
_0-6_鋼板__アングル
  6
CONTINUOUS
 62
    2
 10
1042.7126180135645
 20
728.91201271360501
 40
2.3999999999999999
 50
53.673174047879257
 51
90
  0
LINE
  8
_0-6_鋼板__アングル
  6
CONTINUOUS
 62
    2
 10
1044.1343550947101
 20
730.84557514396352
 11
1046.8999999999983
 21
728.8120127136051
  0
LINE
  8
_0-6_鋼板__アングル
  6
CONTINUOUS
 62
    2
 10
1045.9521752792341
 20
727.5229710933661
 11
1046.8999999999983
 21
728.8120127136051
  0
LINE
  8
_0-6_鋼板__アングル
  6
CONTINUOUS
 62
    2
 10
1023.9999999999986
 20
731.3120127136051
 11
1019.9999999999989
 21
729.4467820809848
  0
LINE
  8
_0-6_鋼板__アングル
  6
CONTINUOUS
 62
    2
 10
1019.9999999999989
 20
729.4467820809848
 11
1020.6761892187831
 21
727.99668962172632
  0
LINE
  8
_0-6_鋼板__アングル
  6
CONTINUOUS
 62
    2
 10
1024.3547114602268
 20
729.71201271360428
 11
1020.6761892187831
 21
727.99668962172632
  0
LINE
  8
_0-6_鋼板__アングル
  6
CONTINUOUS
 62
    2
 10
1042.7126180135645
 20
731.3120127136051
 11
1023.9999999999986
 21
731.3120127136051
  0
LINE
  8
_0-6_鋼板__アングル
  6
CONTINUOUS
 62
    2
 10
1042.7126180135645
 20
729.71201271360428
 11
1024.3547114602268
 21
729.71201271360428
  0
LINE
  8
_0-6_鋼板__アングル
  6
CONTINUOUS
 62
    2
 10
1075.6452885397698
 20
729.71201271360428
 11
1079.3238107812135
 21
727.99668962172632
  0
LINE
  8
_0-6_鋼板__アングル
  6
CONTINUOUS
 62
    2
 10
1075.999999999998
 20
731.3120127136051
 11
1079.9999999999989
 21
729.4467820809848
  0
LINE
  8
_0-6_鋼板__アングル
  6
CONTINUOUS
 62
    2
 10
1079.9999999999989
 20
729.4467820809848
 11
1079.3238107812135
 21
727.99668962172632
  0
LINE
  8
_0-6_鋼板__アングル
  6
CONTINUOUS
 62
    2
 10
1057.2873819864321
 20
729.71201271360428
 11
1075.6452885397698
 21
729.71201271360428
  0
LINE
  8
_0-6_鋼板__アングル
  6
CONTINUOUS
 62
    2
 10
1057.2873819864321
 20
731.3120127136051
 11
1075.999999999998
 21
731.3120127136051
  0
LINE
  8
_0-d_断熱__ハッチ
  6
CONTINUOUS
 62
    4
 10
1300.0340773310922
 20
677.52297109336496
 11
1333.4340773310914
 21
710.92297109336528
  0
LINE
  8
_0-d_断熱__ハッチ
  6
CONTINUOUS
 62
    4
 10
1340.119081298189
 20
710.92297109336528
 11
1373.5190812981882
 21
677.5229710933661
  0
LINE
  8
_0-d_断熱__ハッチ
  6
CONTINUOUS
 62
    4
 10
1328.3183485785589
 20
677.5229710933661
 11
1361.7183485785581
 21
710.92297109336528
  0
LINE
  8
_0-d_断熱__ハッチ
  6
CONTINUOUS
 62
    4
 10
1368.4033525456466
 20
710.92297109336528
 11
1401.8033525456458
 21
677.52297109336723
  0
TEXT
  8
_0-a_文字
 62
    7
 10
1112.4999999999959
 20
307.50000000000341
 40
15.000000000000213
 41
0.9999999999999905
 50
0
  1
※ 断熱材の種類が硬質ウレタンフォームの場合、ラジアルシートＬ６００の敷設は不要
  0
TEXT
  8
_0-a_文字
 62
    7
 10
1112.4999999999959
 20
287.50000000000341
 40
15.000000000000213
 41
0.9999999999999903
 50
0
  1
※ 本図面は防水納まりの参考図であり、下地等の構造を保証するものではありません
  0
ENDSEC
  0
EOF
