  0
SECTION
  2
HEADER
  9
$ACADVER
  1
AC1009
  9
$INSBASE
 10
0
 20
0
 30
0
  9
$EXTMIN
 10
0
 20
0
  9
$EXTMAX
 10
2100
 20
1485
  9
$LIMMIN
 10
0
 20
0
  9
$LIMMAX
 10
2100
 20
1485
  9
$LTSCALE
 40
5
  0
ENDSEC
  0
SECTION
  2
TABLES
  0
TABLE
  2
LTYPE
 70
     9
  0
LTYPE
  2
CONTINUOUS
 70
    64
  3
実線
 72
    65
 73
     0
 40
0.0
  0
LTYPE
  2
DASHED1
 70
    64
  3
--  --  --  --  --  --  --  --  
 72
    65
 73
     2
 40
2.5
 49
1.25
 49
-1.25
  0
LTYPE
  2
DASHED2
 70
    64
  3
----    ----    ----    ----    
 72
    65
 73
     2
 40
5.0
 49
2.5
 49
-2.5
  0
LTYPE
  2
DASHED3
 70
    64
  3
------  ------  ------  ------  
 72
    65
 73
     2
 40
5.0
 49
3.75
 49
-1.25
  0
LTYPE
  2
CENTER1
 70
    64
  3
----- - ----- - ----- - ----- - 
 72
    65
 73
     4
 40
10.0
 49
6.25
 49
-1.25
 49
1.25
 49
-1.25
  0
LTYPE
  2
CENTER2
 70
    64
  3
----------  --  ----------  --  
 72
    65
 73
     4
 40
20.0
 49
12.5
 49
-2.5
 49
2.5
 49
-2.5
  0
LTYPE
  2
PHANTOM1
 70
    64
  3
--- - - --- - - --- - - --- - - 
 72
    65
 73
     6
 40
10.0
 49
3.25
 49
-1.25
 49
1.25
 49
-1.25
 49
1.25
 49
-1.25
  0
LTYPE
  2
PHANTOM2
 70
    64
  3
--------  -  -  --------  -  -  
 72
    65
 73
     6
 40
20.0
 49
10.0
 49
-2.5
 49
1.25
 49
-2.5
 49
1.25
 49
-2.5
  0
LTYPE
  2
DOT
 70
    64
  3
-   -   -   -   -   -   -   -   
 72
    65
 73
     2
 40
2.5
 49
0.625
 49
-1.875
  0
LTYPE
  2
DUMMY
 70
    64
  3
ダミー
 72
    65
 73
     0
 40
0.0
  0
LTYPE
  2
RAND1
 70
    64
  3
ランダム線1
 72
    65
 73
     4
 40
10.0
 49
1.0
 49
-2.0
 49
3.0
 49
-4.0
  0
LTYPE
  2
RAND2
 70
    64
  3
ランダム線2
 72
    65
 73
     4
 40
14.0
 49
2.0
 49
-3.0
 49
4.0
 49
-5.0
  0
LTYPE
  2
RAND3
 70
    64
  3
ランダム線3
 72
    65
 73
     4
 40
18.0
 49
3.0
 49
-4.0
 49
5.0
 49
-6.0
  0
LTYPE
  2
RAND4
 70
    64
  3
ランダム線4
 72
    65
 73
     4
 40
22.0
 49
4.0
 49
-5.0
 49
6.0
 49
-7.0
  0
LTYPE
  2
RAND5
 70
    64
  3
ランダム線5
 72
    65
 73
     4
 40
26.0
 49
5.0
 49
-6.0
 49
7.0
 49
-8.0
  0
LTYPE
  2
LONG1
 70
    64
  3
----------  --  ----------  --  
 72
    65
 73
     4
 40
40.0
 49
32.5
 49
-2.5
 49
2.5
 49
-2.5
  0
LTYPE
  2
LONG2
 70
    64
  3
--------  -  -  --------  -  -  
 72
    65
 73
     6
 40
40.0
 49
30.0
 49
-2.5
 49
1.25
 49
-2.5
 49
1.25
 49
-2.5
  0
LTYPE
  2
LONG3
 70
    64
  3
+++++++++++++++..+++++++++++++++
 72
    65
 73
     2
 40
40.0
 49
37.5
 49
-2.5
  0
LTYPE
  2
LONG4
 70
    64
  3
+++++++++++++++..+++++++++++++++
 72
    65
 73
     2
 40
80.0
 49
75.0
 49
-5.0
  0
LTYPE
  2
LONG5
 70
    64
  3
----------  --  ----------  --  
 72
    65
 73
     4
 40
60.0
 49
37.5
 49
-7.5
 49
7.5
 49
-7.5
  0
LTYPE
  2
dashed
 70
   64
  3
-------   -------------   ------
 72
   65
 73
    2
 40
7.5
 49
6
 49
-1.5
  0
LTYPE
  2
dashed_spaced
 70
   64
  3
----        --------        ----
 72
   65
 73
    2
 40
12
 49
6
 49
-6
  0
LTYPE
  2
long_dashed_dotted
 70
   64
  3
------------- --- --------------
 72
   65
 73
    4
 40
15.25
 49
12
 49
-1.5
 49
0.25
 49
-1.5
  0
LTYPE
  2
long_dashed_double-dotted
 70
   64
  3
----------- --- --- ------------
 72
   65
 73
    6
 40
17
 49
12
 49
-1.5
 49
0.25
 49
-1.5
 49
0.25
 49
-1.5
  0
LTYPE
  2
long_dashed_triplicate-dotted
 70
   64
  3
--------- --- --- --- ----------
 72
   65
 73
    8
 40
18.75
 49
12
 49
-1.5
 49
0.25
 49
-1.5
 49
0.25
 49
-1.5
 49
0.25
 49
-1.5
  0
LTYPE
  2
dotted
 70
   64
  3
   -       -       -       -    
 72
   65
 73
    2
 40
1.75
 49
0.25
 49
-1.5
  0
LTYPE
  2
chain
 70
   64
  3
-------------- -- --------------
 72
   65
 73
    4
 40
18.5
 49
12
 49
-1.5
 49
3.5
 49
-1.5
  0
LTYPE
  2
chain_double_dash
 70
   64
  3
------------ -- -- -------------
 72
   65
 73
    6
 40
23.5
 49
12
 49
-1.5
 49
3.5
 49
-1.5
 49
3.5
 49
-1.5
  0
LTYPE
  2
dashed_dotted
 70
   64
  3
-----------     -     ----------
 72
   65
 73
    4
 40
9.25
 49
6
 49
-1.5
 49
0.25
 49
-1.5
  0
LTYPE
  2
double-dashed_dotted
 70
   64
  3
------   -----------   -   -----
 72
   65
 73
    6
 40
16.75
 49
6
 49
-1.5
 49
6
 49
-1.5
 49
0.25
 49
-1.5
  0
LTYPE
  2
dashed_double-dotted
 70
   64
  3
---------    -    -    ---------
 72
   65
 73
    6
 40
11
 49
6
 49
-1.5
 49
0.25
 49
-1.5
 49
0.25
 49
-1.5
  0
LTYPE
  2
double-dashed_double-dotted
 70
   64
  3
-----   ---------   -   -   ----
 72
   65
 73
    8
 40
18.5
 49
6
 49
-1.5
 49
6
 49
-1.5
 49
0.25
 49
-1.5
 49
0.25
 49
-1.5
  0
LTYPE
  2
dashed_triplicate-dotted
 70
   64
  3
-------    -    -    -    ------
 72
   65
 73
    8
 40
12.75
 49
6
 49
-1.5
 49
0.25
 49
-1.5
 49
0.25
 49
-1.5
 49
0.25
 49
-1.5
  0
LTYPE
  2
double-dashed_triplicate-dotted
 70
   64
  3
-----  ---------  -  -  -  -----
 72
   65
 73
   10
 40
20.25
 49
6
 49
-1.5
 49
6
 49
-1.5
 49
0.25
 49
-1.5
 49
0.25
 49
-1.5
 49
0.25
 49
-1.5
  0
LTYPE
  2
undefined
 70
   64
  3
--------------------------------
 72
   65
 73
    0
 40
0
  0
ENDTAB
  0
TABLE
  2
STYLE
  5
3
100
AcDbSymbolTable
 70
     1
  0
STYLE
  5
10
100
AcDbSymbolTableRecord
100
AcDbTextStyleTableRecord
  2
STANDARD
 70
     0
 40
0.0
 41
1.0
 50
0.0
 71
     0
 42
0.2
  3
txt
  4
bigfont.shx
  0
STYLE
  5
26
100
AcDbSymbolTableRecord
100
AcDbTextStyleTableRecord
  2
TATEGAKI
 70
    68
 40
0.0
 41
1.0
 50
0.0
 71
     0
 42
1.0
  3
txt
  4
bigfont.shx
  0
ENDTAB
  0
TABLE
  2
LAYER
 70
   12
  0
LAYER
  2
_0-1_線色１__水色__
 70
   64
 62
    7
  6
CONTINUOUS
  0
LAYER
  2
_0-2_線色２__白__
 70
   64
 62
    7
  6
CONTINUOUS
  0
LAYER
  2
_0-3_線色３__緑__
 70
   64
 62
    7
  6
CONTINUOUS
  0
LAYER
  2
_0-4_線色４__黄__
 70
   64
 62
    7
  6
CONTINUOUS
  0
LAYER
  2
_0-5_金属
 70
   64
 62
    7
  6
CONTINUOUS
  0
LAYER
  2
_0-6_鋼板__アングル
 70
   64
 62
    7
  6
CONTINUOUS
  0
LAYER
  2
_0-7_ビス
 70
   64
 62
    7
  6
CONTINUOUS
  0
LAYER
  2
_0-a_文字
 70
   64
 62
    7
  6
CONTINUOUS
  0
LAYER
  2
_0-d_断熱__ハッチ
 70
   64
 62
    7
  6
CONTINUOUS
  0
LAYER
  2
_f-0_
 70
   64
 62
    7
  6
CONTINUOUS
  0
LAYER
  2
_f-f_
 70
   64
 62
    7
  6
CONTINUOUS
  0
LAYER
  2
ADD_LINE
 70
   64
 62
    7
  6
CONTINUOUS
  0
ENDTAB
  0
ENDSEC
  0
SECTION
  2
BLOCKS
  0
ENDSEC
  0
SECTION
  2
ENTITIES
  0
LINE
  8
_f-0_
  6
CONTINUOUS
 62
  136
 10
1714.9999999999989
 20
1192.5
 11
385
 21
1192.5
  0
LINE
  8
_f-0_
  6
CONTINUOUS
 62
  136
 10
385
 20
277.50000000000341
 11
1714.9999999999989
 21
277.50000000000341
  0
LINE
  8
_f-0_
  6
CONTINUOUS
 62
  136
 10
385
 20
1192.5
 11
385
 21
277.50000000000341
  0
LINE
  8
_f-0_
  6
CONTINUOUS
 62
  136
 10
1714.9999999999989
 20
1192.5
 11
1714.9999999999989
 21
277.50000000000341
  0
LINE
  8
_f-0_
  6
CONTINUOUS
 62
    6
 10
1714.9999999999989
 20
1152.5
 11
385
 21
1152.5
  0
LINE
  8
_f-f_
  6
CONTINUOUS
 62
    9
 10
310
 20
217.5
 11
310
 21
1267.5
  0
LINE
  8
_f-f_
  6
CONTINUOUS
 62
    9
 10
1790
 20
217.5
 11
310
 21
217.5
  0
LINE
  8
_f-f_
  6
CONTINUOUS
 62
    9
 10
1790
 20
1267.5
 11
310
 21
1267.5
  0
LINE
  8
_f-f_
  6
CONTINUOUS
 62
    9
 10
1790
 20
1267.5
 11
1790
 21
217.5
  0
LINE
  8
ADD_LINE
  6
DOT
 62
  136
 10
1764.9999999999989
 20
1242.5
 11
335
 21
1242.5
  0
LINE
  8
ADD_LINE
  6
DOT
 62
  136
 10
335
 20
242.50000000000227
 11
335
 21
1242.5
  0
LINE
  8
ADD_LINE
  6
DOT
 62
  136
 10
1765
 20
1242.5
 11
1765
 21
242.5
  0
LINE
  8
ADD_LINE
  6
DOT
 62
  136
 10
1765
 20
242.5
 11
335.00000000000114
 21
242.5
  0
LINE
  8
_0-5_金属
  6
CONTINUOUS
 62
    7
 10
957.23527467667736
 20
563.66676238327932
 11
957.23527467667736
 21
605.06676238327918
  0
LINE
  8
_0-5_金属
  6
CONTINUOUS
 62
    7
 10
959.53527467667982
 20
563.66676238327932
 11
959.53527467667982
 21
605.06676238327918
  0
ARC
  8
_0-5_金属
  6
CONTINUOUS
 62
    7
 10
863.83527467667818
 20
563.66676238327932
 40
4.2999999999999989
 50
180
 51
270
  0
LINE
  8
_0-5_金属
  6
CONTINUOUS
 62
    7
 10
863.83527467667818
 20
559.36676238327868
 11
879.53527467667755
 21
559.36676238327868
  0
LINE
  8
_0-5_金属
  6
CONTINUOUS
 62
    7
 10
859.53527467667755
 20
563.66676238327932
 11
859.53527467667755
 21
605.06676238327918
  0
ARC
  8
_0-5_金属
  6
CONTINUOUS
 62
    7
 10
863.83527467667818
 20
605.06676238327918
 40
4.2999999999999989
 50
90
 51
180
  0
LINE
  8
_0-5_金属
  6
CONTINUOUS
 62
    7
 10
863.83527467667818
 20
609.36676238327982
 11
955.23527467667918
 21
609.36676238327982
  0
ARC
  8
_0-5_金属
  6
CONTINUOUS
 62
    7
 10
955.23527467667918
 20
605.06676238327918
 40
4.2999999999999989
 50
0
 51
90
  0
ARC
  8
_0-5_金属
  6
CONTINUOUS
 62
    7
 10
955.23527467667918
 20
563.66676238327932
 40
4.2999999999999989
 50
270
 51
0
  0
LINE
  8
_0-5_金属
  6
CONTINUOUS
 62
    7
 10
955.23527467667918
 20
559.36676238327868
 11
939.53527467667755
 21
559.36676238327868
  0
ARC
  8
_0-5_金属
  6
CONTINUOUS
 62
    7
 10
955.23527467667918
 20
563.66676238327932
 40
2
 50
270
 51
0
  0
LINE
  8
_0-5_金属
  6
CONTINUOUS
 62
    7
 10
955.23527467667918
 20
561.66676238327886
 11
939.53527467667755
 21
561.66676238327886
  0
ARC
  8
_0-5_金属
  6
CONTINUOUS
 62
    7
 10
955.23527467667918
 20
605.06676238327918
 40
2
 50
0
 51
90.000000000000014
  0
LINE
  8
_0-5_金属
  6
CONTINUOUS
 62
    7
 10
955.23527467667918
 20
607.0667623832785
 11
863.83527467667818
 21
607.0667623832785
  0
ARC
  8
_0-5_金属
  6
CONTINUOUS
 62
    7
 10
863.83527467667818
 20
605.06676238327918
 40
2
 50
90
 51
180
  0
LINE
  8
_0-5_金属
  6
CONTINUOUS
 62
    7
 10
861.83527467668
 20
605.06676238327918
 11
861.83527467668
 21
563.66676238327932
  0
ARC
  8
_0-5_金属
  6
CONTINUOUS
 62
    7
 10
863.83527467667818
 20
563.66676238327932
 40
2
 50
180
 51
270
  0
LINE
  8
_0-5_金属
  6
CONTINUOUS
 62
    7
 10
863.83527467667818
 20
561.66676238327886
 11
879.53527467667755
 21
561.66676238327886
  0
LINE
  8
_0-5_金属
  6
CONTINUOUS
 62
    7
 10
957.23527467667736
 20
863.66676238327932
 11
957.23527467667736
 21
905.06676238328032
  0
ARC
  8
_0-5_金属
  6
CONTINUOUS
 62
    7
 10
863.83527467667818
 20
863.66676238327932
 40
4.2999999999999989
 50
180
 51
270
  0
LINE
  8
_0-5_金属
  6
CONTINUOUS
 62
    7
 10
863.83527467667818
 20
859.36676238327868
 11
879.53527467667755
 21
859.36676238327868
  0
LINE
  8
_0-5_金属
  6
CONTINUOUS
 62
    7
 10
859.53527467667755
 20
863.66676238327932
 11
859.53527467667755
 21
905.06676238328032
  0
ARC
  8
_0-5_金属
  6
CONTINUOUS
 62
    7
 10
863.83527467667818
 20
905.06676238328032
 40
4.2999999999999989
 50
90
 51
180
  0
ARC
  8
_0-5_金属
  6
CONTINUOUS
 62
    7
 10
955.23527467667918
 20
905.06676238328032
 40
4.2999999999999989
 50
0
 51
90
  0
ARC
  8
_0-5_金属
  6
CONTINUOUS
 62
    7
 10
955.23527467667918
 20
863.66676238327932
 40
4.2999999999999989
 50
270
 51
0
  0
LINE
  8
_0-5_金属
  6
CONTINUOUS
 62
    7
 10
955.23527467667918
 20
859.36676238327868
 11
939.53527467667755
 21
859.36676238327868
  0
ARC
  8
_0-5_金属
  6
CONTINUOUS
 62
    7
 10
955.23527467667918
 20
863.66676238327932
 40
2
 50
270
 51
0
  0
LINE
  8
_0-5_金属
  6
CONTINUOUS
 62
    7
 10
955.23527467667918
 20
861.66676238327886
 11
939.53527467667755
 21
861.66676238327886
  0
ARC
  8
_0-5_金属
  6
CONTINUOUS
 62
    7
 10
955.23527467667918
 20
905.06676238328032
 40
2
 50
0
 51
90.000000000000014
  0
ARC
  8
_0-5_金属
  6
CONTINUOUS
 62
    7
 10
863.83527467667818
 20
905.06676238328032
 40
2
 50
90
 51
180
  0
LINE
  8
_0-5_金属
  6
CONTINUOUS
 62
    7
 10
861.83527467668
 20
905.06676238328032
 11
861.83527467668
 21
863.66676238327932
  0
ARC
  8
_0-5_金属
  6
CONTINUOUS
 62
    7
 10
863.83527467667818
 20
863.66676238327932
 40
2
 50
180
 51
270
  0
LINE
  8
_0-5_金属
  6
CONTINUOUS
 62
    7
 10
863.83527467667818
 20
861.66676238327886
 11
879.53527467667755
 21
861.66676238327886
  0
LINE
  8
_0-5_金属
  6
CONTINUOUS
 62
    7
 10
939.53527467667755
 20
861.66676238327886
 11
939.53527467667755
 21
859.36676238327868
  0
LINE
  8
_0-5_金属
  6
CONTINUOUS
 62
    7
 10
879.53527467667755
 20
861.66676238327886
 11
879.53527467667755
 21
859.36676238327868
  0
LINE
  8
_0-5_金属
  6
CONTINUOUS
 62
    7
 10
939.53527467667755
 20
859.36676238327868
 11
939.53527467667755
 21
609.36676238327982
  0
LINE
  8
_0-5_金属
  6
CONTINUOUS
 62
    7
 10
879.53527467667755
 20
859.36676238327868
 11
879.53527467667755
 21
609.36676238327982
  0
LINE
  8
_0-5_金属
  6
CONTINUOUS
 62
    7
 10
955.23527467667918
 20
907.0667623832785
 11
863.83527467667818
 21
907.0667623832785
  0
LINE
  8
_0-5_金属
  6
CONTINUOUS
 62
    7
 10
863.83527467667818
 20
909.36676238327868
 11
955.23527467667918
 21
909.36676238327868
  0
LINE
  8
_0-5_金属
  6
CONTINUOUS
 62
    7
 10
859.53527467667755
 20
863.66676238327932
 11
859.53527467667755
 21
605.06676238327918
  0
LINE
  8
_0-2_線色２__白__
  6
CONTINUOUS
 62
    7
 10
959.53527467667982
 20
605.06676238327918
 11
959.53527467667982
 21
909.36676238327868
  0
LINE
  8
_0-5_金属
  6
CONTINUOUS
 62
    7
 10
959.53527467667755
 20
863.66676238327932
 11
959.53527467667755
 21
905.06676238328032
  0
LINE
  8
_0-5_金属
  6
CONTINUOUS
 62
    7
 10
879.53527467667755
 20
561.66676238327886
 11
879.53527467667755
 21
559.36676238327868
  0
LINE
  8
_0-5_金属
  6
CONTINUOUS
 62
    7
 10
939.53527467667755
 20
561.66676238327886
 11
939.53527467667755
 21
559.36676238327868
  0
LINE
  8
_0-2_線色２__白__
  6
CONTINUOUS
 62
    7
 10
824.53527467667755
 20
907.3667623832805
 11
859.53527467667755
 21
907.3667623832805
  0
LINE
  8
_0-d_断熱__ハッチ
  6
CONTINUOUS
 62
    4
 10
857.79175665220237
 20
907.3667623832805
 11
859.53527467667755
 21
909.11028040775454
  0
LINE
  8
_0-d_断熱__ハッチ
  6
CONTINUOUS
 62
    4
 10
854.25622274627017
 20
907.3667623832805
 11
856.25622274626949
 21
909.36676238327982
  0
LINE
  8
_0-d_断熱__ハッチ
  6
CONTINUOUS
 62
    4
 10
850.7206888403357
 20
907.3667623832805
 11
852.72068884033615
 21
909.36676238327982
  0
LINE
  8
_0-d_断熱__ハッチ
  6
CONTINUOUS
 62
    4
 10
847.1851549344035
 20
907.36676238328164
 11
849.18515493440395
 21
909.36676238328096
  0
LINE
  8
_0-d_断熱__ハッチ
  6
CONTINUOUS
 62
    4
 10
843.6496210284713
 20
907.36676238328164
 11
845.64962102847062
 21
909.36676238328096
  0
LINE
  8
_0-d_断熱__ハッチ
  6
CONTINUOUS
 62
    4
 10
840.11408712253683
 20
907.3667623832805
 11
842.11408712253615
 21
909.36676238328096
  0
LINE
  8
_0-d_断熱__ハッチ
  6
CONTINUOUS
 62
    4
 10
836.5785532166035
 20
907.3667623832805
 11
838.57855321660281
 21
909.36676238328096
  0
LINE
  8
_0-d_断熱__ハッチ
  6
CONTINUOUS
 62
    4
 10
833.04301931068039
 20
907.3667623832805
 11
835.04301931067857
 21
909.36676238328096
  0
LINE
  8
_0-d_断熱__ハッチ
  6
CONTINUOUS
 62
    4
 10
829.50748540474592
 20
907.3667623832805
 11
831.50748540474297
 21
909.36676238327755
  0
LINE
  8
_0-d_断熱__ハッチ
  6
CONTINUOUS
 62
    4
 10
825.97195149881372
 20
907.36676238328164
 11
827.97195149881077
 21
909.36676238327868
  0
LINE
  8
_0-2_線色２__白__
  6
CONTINUOUS
 62
    7
 10
959.53527467667982
 20
909.36676238327868
 11
977.5352746766805
 21
909.36676238327868
  0
LINE
  8
_0-2_線色２__白__
  6
CONTINUOUS
 62
    7
 10
977.5352746766805
 20
510.56676238327981
 11
977.5352746766805
 21
909.36676238327868
  0
LINE
  8
_0-d_断熱__ハッチ
  6
CONTINUOUS
 62
    4
 10
969.53161091219044
 20
510.56676238327867
 11
977.53527467668164
 21
518.57042614776992
  0
LINE
  8
_0-d_断熱__ハッチ
  6
CONTINUOUS
 62
    4
 10
960.73527467667986
 20
512.37702786556815
 11
977.5352746766805
 21
529.17702786556879
  0
LINE
  8
_0-d_断熱__ハッチ
  6
CONTINUOUS
 62
    4
 10
960.73527467667873
 20
522.98362958336361
 11
977.53527467667936
 21
539.78362958336311
  0
LINE
  8
_0-d_断熱__ハッチ
  6
CONTINUOUS
 62
    4
 10
960.73527467667873
 20
533.59023130115679
 11
977.5352746766805
 21
550.3902313011597
  0
LINE
  8
_0-d_断熱__ハッチ
  6
CONTINUOUS
 62
    4
 10
960.73527467667759
 20
544.1968330189568
 11
977.53527467667936
 21
560.99683301895971
  0
LINE
  8
_0-d_断熱__ハッチ
  6
CONTINUOUS
 62
    4
 10
960.73527467667873
 20
554.80343473675794
 11
977.53527467668164
 21
571.60343473676085
  0
LINE
  8
_0-d_断熱__ハッチ
  6
CONTINUOUS
 62
    4
 10
960.73527467667986
 20
565.41003645455908
 11
977.5352746766805
 21
582.21003645455971
  0
LINE
  8
_0-d_断熱__ハッチ
  6
CONTINUOUS
 62
    4
 10
960.735274676681
 20
576.01663817235567
 11
977.53527467667936
 21
592.81663817235517
  0
LINE
  8
_0-d_断熱__ハッチ
  6
CONTINUOUS
 62
    4
 10
960.73527467667986
 20
586.62323989014999
 11
977.53527467668164
 21
603.42323989015063
  0
LINE
  8
_0-d_断熱__ハッチ
  6
CONTINUOUS
 62
    4
 10
960.73527467667986
 20
597.22984160794999
 11
977.5352746766805
 21
614.02984160795063
  0
LINE
  8
_0-d_断熱__ハッチ
  6
CONTINUOUS
 62
    4
 10
960.73527467667873
 20
607.83644332575
 11
977.53527467668164
 21
624.63644332575177
  0
LINE
  8
_0-d_断熱__ハッチ
  6
CONTINUOUS
 62
    4
 10
959.53527467668096
 20
617.24304504355109
 11
977.5352746766805
 21
635.24304504355064
  0
LINE
  8
_0-d_断熱__ハッチ
  6
CONTINUOUS
 62
    4
 10
959.53527467667982
 20
627.84964676134541
 11
977.5352746766805
 21
645.84964676134609
  0
LINE
  8
_0-d_断熱__ハッチ
  6
CONTINUOUS
 62
    4
 10
959.53527467668096
 20
638.456248479142
 11
977.53527467668164
 21
656.45624847914269
  0
LINE
  8
_0-d_断熱__ハッチ
  6
CONTINUOUS
 62
    4
 10
959.53527467667982
 20
649.06285019694201
 11
977.5352746766805
 21
667.06285019694155
  0
LINE
  8
_0-d_断熱__ハッチ
  6
CONTINUOUS
 62
    4
 10
959.53527467667868
 20
659.66945191473974
 11
977.53527467668164
 21
677.66945191474269
  0
LINE
  8
_0-d_断熱__ハッチ
  6
CONTINUOUS
 62
    4
 10
959.53527467668096
 20
670.27605363254202
 11
977.5352746766805
 21
688.27605363254156
  0
LINE
  8
_0-d_断熱__ハッチ
  6
CONTINUOUS
 62
    4
 10
959.53527467667982
 20
680.88265535033747
 11
977.5352746766805
 21
698.88265535033702
  0
LINE
  8
_0-d_断熱__ハッチ
  6
CONTINUOUS
 62
    4
 10
959.53527467668096
 20
691.48925706813293
 11
977.53527467668164
 21
709.48925706813475
  0
LINE
  8
_0-d_断熱__ハッチ
  6
CONTINUOUS
 62
    4
 10
959.53527467667982
 20
702.09585878593293
 11
977.5352746766805
 21
720.09585878593248
  0
LINE
  8
_0-d_断熱__ハッチ
  6
CONTINUOUS
 62
    4
 10
959.53527467667868
 20
712.70246050373066
 11
977.53527467668164
 21
730.70246050373476
  0
LINE
  8
_0-d_断熱__ハッチ
  6
CONTINUOUS
 62
    4
 10
959.53527467668096
 20
723.30906222153294
 11
977.5352746766805
 21
741.30906222153249
  0
LINE
  8
_0-d_断熱__ハッチ
  6
CONTINUOUS
 62
    4
 10
959.53527467668096
 20
733.9156639393284
 11
977.5352746766805
 21
751.91566393932794
  0
LINE
  8
_0-d_断熱__ハッチ
  6
CONTINUOUS
 62
    4
 10
959.53527467668096
 20
744.52226565712385
 11
977.53527467668277
 21
762.52226565712567
  0
LINE
  8
_0-d_断熱__ハッチ
  6
CONTINUOUS
 62
    4
 10
959.53527467667982
 20
755.12886737492386
 11
977.53527467668164
 21
773.12886737492454
  0
LINE
  8
_0-d_断熱__ハッチ
  6
CONTINUOUS
 62
    4
 10
959.53527467667982
 20
765.73546909272159
 11
977.53527467668164
 21
783.73546909272454
  0
LINE
  8
_0-d_断熱__ハッチ
  6
CONTINUOUS
 62
    4
 10
959.53527467668096
 20
776.34207081052386
 11
977.5352746766805
 21
794.34207081052341
  0
LINE
  8
_0-d_断熱__ハッチ
  6
CONTINUOUS
 62
    4
 10
959.53527467668096
 20
786.94867252831932
 11
977.53527467668164
 21
804.94867252832
  0
LINE
  8
_0-d_断熱__ハッチ
  6
CONTINUOUS
 62
    4
 10
959.53527467668096
 20
797.55527424611478
 11
977.5352746766805
 21
815.55527424611432
  0
LINE
  8
_0-d_断熱__ハッチ
  6
CONTINUOUS
 62
    4
 10
959.53527467667982
 20
808.16187596391478
 11
977.53527467668164
 21
826.1618759639166
  0
LINE
  8
_0-d_断熱__ハッチ
  6
CONTINUOUS
 62
    4
 10
959.53527467667982
 20
818.76847768171251
 11
977.53527467668164
 21
836.76847768171547
  0
LINE
  8
_0-d_断熱__ハッチ
  6
CONTINUOUS
 62
    4
 10
959.53527467668096
 20
829.37507939951479
 11
977.5352746766805
 21
847.37507939951433
  0
LINE
  8
_0-d_断熱__ハッチ
  6
CONTINUOUS
 62
    4
 10
959.53527467668209
 20
839.98168111731593
 11
977.53527467668164
 21
857.98168111731661
  0
LINE
  8
_0-d_断熱__ハッチ
  6
CONTINUOUS
 62
    4
 10
959.53527467668096
 20
850.5882828351057
 11
977.5352746766805
 21
868.58828283510525
  0
LINE
  8
_0-d_断熱__ハッチ
  6
CONTINUOUS
 62
    4
 10
959.53527467667982
 20
861.19488455290571
 11
977.53527467668277
 21
879.19488455290752
  0
LINE
  8
_0-d_断熱__ハッチ
  6
CONTINUOUS
 62
    4
 10
959.53527467667982
 20
871.80148627070344
 11
977.53527467668164
 21
889.80148627070639
  0
LINE
  8
_0-d_断熱__ハッチ
  6
CONTINUOUS
 62
    4
 10
959.53527467668096
 20
882.40808798850571
 11
977.5352746766805
 21
900.40808798850526
  0
LINE
  8
_0-d_断熱__ハッチ
  6
CONTINUOUS
 62
    4
 10
959.53527467667982
 20
893.01468970630572
 11
975.88734735365506
 21
909.36676238327868
  0
LINE
  8
_0-d_断熱__ハッチ
  6
CONTINUOUS
 62
    4
 10
959.53527467668096
 20
903.62129142409663
 11
965.28074563586188
 21
909.36676238327868
  0
LINE
  8
_0-5_金属
  6
CONTINUOUS
 62
    7
 10
1189.9331697766752
 20
508.12811138501019
 11
1197.8253197766742
 21
497.2454613850104
  0
LINE
  8
_0-5_金属
  6
CONTINUOUS
 62
    7
 10
1213.1367197766747
 20
460.61281138501016
 11
1193.0388197766752
 21
488.49581138500952
  0
LINE
  8
_0-5_金属
  6
CONTINUOUS
 62
    7
 10
1195.2873697766745
 20
493.45701138500971
 11
1195.4864697766743
 21
493.47291138501049
  0
LINE
  8
_0-5_金属
  6
CONTINUOUS
 62
    7
 10
1195.383019776674
 20
492.26086138501017
 11
1195.5823197766745
 21
492.27681138501083
  0
LINE
  8
_0-5_金属
  6
CONTINUOUS
 62
    7
 10
1214.1102197766747
 20
461.31446138501104
 11
1194.0122697766753
 21
489.19751138501027
  0
LINE
  8
_0-5_金属
  6
CONTINUOUS
 62
    7
 10
1188.9617197766745
 20
507.42361138501082
 11
1196.8538697766746
 21
496.5410113850109
  0
LINE
  8
_0-5_金属
  6
CONTINUOUS
 62
    7
 10
1140.2814197766747
 20
509.36676138501042
 11
1187.5045697766745
 21
509.36676138501042
  0
LINE
  8
_0-5_金属
  6
CONTINUOUS
 62
    7
 10
1140.2816697766752
 20
508.16681138501025
 11
1187.5045697766745
 21
508.16681138501025
  0
LINE
  8
_0-5_金属
  6
CONTINUOUS
 62
    7
 10
976.53531977667512
 20
472.36676138500997
 11
990.33511977667445
 21
472.36676138500997
  0
LINE
  8
_0-5_金属
  6
CONTINUOUS
 62
    7
 10
991.42761977667419
 20
467.49186138501017
 11
987.98661977667507
 21
465.2471613850102
  0
LINE
  8
_0-5_金属
  6
CONTINUOUS
 62
    7
 10
992.08321977667424
 20
466.48681138501018
 11
988.64226977667499
 21
464.24216138501009
  0
LINE
  8
_0-5_金属
  6
CONTINUOUS
 62
    7
 10
976.53531977667512
 20
471.16681138500979
 11
990.33511977667445
 21
471.16681138500979
  0
LINE
  8
_0-5_金属
  6
CONTINUOUS
 62
    7
 10
959.53527467667982
 20
459.36676138501042
 11
1109.5352746766798
 21
459.36676138501042
  0
LINE
  8
_0-5_金属
  6
CONTINUOUS
 62
    7
 10
1055.244319776674
 20
497.24556138501015
 11
1063.1364697766753
 21
508.12811138501019
  0
LINE
  8
_0-5_金属
  6
CONTINUOUS
 62
    7
 10
1060.0307697766755
 20
488.49581138500952
 11
1039.9327697766751
 21
460.61276138501029
  0
LINE
  8
_0-5_金属
  6
CONTINUOUS
 62
    7
 10
1057.5831197766752
 20
493.47301138501024
 11
1057.782219776675
 21
493.45706138501072
  0
LINE
  8
_0-5_金属
  6
CONTINUOUS
 62
    7
 10
1057.4871197766754
 20
492.27671138500995
 11
1057.6863697766748
 21
492.26071138501055
  0
LINE
  8
_0-5_金属
  6
CONTINUOUS
 62
    7
 10
1059.0573197766741
 20
489.19741138500939
 11
1038.9593197766749
 21
461.31441138501003
  0
LINE
  8
_0-5_金属
  6
CONTINUOUS
 62
    7
 10
1056.2157697766747
 20
496.54111138501065
 11
1064.1078197766751
 21
507.42361138501082
  0
LINE
  8
_0-5_金属
  6
CONTINUOUS
 62
    7
 10
989.73526977667461
 20
460.56696138500996
 11
1037.4991697766745
 21
460.56696138500996
  0
LINE
  8
_0-5_金属
  6
CONTINUOUS
 62
    7
 10
1065.5651197766747
 20
509.36676138501042
 11
1112.788969776675
 21
509.36676138501042
  0
LINE
  8
_0-5_金属
  6
CONTINUOUS
 62
    7
 10
1065.5651197766747
 20
508.16681138501025
 11
1112.788969776675
 21
508.16681138501025
  0
LINE
  8
_0-5_金属
  6
CONTINUOUS
 62
    7
 10
962.73526977667416
 20
472.36676138500997
 11
976.53531977667512
 21
472.36676138500997
  0
LINE
  8
_0-5_金属
  6
CONTINUOUS
 62
    7
 10
962.73526977667416
 20
471.16681138500979
 11
976.53531977667512
 21
471.16681138500979
  0
LINE
  8
_0-5_金属
  6
CONTINUOUS
 62
    7
 10
960.73551977667535
 20
469.16681138501048
 11
960.73551977667535
 21
467.9668613850103
  0
LINE
  8
_0-5_金属
  6
CONTINUOUS
 62
    7
 10
959.53556977667404
 20
469.16681138501048
 11
959.53556977667404
 21
467.9668613850103
  0
LINE
  8
_0-5_金属
  6
CONTINUOUS
 62
    7
 10
960.38596977667453
 20
465.36726138501052
 11
961.35421977667534
 21
466.0764613850094
  0
LINE
  8
_0-5_金属
  6
CONTINUOUS
 62
    7
 10
959.53581977667454
 20
467.96691138501018
 11
963.93596977667471
 21
467.96691138501018
  0
LINE
  8
_0-5_金属
  6
CONTINUOUS
 62
    7
 10
963.93541977667496
 20
467.96691138501018
 11
960.38561977667541
 21
465.3668613850104
  0
LINE
  8
_0-5_金属
  6
CONTINUOUS
 62
    7
 10
1125.2595197766743
 20
498.09631138501089
 11
1114.9145197766745
 21
508.48356138500975
  0
LINE
  8
_0-5_金属
  6
CONTINUOUS
 62
    7
 10
1124.4092197766747
 20
497.24951138501041
 11
1114.0642697766748
 21
507.63671138500939
  0
LINE
  8
_0-5_金属
  6
CONTINUOUS
 62
    7
 10
1138.155519776675
 20
508.48381138501026
 11
1127.8101697766749
 21
498.09626138500988
  0
LINE
  8
_0-5_金属
  6
CONTINUOUS
 62
    7
 10
1139.0060197766741
 20
507.63701138501091
 11
1128.6605697766743
 21
497.24931138500978
  0
ARC
  8
_0-5_金属
  6
CONTINUOUS
 62
    7
 10
1195.2347697766754
 20
495.36676138500951
 40
3.1999969500000001
 50
0.000035
 51
35.949935000000004
  0
ARC
  8
_0-5_金属
  6
CONTINUOUS
 62
    7
 10
1195.2347697766754
 20
495.36676138500951
 40
1.9999961500000005
 50
0.000035
 51
35.949717000000007
  0
ARC
  8
_0-5_金属
  6
CONTINUOUS
 62
    7
 10
1195.6346697766753
 20
490.36676138500951
 40
2.0000114
 50
180.00009000000003
 51
216.07594000000003
  0
ARC
  8
_0-5_金属
  6
CONTINUOUS
 62
    7
 10
1195.534819776675
 20
490.36676138500951
 40
3.1000213500000005
 50
94.576591000000008
 51
179.99990000000003
  0
ARC
  8
_0-5_金属
  6
CONTINUOUS
 62
    7
 10
1195.3346197766746
 20
495.36676138500951
 40
3.0999907999999996
 50
274.58181000000002
 51
359.99996000000004
  0
ARC
  8
_0-5_金属
  6
CONTINUOUS
 62
    7
 10
1195.6346697766753
 20
490.36676138500951
 40
3.2000122000000002
 50
180.00009000000003
 51
215.78394000000003
  0
ARC
  8
_0-5_金属
  6
CONTINUOUS
 62
    7
 10
1195.3346197766746
 20
495.36676138500951
 40
1.8999938500000002
 50
274.57776999999999
 51
359.99995999999999
  0
ARC
  8
_0-5_金属
  6
CONTINUOUS
 62
    7
 10
1195.534819776675
 20
490.36676138500951
 40
1.9000091499999998
 50
94.580906999999996
 51
179.9999
  0
ARC
  8
_0-5_金属
  6
CONTINUOUS
 62
    7
 10
1215.5704697766748
 20
462.36701138501047
 40
1.7999992
 50
215.78405000000001
 51
270.00022999999999
  0
ARC
  8
_0-5_金属
  6
CONTINUOUS
 62
    7
 10
1215.5704697766748
 20
462.36701138501047
 40
2.9999989999999999
 50
215.78405000000001
 51
270.00022999999999
  0
ARC
  8
_0-5_金属
  6
CONTINUOUS
 62
    7
 10
1187.5045697766745
 20
506.36676138501088
 40
1.7999992
 50
35.949661999999996
 51
89.999489999999994
  0
ARC
  8
_0-5_金属
  6
CONTINUOUS
 62
    7
 10
1187.5045697766745
 20
506.36676138501088
 40
3.0000000000000004
 50
35.949770999999998
 51
89.999654000000007
  0
ARC
  8
_0-5_金属
  6
CONTINUOUS
 62
    7
 10
989.73501977667524
 20
462.56696138501042
 40
3.2000007500000005
 50
123.11782000000001
 51
269.99982999999997
  0
ARC
  8
_0-5_金属
  6
CONTINUOUS
 62
    7
 10
990.33486977667508
 20
469.16681138501048
 40
3.1999998000000001
 50
0.000035
 51
89.999927
  0
ARC
  8
_0-5_金属
  6
CONTINUOUS
 62
    7
 10
990.33486977667508
 20
469.16681138501048
 40
1.9999990000000001
 50
0.000035
 51
89.999927
  0
ARC
  8
_0-5_金属
  6
CONTINUOUS
 62
    7
 10
989.73501977667524
 20
462.56696138501042
 40
2
 50
123.11782000000001
 51
269.99982999999997
  0
ARC
  8
_0-5_金属
  6
CONTINUOUS
 62
    7
 10
990.33486977667508
 20
469.16681138501048
 40
1.9999990000000001
 50
303.11781999999999
 51
359.99995999999999
  0
ARC
  8
_0-5_金属
  6
CONTINUOUS
 62
    7
 10
990.33486977667508
 20
469.16681138501048
 40
3.1999998000000001
 50
303.11781999999999
 51
359.99995999999999
  0
ARC
  8
_0-5_金属
  6
CONTINUOUS
 62
    7
 10
1057.8348697766751
 20
495.36676138500951
 40
3.1999969500000001
 50
144.05005000000003
 51
179.99995999999999
  0
ARC
  8
_0-5_金属
  6
CONTINUOUS
 62
    7
 10
1057.8348697766751
 20
495.36676138500951
 40
1.9999961500000005
 50
144.05027000000001
 51
179.99995999999999
  0
ARC
  8
_0-5_金属
  6
CONTINUOUS
 62
    7
 10
1057.4347197766747
 20
490.36676138500951
 40
2.0000114
 50
323.92410000000001
 51
359.99995999999999
  0
ARC
  8
_0-5_金属
  6
CONTINUOUS
 62
    7
 10
1057.5348197766743
 20
490.36676138500951
 40
3.1000213500000005
 50
0.000035
 51
85.42326300000002
  0
ARC
  8
_0-5_金属
  6
CONTINUOUS
 62
    7
 10
1057.7347697766743
 20
495.36676138500951
 40
3.0999907999999996
 50
180.00009000000003
 51
265.41831999999999
  0
ARC
  8
_0-5_金属
  6
CONTINUOUS
 62
    7
 10
1057.4347197766747
 20
490.36676138500951
 40
3.2000122000000002
 50
324.21611000000001
 51
359.99995999999999
  0
ARC
  8
_0-5_金属
  6
CONTINUOUS
 62
    7
 10
1057.7347697766743
 20
495.36676138500951
 40
1.8999938500000002
 50
180.00009000000003
 51
265.42237
  0
ARC
  8
_0-5_金属
  6
CONTINUOUS
 62
    7
 10
1057.5348197766743
 20
490.36676138500951
 40
1.9000091499999998
 50
0.000035
 51
85.418946000000005
  0
ARC
  8
_0-5_金属
  6
CONTINUOUS
 62
    7
 10
1037.4991697766745
 20
462.36701138501047
 40
1.7999992
 50
269.99990000000003
 51
324.21600000000001
  0
ARC
  8
_0-5_金属
  6
CONTINUOUS
 62
    7
 10
1037.4991697766745
 20
462.36701138501047
 40
2.9999989999999999
 50
269.99990000000003
 51
324.21600000000001
  0
ARC
  8
_0-5_金属
  6
CONTINUOUS
 62
    7
 10
1065.5648697766742
 20
506.36676138501088
 40
1.7999992
 50
90.000364000000005
 51
144.05026999999998
  0
ARC
  8
_0-5_金属
  6
CONTINUOUS
 62
    7
 10
1065.5648697766742
 20
506.36676138501088
 40
3.0000000000000004
 50
90.000200000000021
 51
144.05016000000001
  0
ARC
  8
_0-5_金属
  6
CONTINUOUS
 62
    7
 10
962.73501977667479
 20
469.16681138501048
 40
3.1999998000000001
 50
89.999927
 51
179.99990000000003
  0
ARC
  8
_0-5_金属
  6
CONTINUOUS
 62
    7
 10
962.73501977667479
 20
469.16681138501048
 40
1.9999990000000001
 50
89.999927
 51
179.99990000000003
  0
ARC
  8
_0-5_金属
  6
CONTINUOUS
 62
    7
 10
963.93546977667484
 20
467.9668613850103
 40
3.2001952999999999
 50
180.00009000000003
 51
216.22260000000003
  0
ARC
  8
_0-5_金属
  6
CONTINUOUS
 62
    7
 10
963.93546977667484
 20
467.9668613850103
 40
4.4001951000000004
 50
180.00009000000003
 51
216.22041000000002
  0
ARC
  8
_0-5_金属
  6
CONTINUOUS
 62
    7
 10
1126.5348197766741
 20
499.36651138500991
 40
2.9999989999999999
 50
224.88328000000001
 51
315.11669999999998
  0
ARC
  8
_0-5_金属
  6
CONTINUOUS
 62
    7
 10
1126.5348197766741
 20
499.36651138500991
 40
1.79999825
 50
224.57187999999999
 51
315.11669999999998
  0
ARC
  8
_0-5_金属
  6
CONTINUOUS
 62
    7
 10
1112.7887197766745
 20
506.36676138501088
 40
1.7999992
 50
44.880642999999999
 51
89.996648000000008
  0
ARC
  8
_0-5_金属
  6
CONTINUOUS
 62
    7
 10
1112.7887197766745
 20
506.36676138501088
 40
3.0000000000000004
 50
44.881701999999997
 51
89.998013999999998
  0
ARC
  8
_0-5_金属
  6
CONTINUOUS
 62
    7
 10
1140.2811697766742
 20
506.36676138501088
 40
3.0000000000000004
 50
89.997741000000005
 51
135.11528999999999
  0
ARC
  8
_0-5_金属
  6
CONTINUOUS
 62
    7
 10
1140.2814197766747
 20
506.36676138501088
 40
1.7999992
 50
89.999435000000005
 51
135.11660000000001
  0
LINE
  8
ADD_LINE
  6
DOT
 62
    4
 10
976.53411977667474
 20
491.07881138501028
 11
976.53411977667474
 21
414.97960274840551
  0
LINE
  8
ADD_LINE
  6
DOT
 62
    4
 10
1126.5344197766751
 20
525.46031138501098
 11
1126.5344197766751
 21
414.97960274840551
  0
LINE
  8
_0-5_金属
  6
CONTINUOUS
 62
    7
 10
1215.6007697766745
 20
459.36676138501042
 11
1239.452544776675
 21
459.36676138501042
  0
LINE
  8
_0-5_金属
  6
CONTINUOUS
 62
    7
 10
1215.5704697766748
 20
460.56696138500996
 11
1239.452544776675
 21
460.56696138500996
  0
LINE
  8
_0-a_文字
  6
CONTINUOUS
 62
    7
 10
1162.3299927216124
 20
434.36676138501042
 11
1182.3299927216124
 21
434.36676138501042
  0
LINE
  8
_0-a_文字
  6
CONTINUOUS
 62
    7
 10
1126.5345197766749
 20
496.36633920659705
 11
1162.3299927216124
 21
434.36676138501042
  0
LINE
  8
_0-2_線色２__白__
  6
CONTINUOUS
 62
    7
 10
978.73527467668055
 20
880.56676238327987
 11
977.5352746766805
 21
878.48830141419717
  0
LINE
  8
_0-4_線色４__黄__
  6
CONTINUOUS
 62
    2
 10
983.73527467668055
 20
879.22701642112406
 11
982.53527467668277
 21
877.14855545204477
  0
LINE
  8
_0-4_線色４__黄__
  6
CONTINUOUS
 62
    2
 10
983.73527467668055
 20
912.56676238327918
 11
983.73527467668055
 21
879.22701642112406
  0
ARC
  8
_0-4_線色４__黄__
  6
CONTINUOUS
 62
    2
 10
980.73527467667986
 20
912.56676238327918
 40
3
 50
0
 51
90
  0
LINE
  8
_0-d_断熱__ハッチ
  6
CONTINUOUS
 62
    4
 10
1226.0459203052903
 20
509.36676238327863
 11
1239.4525447766762
 21
522.77338685466452
  0
LINE
  8
_0-d_断熱__ハッチ
  6
CONTINUOUS
 62
    4
 10
977.5352746766805
 20
519.26760648203958
 11
986.23611877544022
 21
510.56676238327981
  0
LINE
  8
_0-2_線色２__白__
  6
CONTINUOUS
 62
    7
 10
1160.7352746766799
 20
509.36676238327976
 11
1239.452544776675
 21
509.36676238327976
  0
LINE
  8
_0-5_金属
  6
CONTINUOUS
 62
    7
 10
959.53527467667982
 20
863.66676238327932
 11
959.53527467667982
 21
605.06676238327918
  0
LINE
  8
_0-4_線色４__黄__
  6
CONTINUOUS
 62
    2
 10
1026.180806750034
 20
562.81791117020566
 11
1030.2321553259924
 21
559.36676238327982
  0
LINE
  8
_0-4_線色４__黄__
  6
CONTINUOUS
 62
    2
 10
985.53527467668232
 20
562.81791117020566
 11
1026.180806750034
 21
562.81791117020566
  0
LINE
  8
_0-4_線色４__黄__
  6
CONTINUOUS
 62
    2
 10
1030.2321553259924
 20
559.36676238327982
 11
1036.2292873929243
 21
559.36676238327982
  0
LINE
  8
_0-2_線色２__白__
  6
CONTINUOUS
 62
    7
 10
1025.5352746766823
 20
550.23140304678896
 11
1026.5502876294966
 21
549.36676238327982
  0
LINE
  8
_0-2_線色２__白__
  6
CONTINUOUS
 62
    7
 10
1046.9512647060708
 20
554.4770660149411
 11
1046.9771632555387
 21
554.36676238327982
  0
LINE
  8
_0-2_線色２__白__
  6
CONTINUOUS
 62
    7
 10
1046.905427810392
 20
554.66674096204406
 11
1046.9512647060708
 21
554.4770660149411
  0
LINE
  8
_0-2_線色２__白__
  6
CONTINUOUS
 62
    7
 10
1046.8563014031054
 20
554.85501666421987
 11
1046.905427810392
 21
554.66674096204406
  0
LINE
  8
_0-2_線色２__白__
  6
CONTINUOUS
 62
    7
 10
1046.801803514835
 20
555.04100752341037
 11
1046.8563014031054
 21
554.85501666421987
  0
LINE
  8
_0-2_線色２__白__
  6
CONTINUOUS
 62
    7
 10
1046.7398521762118
 20
555.22382794155965
 11
1046.801803514835
 21
555.04100752341037
  0
LINE
  8
_0-2_線色２__白__
  6
CONTINUOUS
 62
    7
 10
1046.6683654178621
 20
555.40259232060953
 11
1046.7398521762118
 21
555.22382794155965
  0
LINE
  8
_0-2_線色２__白__
  6
CONTINUOUS
 62
    7
 10
1046.6217135645036
 20
555.5040682116587
 11
1046.6683654178621
 21
555.40259232060953
  0
LINE
  8
_0-2_線色２__白__
  6
CONTINUOUS
 62
    7
 10
1046.5856736534181
 20
555.57571986950143
 11
1046.6217135645036
 21
555.5040682116587
  0
LINE
  8
_0-2_線色２__白__
  6
CONTINUOUS
 62
    7
 10
1046.5186531550887
 20
555.69701362320393
 11
1046.5856736534181
 21
555.57571986950143
  0
LINE
  8
_0-2_線色２__白__
  6
CONTINUOUS
 62
    7
 10
1046.4459455889448
 20
555.81542538789654
 11
1046.5186531550887
 21
555.69701362320393
  0
LINE
  8
_0-2_線色２__白__
  6
CONTINUOUS
 62
    7
 10
1046.3681248981982
 20
555.93090632061012
 11
1046.4459455889448
 21
555.81542538789654
  0
LINE
  8
_0-2_線色２__白__
  6
CONTINUOUS
 62
    7
 10
1046.2857650260673
 20
556.04340757836871
 11
1046.3681248981982
 21
555.93090632061012
  0
LINE
  8
_0-2_線色２__白__
  6
CONTINUOUS
 62
    7
 10
1046.1994399157618
 20
556.15288031820546
 11
1046.2857650260673
 21
556.04340757836871
  0
LINE
  8
_0-2_線色２__白__
  6
CONTINUOUS
 62
    7
 10
1046.1477806431242
 20
556.21496759372894
 11
1046.1994399157618
 21
556.15288031820546
  0
LINE
  8
_0-2_線色２__白__
  6
CONTINUOUS
 62
    7
 10
1046.0567120611847
 20
556.31916890193997
 11
1046.1477806431242
 21
556.21496759372894
  0
LINE
  8
_0-2_線色２__白__
  6
CONTINUOUS
 62
    7
 10
1045.8933981899065
 20
556.49244590494936
 11
1046.0567120611847
 21
556.31916890193997
  0
LINE
  8
_0-2_線色２__白__
  6
CONTINUOUS
 62
    7
 10
1045.7233529907978
 20
556.65893204779968
 11
1045.8933981899065
 21
556.49244590494936
  0
LINE
  8
_0-2_線色２__白__
  6
CONTINUOUS
 62
    7
 10
1045.5480208645724
 20
556.82012224572509
 11
1045.7233529907978
 21
556.65893204779968
  0
LINE
  8
_0-2_線色２__白__
  6
CONTINUOUS
 62
    7
 10
1045.3688462119464
 20
556.97751141396657
 11
1045.5480208645724
 21
556.82012224572509
  0
LINE
  8
_0-2_線色２__白__
  6
CONTINUOUS
 62
    7
 10
1045.1872734336359
 20
557.13259446776055
 11
1045.3688462119464
 21
556.97751141396657
  0
LINE
  8
_0-2_線色２__白__
  6
CONTINUOUS
 62
    7
 10
1045.0814315700188
 20
557.22207505166216
 11
1045.1872734336359
 21
557.13259446776055
  0
LINE
  8
_0-2_線色２__白__
  6
CONTINUOUS
 62
    7
 10
1044.9969784006146
 20
557.29333223075491
 11
1045.0814315700188
 21
557.22207505166216
  0
LINE
  8
_0-2_線色２__白__
  6
CONTINUOUS
 62
    7
 10
1044.85087079952
 20
557.41553231067974
 11
1044.9969784006146
 21
557.29333223075491
  0
LINE
  8
_0-2_線色２__白__
  6
CONTINUOUS
 62
    7
 10
1044.7034659578264
 20
557.53586465972694
 11
1044.85087079952
 21
557.41553231067974
  0
LINE
  8
_0-2_線色２__白__
  6
CONTINUOUS
 62
    7
 10
1044.5539894690921
 20
557.65312471212246
 11
1044.7034659578264
 21
557.53586465972694
  0
LINE
  8
_0-2_線色２__白__
  6
CONTINUOUS
 62
    7
 10
1044.4016669268683
 20
557.76610790209224
 11
1044.5539894690921
 21
557.65312471212246
  0
LINE
  8
_0-2_線色２__白__
  6
CONTINUOUS
 62
    7
 10
1044.2457239247153
 20
557.87360966385995
 11
1044.4016669268683
 21
557.76610790209224
  0
LINE
  8
_0-2_線色２__白__
  6
CONTINUOUS
 62
    7
 10
1044.1533129323159
 20
557.9329744337324
 11
1044.2457239247153
 21
557.87360966385995
  0
LINE
  8
_0-2_線色２__白__
  6
CONTINUOUS
 62
    7
 10
1044.0615979239908
 20
557.98866137524419
 11
1044.1533129323159
 21
557.9329744337324
  0
LINE
  8
_0-2_線色２__白__
  6
CONTINUOUS
 62
    7
 10
1043.9007941979787
 20
558.08061814596931
 11
1044.0615979239908
 21
557.98866137524419
  0
LINE
  8
_0-2_線色２__白__
  6
CONTINUOUS
 62
    7
 10
1043.7380767700245
 20
558.16971830830516
 11
1043.9007941979787
 21
558.08061814596931
  0
LINE
  8
_0-2_線色２__白__
  6
CONTINUOUS
 62
    7
 10
1043.5751568217336
 20
558.2586090167556
 11
1043.7380767700245
 21
558.16971830830516
  0
LINE
  8
_0-2_線色２__白__
  6
CONTINUOUS
 62
    7
 10
1043.4137455347002
 20
558.34993742582674
 11
1043.5751568217336
 21
558.2586090167556
  0
LINE
  8
_0-2_線色２__白__
  6
CONTINUOUS
 62
    7
 10
1043.2555540905298
 20
558.44635069002015
 11
1043.4137455347002
 21
558.34993742582674
  0
LINE
  8
_0-2_線色２__白__
  6
CONTINUOUS
 62
    7
 10
1043.1659526794408
 20
558.50564338040022
 11
1043.2555540905298
 21
558.44635069002015
  0
LINE
  8
_0-2_線色２__白__
  6
CONTINUOUS
 62
    7
 10
1043.1119254545467
 20
558.54351067678954
 11
1043.1659526794408
 21
558.50564338040022
  0
LINE
  8
_0-2_線色２__白__
  6
CONTINUOUS
 62
    7
 10
1043.0205709555946
 20
558.61143850631925
 11
1043.1119254545467
 21
558.54351067678954
  0
LINE
  8
_0-2_線色２__白__
  6
CONTINUOUS
 62
    7
 10
1042.9315409445587
 20
558.68252998300795
 11
1043.0205709555946
 21
558.61143850631925
  0
LINE
  8
_0-2_線色２__白__
  6
CONTINUOUS
 62
    7
 10
1042.844894969063
 20
558.75657888633532
 11
1042.9315409445587
 21
558.68252998300795
  0
LINE
  8
_0-2_線色２__白__
  6
CONTINUOUS
 62
    7
 10
1042.7606925767338
 20
558.83337899577646
 11
1042.844894969063
 21
558.75657888633532
  0
LINE
  8
_0-2_線色２__白__
  6
CONTINUOUS
 62
    7
 10
1042.6789933151929
 20
558.91272409081103
 11
1042.7606925767338
 21
558.83337899577646
  0
LINE
  8
_0-2_線色２__白__
  6
CONTINUOUS
 62
    7
 10
1042.6327781428893
 20
558.95982909672148
 11
1042.6789933151929
 21
558.91272409081103
  0
LINE
  8
_0-2_線色２__白__
  6
CONTINUOUS
 62
    7
 10
1042.5048961350615
 20
559.09908199650181
 11
1042.6327781428893
 21
558.95982909672148
  0
LINE
  8
_0-2_線色２__白__
  6
CONTINUOUS
 62
    7
 10
1042.2996105087884
 20
559.35192445226085
 11
1042.5048961350615
 21
559.09908199650181
  0
LINE
  8
_0-2_線色２__白__
  6
CONTINUOUS
 62
    7
 10
1042.1109985103874
 20
559.6183559734468
 11
1042.2996105087884
 21
559.35192445226085
  0
LINE
  8
_0-2_線色２__白__
  6
CONTINUOUS
 62
    7
 10
1041.9360745230017
 20
559.89540940146389
 11
1042.1109985103874
 21
559.6183559734468
  0
LINE
  8
_0-2_線色２__白__
  6
CONTINUOUS
 62
    7
 10
1041.7718529297747
 20
560.18011757771637
 11
1041.9360745230017
 21
559.89540940146389
  0
LINE
  8
_0-2_線色２__白__
  6
CONTINUOUS
 62
    7
 10
1041.6153481138451
 20
560.46951334360392
 11
1041.7718529297747
 21
560.18011757771637
  0
LINE
  8
_0-2_線色２__白__
  6
CONTINUOUS
 62
    7
 10
1041.5269346596676
 20
560.63834152661093
 11
1041.6153481138451
 21
560.46951334360392
  0
LINE
  8
_0-2_線色２__白__
  6
CONTINUOUS
 62
    7
 10
1041.4619766650378
 20
560.76378127611042
 11
1041.5269346596676
 21
560.63834152661093
  0
LINE
  8
_0-2_線色２__白__
  6
CONTINUOUS
 62
    7
 10
1041.3508496728412
 20
560.97992111536632
 11
1041.4619766650378
 21
560.76378127611042
  0
LINE
  8
_0-2_線色２__白__
  6
CONTINUOUS
 62
    7
 10
1041.2401622489813
 20
561.1956846563462
 11
1041.3508496728412
 21
560.97992111536632
  0
LINE
  8
_0-2_線色２__白__
  6
CONTINUOUS
 62
    7
 10
1041.129145639735
 20
561.41083391742177
 11
1041.2401622489813
 21
561.1956846563462
  0
LINE
  8
_0-2_線色２__白__
  6
CONTINUOUS
 62
    7
 10
1041.0170310913702
 20
561.62513091695791
 11
1041.129145639735
 21
561.41083391742177
  0
LINE
  8
_0-2_線色２__白__
  6
CONTINUOUS
 62
    7
 10
1040.9030498501613
 20
561.83833767332635
 11
1041.0170310913702
 21
561.62513091695791
  0
LINE
  8
_0-2_線色２__白__
  6
CONTINUOUS
 62
    7
 10
1040.8357824826555
 20
561.96140426546299
 11
1040.9030498501613
 21
561.83833767332635
  0
LINE
  8
_0-2_線色２__白__
  6
CONTINUOUS
 62
    7
 10
1040.7718921557955
 20
562.07608306249176
 11
1040.8357824826555
 21
561.96140426546299
  0
LINE
  8
_0-2_線色２__白__
  6
CONTINUOUS
 62
    7
 10
1040.6589393022284
 20
562.27233706127299
 11
1040.7718921557955
 21
562.07608306249176
  0
LINE
  8
_0-2_線色２__白__
  6
CONTINUOUS
 62
    7
 10
1040.5414385380584
 20
562.4660462304164
 11
1040.6589393022284
 21
562.27233706127299
  0
LINE
  8
_0-2_線色２__白__
  6
CONTINUOUS
 62
    7
 10
1040.418218636072
 20
562.65641229150651
 11
1040.5414385380584
 21
562.4660462304164
  0
LINE
  8
_0-2_線色２__白__
  6
CONTINUOUS
 62
    7
 10
1040.2881083690534
 20
562.84263696612788
 11
1040.418218636072
 21
562.65641229150651
  0
LINE
  8
_0-2_線色２__白__
  6
CONTINUOUS
 62
    7
 10
1040.1499365097845
 20
563.02392197586278
 11
1040.2881083690534
 21
562.84263696612788
  0
LINE
  8
_0-2_線色２__白__
  6
CONTINUOUS
 62
    7
 10
1040.0656414854132
 20
563.12648936385449
 11
1040.1499365097845
 21
563.02392197586278
  0
LINE
  8
_0-2_線色２__白__
  6
CONTINUOUS
 62
    7
 10
1039.9901994054278
 20
563.21334306785138
 11
1040.0656414854132
 21
563.12648936385449
  0
LINE
  8
_0-2_線色２__白__
  6
CONTINUOUS
 62
    7
 10
1039.8542899522238
 20
563.35836489718167
 11
1039.9901994054278
 21
563.21334306785138
  0
LINE
  8
_0-2_線色２__白__
  6
CONTINUOUS
 62
    7
 10
1039.7109956118572
 20
563.49578230302859
 11
1039.8542899522238
 21
563.35836489718167
  0
LINE
  8
_0-2_線色２__白__
  6
CONTINUOUS
 62
    7
 10
1039.560320565439
 20
563.62370897634355
 11
1039.7109956118572
 21
563.49578230302859
  0
LINE
  8
_0-2_線色２__白__
  6
CONTINUOUS
 62
    7
 10
1039.40226899408
 20
563.74025860807569
 11
1039.560320565439
 21
563.62370897634355
  0
LINE
  8
_0-2_線色２__白__
  6
CONTINUOUS
 62
    7
 10
1039.2368450788911
 20
563.84354488917415
 11
1039.40226899408
 21
563.74025860807569
  0
LINE
  8
_0-2_線色２__白__
  6
CONTINUOUS
 62
    7
 10
1039.1375228477102
 20
563.89663036109687
 11
1039.2368450788911
 21
563.84354488917415
  0
LINE
  8
_0-2_線色２__白__
  6
CONTINUOUS
 62
    7
 10
1039.0269850215907
 20
563.94824030175278
 11
1039.1375228477102
 21
563.89663036109687
  0
LINE
  8
_0-2_線色２__白__
  6
CONTINUOUS
 62
    7
 10
1038.8304910459908
 20
564.02413983548831
 11
1039.0269850215907
 21
563.94824030175278
  0
LINE
  8
_0-2_線色２__白__
  6
CONTINUOUS
 62
    7
 10
1038.6279378461347
 20
564.08654800238628
 11
1038.8304910459908
 21
564.02413983548831
  0
LINE
  8
_0-2_線色２__白__
  6
CONTINUOUS
 62
    7
 10
1038.4209808968683
 20
564.13903404409075
 11
1038.6279378461347
 21
564.08654800238628
  0
LINE
  8
_0-2_線色２__白__
  6
CONTINUOUS
 62
    7
 10
1038.2112756730305
 20
564.18516720223897
 11
1038.4209808968683
 21
564.13903404409075
  0
LINE
  8
_0-2_線色２__白__
  6
CONTINUOUS
 62
    7
 10
1038.0004776494673
 20
564.22851671847275
 11
1038.2112756730305
 21
564.18516720223897
  0
LINE
  8
_0-2_線色２__白__
  6
CONTINUOUS
 62
    7
 10
1037.878366418139
 20
564.25379043997145
 11
1038.0004776494673
 21
564.22851671847275
  0
LINE
  8
_0-2_線色２__白__
  6
CONTINUOUS
 62
    7
 10
1037.7708041926019
 20
564.27677222685907
 11
1037.878366418139
 21
564.25379043997145
  0
LINE
  8
_0-2_線色２__白__
  6
CONTINUOUS
 62
    7
 10
1037.5860846546755
 20
564.31721622443411
 11
1037.7708041926019
 21
564.27677222685907
  0
LINE
  8
_0-2_線色２__白__
  6
CONTINUOUS
 62
    7
 10
1037.4019790586533
 20
564.35727388914165
 11
1037.5860846546755
 21
564.31721622443411
  0
LINE
  8
_0-2_線色２__白__
  6
CONTINUOUS
 62
    7
 10
1037.2181230227955
 20
564.39528871516904
 11
1037.4019790586533
 21
564.35727388914165
  0
LINE
  8
_0-2_線色２__白__
  6
CONTINUOUS
 62
    7
 10
1037.0341521653552
 20
564.42960419670817
 11
1037.2181230227955
 21
564.39528871516904
  0
LINE
  8
_0-2_線色２__白__
  6
CONTINUOUS
 62
    7
 10
1036.8497021045857
 20
564.45856382794864
 11
1037.0341521653552
 21
564.42960419670817
  0
LINE
  8
_0-2_線色２__白__
  6
CONTINUOUS
 62
    7
 10
1036.7423579130207
 20
564.47225361403389
 11
1036.8497021045857
 21
564.45856382794864
  0
LINE
  8
_0-2_線色２__白__
  6
CONTINUOUS
 62
    7
 10
1036.595806436784
 20
564.48669022281229
 11
1036.7423579130207
 21
564.47225361403389
  0
LINE
  8
_0-2_線色２__白__
  6
CONTINUOUS
 62
    7
 10
1036.3418412497924
 20
564.50075937081556
 11
1036.595806436784
 21
564.48669022281229
  0
LINE
  8
_0-2_線色２__白__
  6
CONTINUOUS
 62
    7
 10
1036.0866234603589
 20
564.50238907806215
 11
1036.3418412497924
 21
564.50075937081556
  0
LINE
  8
_0-2_線色２__白__
  6
CONTINUOUS
 62
    7
 10
1035.830595623728
 20
564.49304298687684
 11
1036.0866234603589
 21
564.50238907806215
  0
LINE
  8
_0-2_線色２__白__
  6
CONTINUOUS
 62
    7
 10
1035.5742002951467
 20
564.47418473957759
 11
1035.830595623728
 21
564.49304298687684
  0
LINE
  8
_0-2_線色２__白__
  6
CONTINUOUS
 62
    7
 10
1035.3178800298622
 20
564.44727797848918
 11
1035.5742002951467
 21
564.47418473957759
  0
LINE
  8
_0-2_線色２__白__
  6
CONTINUOUS
 62
    7
 10
1035.1694230597775
 20
564.42856097922095
 11
1035.3178800298622
 21
564.44727797848918
  0
LINE
  8
_0-2_線色２__白__
  6
CONTINUOUS
 62
    7
 10
1035.0466542117476
 20
564.41150761318659
 11
1035.1694230597775
 21
564.42856097922095
  0
LINE
  8
_0-2_線色２__白__
  6
CONTINUOUS
 62
    7
 10
1034.8358111681921
 20
564.3781548975503
 11
1035.0466542117476
 21
564.41150761318659
  0
LINE
  8
_0-2_線色２__白__
  6
CONTINUOUS
 62
    7
 10
1034.6266317764832
 20
564.338530302442
 11
1034.8358111681921
 21
564.3781548975503
  0
LINE
  8
_0-2_線色２__白__
  6
CONTINUOUS
 62
    7
 10
1034.4198326996741
 20
564.29115542871023
 11
1034.6266317764832
 21
564.338530302442
  0
LINE
  8
_0-2_線色２__白__
  6
CONTINUOUS
 62
    7
 10
1034.2161306008177
 20
564.23455187721265
 11
1034.4198326996741
 21
564.29115542871023
  0
LINE
  8
_0-2_線色２__白__
  6
CONTINUOUS
 62
    7
 10
1034.0162421429625
 20
564.16724124879784
 11
1034.2161306008177
 21
564.23455187721265
  0
LINE
  8
_0-2_線色２__白__
  6
CONTINUOUS
 62
    7
 10
1033.9023366502227
 20
564.1227125355349
 11
1034.0162421429625
 21
564.16724124879784
  0
LINE
  8
_0-2_線色２__白__
  6
CONTINUOUS
 62
    7
 10
1033.8009403890544
 20
564.07883026461468
 11
1033.9023366502227
 21
564.1227125355349
  0
LINE
  8
_0-2_線色２__白__
  6
CONTINUOUS
 62
    7
 10
1033.6293422914503
 20
563.99532208410255
 11
1033.8009403890544
 21
564.07883026461468
  0
LINE
  8
_0-2_線色２__白__
  6
CONTINUOUS
 62
    7
 10
1033.4618846494197
 20
563.90270168881761
 11
1033.6293422914503
 21
563.99532208410255
  0
LINE
  8
_0-2_線色２__白__
  6
CONTINUOUS
 62
    7
 10
1033.298637992192
 20
563.80192645739135
 11
1033.4618846494197
 21
563.90270168881761
  0
LINE
  8
_0-2_線色２__白__
  6
CONTINUOUS
 62
    7
 10
1033.1396728490029
 20
563.69395376845978
 11
1033.298637992192
 21
563.80192645739135
  0
LINE
  8
_0-2_線色２__白__
  6
CONTINUOUS
 62
    7
 10
1032.9850597490838
 20
563.57974100065894
 11
1033.1396728490029
 21
563.69395376845978
  0
LINE
  8
_0-2_線色２__白__
  6
CONTINUOUS
 62
    7
 10
1032.8974060495409
 20
563.51101564816281
 11
1032.9850597490838
 21
563.57974100065894
  0
LINE
  8
_0-2_線色２__白__
  6
CONTINUOUS
 62
    7
 10
1032.8001786079528
 20
563.43146584088208
 11
1032.8974060495409
 21
563.51101564816281
  0
LINE
  8
_0-2_線色２__白__
  6
CONTINUOUS
 62
    7
 10
1032.636653764572
 20
563.29000258805627
 11
1032.8001786079528
 21
563.43146584088208
  0
LINE
  8
_0-2_線色２__白__
  6
CONTINUOUS
 62
    7
 10
1032.4777398084655
 20
563.1437758576576
 11
1032.636653764572
 21
563.29000258805627
  0
LINE
  8
_0-2_線色２__白__
  6
CONTINUOUS
 62
    7
 10
1032.3227507289619
 20
562.9935882187383
 11
1032.4777398084655
 21
563.1437758576576
  0
LINE
  8
_0-2_線色２__白__
  6
CONTINUOUS
 62
    7
 10
1032.1710005153921
 20
562.84024224033692
 11
1032.3227507289619
 21
562.9935882187383
  0
LINE
  8
_0-2_線色２__白__
  6
CONTINUOUS
 62
    7
 10
1032.0218031570846
 20
562.68454049150569
 11
1032.1710005153921
 21
562.84024224033692
  0
LINE
  8
_0-2_線色２__白__
  6
CONTINUOUS
 62
    7
 10
1031.9361680836698
 20
562.59347031710695
 11
1032.0218031570846
 21
562.68454049150569
  0
LINE
  8
_0-2_線色２__白__
  6
CONTINUOUS
 62
    7
 10
1031.8548121857577
 20
562.5060472240998
 11
1031.9361680836698
 21
562.59347031710695
  0
LINE
  8
_0-2_線色２__白__
  6
CONTINUOUS
 62
    7
 10
1031.7157630904501
 20
562.35430198084578
 11
1031.8548121857577
 21
562.5060472240998
  0
LINE
  8
_0-2_線色２__白__
  6
CONTINUOUS
 62
    7
 10
1031.5784991936255
 20
562.20092199375677
 11
1031.7157630904501
 21
562.35430198084578
  0
LINE
  8
_0-2_線色２__白__
  6
CONTINUOUS
 62
    7
 10
1031.4433010554978
 20
562.04550150029127
 11
1031.5784991936255
 21
562.20092199375677
  0
LINE
  8
_0-2_線色２__白__
  6
CONTINUOUS
 62
    7
 10
1031.3104492362766
 20
561.88763473790095
 11
1031.4433010554978
 21
562.04550150029127
  0
LINE
  8
_0-2_線色２__白__
  6
CONTINUOUS
 62
    7
 10
1031.1802242961733
 20
561.7269159440375
 11
1031.3104492362766
 21
561.88763473790095
  0
LINE
  8
_0-2_線色２__白__
  6
CONTINUOUS
 62
    7
 10
1031.1060080222376
 20
561.63223235123587
 11
1031.1802242961733
 21
561.7269159440375
  0
LINE
  8
_0-2_線色２__白__
  6
CONTINUOUS
 62
    7
 10
1031.0438004425589
 20
561.55086450402996
 11
1031.1060080222376
 21
561.63223235123587
  0
LINE
  8
_0-2_線色２__白__
  6
CONTINUOUS
 62
    7
 10
1030.9391011042419
 20
561.40843532323379
 11
1031.0438004425589
 21
561.55086450402996
  0
LINE
  8
_0-2_線色２__白__
  6
CONTINUOUS
 62
    7
 10
1030.8388520070969
 20
561.2630742814631
 11
1030.9391011042419
 21
561.40843532323379
  0
LINE
  8
_0-2_線色２__白__
  6
CONTINUOUS
 62
    7
 10
1030.7444670179495
 20
561.11452176566308
 11
1030.8388520070969
 21
561.2630742814631
  0
LINE
  8
_0-2_線色２__白__
  6
CONTINUOUS
 62
    7
 10
1030.6573600036234
 20
560.96251816278118
 11
1030.7444670179495
 21
561.11452176566308
  0
LINE
  8
_0-2_線色２__白__
  6
CONTINUOUS
 62
    7
 10
1030.5789448309417
 20
560.80680385976939
 11
1030.6573600036234
 21
560.96251816278118
  0
LINE
  8
_0-2_線色２__白__
  6
CONTINUOUS
 62
    7
 10
1030.5380037696784
 20
560.71468702017773
 11
1030.5789448309417
 21
560.80680385976939
  0
LINE
  8
_0-2_線色２__白__
  6
CONTINUOUS
 62
    7
 10
1030.4907800713852
 20
560.59472191718532
 11
1030.5380037696784
 21
560.71468702017773
  0
LINE
  8
_0-2_線色２__白__
  6
CONTINUOUS
 62
    7
 10
1030.4218649283951
 20
560.38316898536641
 11
1030.4907800713852
 21
560.59472191718532
  0
LINE
  8
_0-2_線色２__白__
  6
CONTINUOUS
 62
    7
 10
1030.3662765308661
 20
560.16658957670961
 11
1030.4218649283951
 21
560.38316898536641
  0
LINE
  8
_0-2_線色２__白__
  6
CONTINUOUS
 62
    7
 10
1030.3211051090409
 20
559.94608117523831
 11
1030.3662765308661
 21
560.16658957670961
  0
LINE
  8
_0-2_線色２__白__
  6
CONTINUOUS
 62
    7
 10
1030.2834408931756
 20
559.72274126498041
 11
1030.3211051090409
 21
559.94608117523831
  0
LINE
  8
_0-2_線色２__白__
  6
CONTINUOUS
 62
    7
 10
1030.2503741135149
 20
559.49766732996159
 11
1030.2834408931756
 21
559.72274126498041
  0
LINE
  8
_0-2_線色２__白__
  6
CONTINUOUS
 62
    7
 10
1030.2321553259924
 20
559.36676238327982
 11
1030.2503741135149
 21
559.49766732996159
  0
LINE
  8
_0-2_線色２__白__
  6
CONTINUOUS
 62
    7
 10
977.5352746766805
 20
557.81791117020566
 11
1024.3398729017883
 21
557.81791117020566
  0
LINE
  8
_0-2_線色２__白__
  6
CONTINUOUS
 62
    7
 10
1024.3398729017883
 20
557.81791117020566
 11
1028.3912214777445
 21
554.36676238327982
  0
ARC
  8
_0-2_線色２__白__
  6
CONTINUOUS
 62
    7
 10
985.53527467668232
 20
565.81791117020521
 40
8
 50
180
 51
270
  0
LINE
  8
_0-2_線色２__白__
  6
CONTINUOUS
 62
    7
 10
1028.3912214777445
 20
554.36676238327982
 11
1036.2292873929243
 21
554.36676238327982
  0
LINE
  8
_0-4_線色４__黄__
  6
CONTINUOUS
 62
    2
 10
1036.2292873929243
 20
559.36676238327982
 11
1036.2292873929243
 21
554.36676238327982
  0
LINE
  8
_0-4_線色４__黄__
  6
CONTINUOUS
 62
    2
 10
1036.2292873929243
 20
554.36676238327982
 11
1239.452544776675
 21
554.36676238327982
  0
LINE
  8
_0-2_線色２__白__
  6
CONTINUOUS
 62
    7
 10
979.0417948767174
 20
549.36676238327982
 11
1239.452544776675
 21
549.36676238327982
  0
LINE
  8
_0-2_線色２__白__
  6
CONTINUOUS
 62
    7
 10
979.47923819434777
 20
544.36676238327982
 11
1239.452544776675
 21
544.36676238327982
  0
LINE
  8
_0-4_線色４__黄__
  6
CONTINUOUS
 62
    2
 10
982.53527467668277
 20
565.81791117020521
 11
982.53527467668277
 21
877.14855545204477
  0
ARC
  8
_0-4_線色４__黄__
  6
CONTINUOUS
 62
    2
 10
985.53527467668232
 20
565.81791117020521
 40
3.0000000000000004
 50
180
 51
270
  0
LINE
  8
_0-d_断熱__ハッチ
  6
CONTINUOUS
 62
    4
 10
980.72039002290694
 20
544.36676238327982
 11
1014.5203900229046
 21
510.56676238328208
  0
LINE
  8
_0-d_断熱__ハッチ
  6
CONTINUOUS
 62
    4
 10
1235.2788312500616
 20
544.36676238327982
 11
1239.4525447766773
 21
540.19304885666406
  0
LINE
  8
_0-d_断熱__ハッチ
  6
CONTINUOUS
 62
    4
 10
1197.761649057835
 20
509.3667623832809
 11
1232.7616490578339
 21
544.36676238327982
  0
LINE
  8
_0-d_断熱__ハッチ
  6
CONTINUOUS
 62
    4
 10
1169.4773778103706
 20
509.36676238328317
 11
1204.4773778103672
 21
544.36676238327982
  0
LINE
  8
_0-d_断熱__ハッチ
  6
CONTINUOUS
 62
    4
 10
1142.3931065629108
 20
510.56676238327981
 11
1176.1931065629096
 21
544.36676238327982
  0
LINE
  8
_0-d_断熱__ハッチ
  6
CONTINUOUS
 62
    4
 10
1114.1088353154441
 20
510.56676238328095
 11
1147.908835315443
 21
544.36676238327982
  0
LINE
  8
_0-d_断熱__ハッチ
  6
CONTINUOUS
 62
    4
 10
1085.8245640679854
 20
510.56676238327981
 11
1119.6245640679854
 21
544.36676238327982
  0
LINE
  8
_0-d_断熱__ハッチ
  6
CONTINUOUS
 62
    4
 10
1057.5402928205199
 20
510.56676238328095
 11
1091.3402928205187
 21
544.36676238327982
  0
LINE
  8
_0-d_断熱__ハッチ
  6
CONTINUOUS
 62
    4
 10
1029.2560215730612
 20
510.56676238327981
 11
1063.0560215730611
 21
544.36676238327982
  0
LINE
  8
_0-d_断熱__ハッチ
  6
CONTINUOUS
 62
    4
 10
1000.9717503255968
 20
510.56676238328208
 11
1034.7717503255944
 21
544.36676238327982
  0
LINE
  8
_0-d_断熱__ハッチ
  6
CONTINUOUS
 62
    4
 10
977.5352746766805
 20
515.41455798182346
 11
1006.4874790781369
 21
544.36676238327982
  0
LINE
  8
_0-d_断熱__ハッチ
  6
CONTINUOUS
 62
    4
 10
1009.0046612703645
 20
544.36676238327982
 11
1042.8046612703645
 21
510.56676238327981
  0
LINE
  8
_0-d_断熱__ハッチ
  6
CONTINUOUS
 62
    4
 10
1037.2889325178312
 20
544.36676238327982
 11
1071.0889325178312
 21
510.56676238327981
  0
LINE
  8
_0-d_断熱__ハッチ
  6
CONTINUOUS
 62
    4
 10
1065.5732037652888
 20
544.36676238327982
 11
1099.3732037652887
 21
510.56676238327981
  0
LINE
  8
_0-d_断熱__ハッチ
  6
CONTINUOUS
 62
    4
 10
1093.8574750127509
 20
544.36676238327982
 11
1127.657475012752
 21
510.56676238327981
  0
LINE
  8
_0-d_断熱__ハッチ
  6
CONTINUOUS
 62
    4
 10
1122.141746260213
 20
544.36676238327982
 11
1155.9417462602141
 21
510.56676238327981
  0
LINE
  8
_0-d_断熱__ハッチ
  6
CONTINUOUS
 62
    4
 10
1150.4260175076706
 20
544.36676238327982
 11
1185.4260175076729
 21
509.36676238327749
  0
LINE
  8
_0-d_断熱__ハッチ
  6
CONTINUOUS
 62
    4
 10
1178.7102887551373
 20
544.36676238327982
 11
1213.7102887551384
 21
509.36676238327863
  0
LINE
  8
_0-d_断熱__ハッチ
  6
CONTINUOUS
 62
    4
 10
1206.9945600025949
 20
544.36676238327982
 11
1239.452544776675
 21
511.9087776091996
  0
LINE
  8
_0-a_文字
  6
CONTINUOUS
 62
    7
 10
1159.8693923669452
 20
629.36676238327982
 11
1179.8693923669452
 21
629.36676238327982
  0
TEXT
  8
_0-a_文字
 62
    7
 10
1184.8693923669452
 20
596.86676238327982
 40
15.000000000000014
 41
1.0000000000000022
 50
0
  1
ラジアルシートＬ６００
  0
LINE
  8
_0-a_文字
  6
CONTINUOUS
 62
    7
 10
1131.0018789074638
 20
579.36676238327982
 11
1179.8693923669452
 21
579.36676238327982
  0
LINE
  8
_0-a_文字
  6
CONTINUOUS
 62
    7
 10
1145.4356356372045
 20
604.36676238327982
 11
1179.8693923669452
 21
604.36676238327982
  0
TEXT
  8
_0-a_文字
 62
    7
 10
1184.8693923669452
 20
571.86676238327982
 40
15.00000000000008
 41
0.9999999999999943
 50
0
  1
断熱材
  0
TEXT
  8
_0-a_文字
 62
    7
 10
1116.8340507908147
 20
646.86676238327982
 40
14.999999999999947
 41
1.0000000000000049
 50
0
  1
プルーフシーラー
  0
LINE
  8
_0-a_文字
  6
CONTINUOUS
 62
    7
 10
1091.8340507908147
 20
654.36676238327982
 11
1111.8340507908147
 21
654.36676238327982
  0
LINE
  8
_0-a_文字
  6
CONTINUOUS
 62
    7
 10
1038.1222009589396
 20
561.33510950596337
 11
1091.8340507908147
 21
654.36676238327982
  0
TEXT
  8
_0-a_文字
 62
    7
 10
1037.535274676685
 20
771.86676238327982
 40
15.000000000000036
 41
0.9999999999999992
 50
0
  1
塩ビシート接着工法
  0
LINE
  8
_0-a_文字
  6
CONTINUOUS
 62
    7
 10
1012.535274676685
 20
779.36676238327982
 11
1032.535274676685
 21
779.36676238327982
  0
LINE
  8
_0-a_文字
  6
CONTINUOUS
 62
    7
 10
998.10151794694434
 20
754.36676238327982
 11
1032.535274676685
 21
754.36676238327982
  0
LINE
  8
_0-a_文字
  6
CONTINUOUS
 62
    7
 10
969.24521103576467
 20
704.38617269431666
 11
1012.535274676685
 21
779.36676238327982
  0
TEXT
  8
_0-a_文字
 62
    7
 10
1184.8693923669452
 20
621.86676238327868
 40
15.000000000000036
 41
0.9999999999999981
 50
0
  1
塩ビシート機械的固定工法
  0
LINE
  8
ADD_LINE
  6
DOT
 62
    4
 10
1001.5352746766814
 20
469.69854650825454
 11
1001.5352746766814
 21
559.31526625087122
  0
LINE
  8
_0-7_ビス
  6
CONTINUOUS
 62
    7
 10
1007.5352746766816
 20
552.43329578559019
 11
1007.5352746766816
 21
552.81791117020566
  0
LINE
  8
_0-7_ビス
  6
DASHED3
 62
    7
 10
1003.002742792936
 20
550.26854163937833
 11
1004.0852905128304
 21
552.81791117020566
  0
LINE
  8
_0-7_ビス
  6
CONTINUOUS
 62
    7
 10
995.53527467668118
 20
552.43329578559019
 11
995.53527467668118
 21
552.81791117020566
  0
LINE
  8
_0-7_ビス
  6
DASHED3
 62
    7
 10
1000.0678065604268
 20
550.26854163937833
 11
998.98525884053242
 21
552.81791117020566
  0
LINE
  8
_0-7_ビス
  6
CONTINUOUS
 62
    7
 10
1007.5352746766816
 20
552.43329578559019
 11
995.53527467668118
 21
552.43329578559019
  0
LINE
  8
_0-7_ビス
  6
CONTINUOUS
 62
    7
 10
1007.5352746766816
 20
552.81791117020566
 11
995.53527467668118
 21
552.81791117020566
  0
ARC
  8
_0-7_ビス
  6
DASHED3
 62
    7
 10
1001.5352746766814
 20
551.37908473764446
 40
1.8403175392666382
 50
217.11750793457031
 51
322.88247680664062
  0
LINE
  8
_0-7_ビス
  6
CONTINUOUS
 62
    7
 10
1005.6210611143081
 20
550.51908222321663
 11
1007.5352746766805
 21
552.43329578559019
  0
ARC
  8
_0-7_ビス
  6
CONTINUOUS
 62
    7
 10
1007.035274676681
 20
549.10486866084375
 40
2
 50
135.00000000000153
 51
180.00000000000003
  0
LINE
  8
_0-7_ビス
  6
CONTINUOUS
 62
    7
 10
997.44948823905474
 20
550.51908222321663
 11
995.53527467668118
 21
552.43329578559019
  0
ARC
  8
_0-7_ビス
  6
CONTINUOUS
 62
    7
 10
996.03527467668073
 20
549.10486866084375
 40
2
 50
0
 51
44.999999999998501
  0
LINE
  8
_0-7_ビス
  6
CONTINUOUS
 62
    7
 10
1005.0352746766805
 20
548.81791117020589
 11
998.03527467668118
 21
548.81791117020589
  0
LINE
  8
_0-7_ビス
  6
CONTINUOUS
 62
    7
 10
998.03527467668118
 20
479.83863711236808
 11
1001.5352746766814
 21
477.8179111702056
  0
LINE
  8
_0-7_ビス
  6
CONTINUOUS
 62
    7
 10
998.03527467668118
 20
549.10486866084375
 11
998.03527467668118
 21
479.83863711236808
  0
LINE
  8
_0-7_ビス
  6
CONTINUOUS
 62
    7
 10
1005.0352746766805
 20
483.31791117020515
 11
998.03527467668118
 21
483.31791117020515
  0
LINE
  8
_0-7_ビス
  6
CONTINUOUS
 62
    7
 10
1005.0352746766805
 20
479.83863711236921
 11
1001.5352746766814
 21
477.8179111702056
  0
LINE
  8
_0-7_ビス
  6
CONTINUOUS
 62
    7
 10
1005.0352746766805
 20
549.10486866084375
 11
1005.0352746766805
 21
479.83863711236921
  0
LINE
  8
_0-7_ビス
  6
CONTINUOUS
 62
    7
 10
1005.0352746766805
 20
537.81791117020566
 11
998.03527467668118
 21
537.81791117020566
  0
LINE
  8
_0-7_ビス
  6
CONTINUOUS
 62
    4
 10
998.03527467668118
 20
536.61810781081135
 11
1002.5128551186219
 21
537.81791117020566
  0
LINE
  8
_0-7_ビス
  6
CONTINUOUS
 62
    4
 10
998.03527467668118
 20
524.31188728143502
 11
1005.0352746766805
 21
526.18759306152333
  0
LINE
  8
_0-7_ビス
  6
CONTINUOUS
 62
    4
 10
998.03527467668118
 20
526.31188728143547
 11
1005.0352746766805
 21
528.18759306152265
  0
LINE
  8
_0-7_ビス
  6
CONTINUOUS
 62
    4
 10
998.03527467668118
 20
528.31188728143479
 11
1005.0352746766805
 21
530.1875930615231
  0
LINE
  8
_0-7_ビス
  6
CONTINUOUS
 62
    4
 10
998.03527467668118
 20
530.31188728143411
 11
1005.0352746766805
 21
532.18759306152356
  0
LINE
  8
_0-7_ビス
  6
CONTINUOUS
 62
    4
 10
998.03527467668118
 20
532.31188728143457
 11
1005.0352746766805
 21
534.18759306152288
  0
LINE
  8
_0-7_ビス
  6
CONTINUOUS
 62
    4
 10
998.03527467668118
 20
534.31188728143502
 11
1005.0352746766805
 21
536.18759306152333
  0
LINE
  8
_0-7_ビス
  6
CONTINUOUS
 62
    4
 10
998.03527467668118
 20
512.00566675205755
 11
1005.0352746766805
 21
513.88137253214586
  0
LINE
  8
_0-7_ビス
  6
CONTINUOUS
 62
    4
 10
998.03527467668118
 20
514.005666752058
 11
1005.0352746766805
 21
515.88137253214632
  0
LINE
  8
_0-7_ビス
  6
CONTINUOUS
 62
    4
 10
998.03527467668118
 20
516.00566675205732
 11
1005.0352746766805
 21
517.88137253214677
  0
LINE
  8
_0-7_ビス
  6
CONTINUOUS
 62
    4
 10
998.03527467668118
 20
518.00566675205778
 11
1005.0352746766805
 21
519.88137253214609
  0
LINE
  8
_0-7_ビス
  6
CONTINUOUS
 62
    4
 10
998.03527467668118
 20
520.00566675205823
 11
1005.0352746766805
 21
521.88137253214654
  0
LINE
  8
_0-7_ビス
  6
CONTINUOUS
 62
    4
 10
998.03527467668118
 20
522.00566675205869
 11
1005.0352746766805
 21
523.881372532147
  0
LINE
  8
_0-7_ビス
  6
CONTINUOUS
 62
    4
 10
998.03527467668118
 20
499.69944622268002
 11
1005.0352746766805
 21
501.57515200276947
  0
LINE
  8
_0-7_ビス
  6
CONTINUOUS
 62
    4
 10
998.03527467668118
 20
501.69944622268048
 11
1005.0352746766805
 21
503.57515200276993
  0
LINE
  8
_0-7_ビス
  6
CONTINUOUS
 62
    4
 10
998.03527467668118
 20
503.69944622268093
 11
1005.0352746766805
 21
505.57515200276924
  0
LINE
  8
_0-7_ビス
  6
CONTINUOUS
 62
    4
 10
998.03527467668118
 20
505.69944622268139
 11
1005.0352746766805
 21
507.5751520027697
  0
LINE
  8
_0-7_ビス
  6
CONTINUOUS
 62
    4
 10
998.03527467668118
 20
507.69944622268071
 11
1005.0352746766805
 21
509.57515200276902
  0
LINE
  8
_0-7_ビス
  6
CONTINUOUS
 62
    4
 10
998.03527467668118
 20
509.69944622268116
 11
1005.0352746766805
 21
511.57515200276947
  0
LINE
  8
_0-7_ビス
  6
CONTINUOUS
 62
    4
 10
998.03527467668118
 20
487.39322569330369
 11
1005.0352746766805
 21
489.26893147339314
  0
LINE
  8
_0-7_ビス
  6
CONTINUOUS
 62
    4
 10
998.03527467668118
 20
489.39322569330415
 11
1005.0352746766805
 21
491.26893147339246
  0
LINE
  8
_0-7_ビス
  6
CONTINUOUS
 62
    4
 10
998.03527467668118
 20
491.3932256933046
 11
1005.0352746766805
 21
493.26893147339177
  0
LINE
  8
_0-7_ビス
  6
CONTINUOUS
 62
    4
 10
998.03527467668118
 20
493.39322569330392
 11
1005.0352746766805
 21
495.26893147339223
  0
LINE
  8
_0-7_ビス
  6
CONTINUOUS
 62
    4
 10
998.03527467668118
 20
495.39322569330324
 11
1005.0352746766805
 21
497.26893147339268
  0
LINE
  8
_0-7_ビス
  6
CONTINUOUS
 62
    4
 10
998.03527467668118
 20
497.39322569330369
 11
1005.0352746766805
 21
499.26893147339314
  0
LINE
  8
_0-7_ビス
  6
CONTINUOUS
 62
    4
 10
998.03527467668118
 20
485.08700516392736
 11
1005.0352746766805
 21
486.96271094401681
  0
LINE
  8
_0-7_ビス
  6
CONTINUOUS
 62
    4
 10
998.89699939977277
 20
483.31791117020515
 11
1005.0352746766805
 21
484.96271094401635
  0
LINE
  8
_0-5_金属
  6
CONTINUOUS
 62
    7
 10
859.53527467667755
 20
563.66676238327932
 11
859.53527467667755
 21
385.06763162026999
  0
LINE
  8
_0-5_金属
  6
CONTINUOUS
 62
    7
 10
959.53527467667982
 20
563.66676238327932
 11
959.53527467667982
 21
385.06763162026999
  0
LINE
  8
_0-5_金属
  6
CONTINUOUS
 62
    7
 10
879.53527467667755
 20
559.36676238327868
 11
879.53527467667755
 21
385.06763162026999
  0
LINE
  8
_0-5_金属
  6
CONTINUOUS
 62
    7
 10
939.53527467667755
 20
559.36676238327868
 11
939.53527467667755
 21
385.06763162026999
  0
LINE
  8
_0-2_線色２__白__
  6
CONTINUOUS
 62
    7
 10
859.53527467667755
 20
385.06763162026999
 11
859.53527467667755
 21
909.36676238327868
  0
LINE
  8
_0-3_線色３__緑__
  6
CONTINUOUS
 62
    3
 10
824.53527467667755
 20
385.06763162026999
 11
824.53527467667755
 21
909.36676238327868
  0
LINE
  8
_0-d_断熱__ハッチ
  6
CONTINUOUS
 62
    4
 10
833.28527467667755
 20
907.3667623832805
 11
833.28527467667755
 21
385.06763162026999
  0
LINE
  8
_0-d_断熱__ハッチ
  6
CONTINUOUS
 62
    4
 10
850.78527467667755
 20
907.3667623832805
 11
850.78527467667755
 21
385.06763162026999
  0
LINE
  8
_0-d_断熱__ハッチ
  6
CONTINUOUS
 62
    4
 10
842.03527467667755
 20
907.3667623832805
 11
842.03527467667755
 21
385.06763162026999
  0
TEXT
  8
_0-a_文字
 62
    7
 10
1037.535274676685
 20
746.86676238327982
 40
14.999999999999858
 41
1.0000000000000095
 50
0
  1
硬質木片セメント板（別途工事）
  0
LINE
  8
_0-a_文字
  6
CONTINUOUS
 62
    7
 10
1100.6909897750097
 20
526.86676238327982
 11
1159.8693923669452
 21
629.36676238327982
  0
ARC
  8
_0-1_線色１__水色__
  6
CONTINUOUS
 62
    4
 10
1137.8872948169658
 20
547.82509572237836
 40
1.2083333333333581
 50
307.52351320333912
 51
232.47648680464988
  0
ARC
  8
_0-1_線色１__水色__
  6
CONTINUOUS
 62
    4
 10
1139.3592549614414
 20
545.90842905577892
 40
1.2083333333333177
 50
127.52351320610693
 51
52.47648680188081
  0
ARC
  8
_0-1_線色１__水色__
  6
CONTINUOUS
 62
    4
 10
1134.9433745282829
 20
547.82509572217327
 40
1.2083333333333581
 50
307.52351320333912
 51
232.47648680464988
  0
ARC
  8
_0-1_線色１__水色__
  6
CONTINUOUS
 62
    4
 10
1136.4153346727574
 20
545.90842905557361
 40
1.2083333333333177
 50
127.52351320610693
 51
52.47648680188081
  0
ARC
  8
_0-1_線色１__水色__
  6
CONTINUOUS
 62
    4
 10
1131.9994542395989
 20
547.82509572196795
 40
1.2083333333333581
 50
307.52351320333912
 51
232.47648680464988
  0
ARC
  8
_0-1_線色１__水色__
  6
CONTINUOUS
 62
    4
 10
1133.4714143840745
 20
545.90842905536852
 40
1.2083333333333177
 50
127.52351320610693
 51
52.47648680188081
  0
ARC
  8
_0-1_線色１__水色__
  6
CONTINUOUS
 62
    4
 10
1129.055533950916
 20
547.82509572176286
 40
1.2083333333333581
 50
307.52351320333912
 51
232.47648680464988
  0
ARC
  8
_0-1_線色１__水色__
  6
CONTINUOUS
 62
    4
 10
1130.5274940953916
 20
545.9084290551632
 40
1.2083333333333177
 50
127.52351320610693
 51
52.47648680188081
  0
ARC
  8
_0-1_線色１__水色__
  6
CONTINUOUS
 62
    4
 10
1164.3825774151162
 20
547.82509572237836
 40
1.2083333333333581
 50
307.52351320333912
 51
232.47648680464988
  0
ARC
  8
_0-1_線色１__水色__
  6
CONTINUOUS
 62
    4
 10
1165.8545375595918
 20
545.90842905577892
 40
1.2083333333333177
 50
127.52351320610693
 51
52.47648680188081
  0
ARC
  8
_0-1_線色１__水色__
  6
CONTINUOUS
 62
    4
 10
1161.4386571264326
 20
547.82509572217327
 40
1.2083333333333581
 50
307.52351320333912
 51
232.47648680464988
  0
ARC
  8
_0-1_線色１__水色__
  6
CONTINUOUS
 62
    4
 10
1162.9106172709078
 20
545.90842905557361
 40
1.2083333333333177
 50
127.52351320610693
 51
52.47648680188081
  0
ARC
  8
_0-1_線色１__水色__
  6
CONTINUOUS
 62
    4
 10
1158.4947368377493
 20
547.82509572196795
 40
1.2083333333333581
 50
307.52351320333912
 51
232.47648680464988
  0
ARC
  8
_0-1_線色１__水色__
  6
CONTINUOUS
 62
    4
 10
1159.9666969822249
 20
545.90842905536852
 40
1.2083333333333177
 50
127.52351320610693
 51
52.47648680188081
  0
ARC
  8
_0-1_線色１__水色__
  6
CONTINUOUS
 62
    4
 10
1155.5508165490664
 20
547.82509572176286
 40
1.2083333333333581
 50
307.52351320333912
 51
232.47648680464988
  0
ARC
  8
_0-1_線色１__水色__
  6
CONTINUOUS
 62
    4
 10
1157.0227766935413
 20
545.9084290551632
 40
1.2083333333333177
 50
127.52351320610693
 51
52.47648680188081
  0
ARC
  8
_0-1_線色１__水色__
  6
CONTINUOUS
 62
    4
 10
1152.6068962603824
 20
547.82509572155755
 40
1.2083333333333581
 50
307.52351320333912
 51
232.47648680464988
  0
ARC
  8
_0-1_線色１__水色__
  6
CONTINUOUS
 62
    4
 10
1154.078856404858
 20
545.90842905495811
 40
1.2083333333333177
 50
127.52351320610693
 51
52.47648680188081
  0
ARC
  8
_0-1_線色１__水色__
  6
CONTINUOUS
 62
    4
 10
1149.6629759716996
 20
547.82509572135245
 40
1.2083333333333581
 50
307.52351320333912
 51
232.47648680464988
  0
ARC
  8
_0-1_線色１__水色__
  6
CONTINUOUS
 62
    4
 10
1151.1349361161747
 20
545.90842905475279
 40
1.2083333333333177
 50
127.52351320610693
 51
52.47648680188081
  0
ARC
  8
_0-1_線色１__水色__
  6
CONTINUOUS
 62
    4
 10
1143.7751353943327
 20
547.82509572094204
 40
1.2083333333333581
 50
307.52351320333912
 51
232.47648680464988
  0
ARC
  8
_0-1_線色１__水色__
  6
CONTINUOUS
 62
    4
 10
1146.719055683016
 20
547.82509572114714
 40
1.2083333333333581
 50
307.52351320333912
 51
232.47648680464988
  0
ARC
  8
_0-1_線色１__水色__
  6
CONTINUOUS
 62
    4
 10
1145.2470955388083
 20
545.90842905434238
 40
1.2083333333333177
 50
127.52351320610693
 51
52.47648680188081
  0
ARC
  8
_0-1_線色１__水色__
  6
CONTINUOUS
 62
    4
 10
1148.1910158274911
 20
545.9084290545477
 40
1.2083333333333177
 50
127.52351320610693
 51
52.47648680188081
  0
ARC
  8
_0-1_線色１__水色__
  6
CONTINUOUS
 62
    4
 10
1142.3031752501242
 20
545.90842905413729
 40
1.2083333333333177
 50
127.52351320610693
 51
52.47648680188081
  0
ARC
  8
_0-1_線色１__水色__
  6
CONTINUOUS
 62
    4
 10
1140.8312151056493
 20
547.82509572073673
 40
1.2083333333333581
 50
307.52351320333912
 51
232.47648680464988
  0
ARC
  8
_0-1_線色１__水色__
  6
CONTINUOUS
 62
    4
 10
1182.0460991472157
 20
547.82509572237836
 40
1.2083333333333581
 50
307.52351320333912
 51
232.47648680464988
  0
ARC
  8
_0-1_線色１__水色__
  6
CONTINUOUS
 62
    4
 10
1183.5180592916913
 20
545.90842905577892
 40
1.2083333333333177
 50
127.52351320610693
 51
52.47648680188081
  0
ARC
  8
_0-1_線色１__水色__
  6
CONTINUOUS
 62
    4
 10
1179.1021788585329
 20
547.82509572217327
 40
1.2083333333333581
 50
307.52351320333912
 51
232.47648680464988
  0
ARC
  8
_0-1_線色１__水色__
  6
CONTINUOUS
 62
    4
 10
1180.5741390030084
 20
545.90842905557361
 40
1.2083333333333177
 50
127.52351320610693
 51
52.47648680188081
  0
ARC
  8
_0-1_線色１__水色__
  6
CONTINUOUS
 62
    4
 10
1176.15825856985
 20
547.82509572196795
 40
1.2083333333333581
 50
307.52351320333912
 51
232.47648680464988
  0
ARC
  8
_0-1_線色１__水色__
  6
CONTINUOUS
 62
    4
 10
1177.6302187143244
 20
545.90842905536852
 40
1.2083333333333177
 50
127.52351320610693
 51
52.47648680188081
  0
ARC
  8
_0-1_線色１__水色__
  6
CONTINUOUS
 62
    4
 10
1173.214338281166
 20
547.82509572176286
 40
1.2083333333333581
 50
307.52351320333912
 51
232.47648680464988
  0
ARC
  8
_0-1_線色１__水色__
  6
CONTINUOUS
 62
    4
 10
1174.6862984256416
 20
545.9084290551632
 40
1.2083333333333177
 50
127.52351320610693
 51
52.47648680188081
  0
ARC
  8
_0-1_線色１__水色__
  6
CONTINUOUS
 62
    4
 10
1170.2704179924831
 20
547.82509572155755
 40
1.2083333333333581
 50
307.52351320333912
 51
232.47648680464988
  0
ARC
  8
_0-1_線色１__水色__
  6
CONTINUOUS
 62
    4
 10
1171.7423781369575
 20
545.90842905495811
 40
1.2083333333333177
 50
127.52351320610693
 51
52.47648680188081
  0
ARC
  8
_0-1_線色１__水色__
  6
CONTINUOUS
 62
    4
 10
1167.3264977037991
 20
547.82509572135245
 40
1.2083333333333581
 50
307.52351320333912
 51
232.47648680464988
  0
ARC
  8
_0-1_線色１__水色__
  6
CONTINUOUS
 62
    4
 10
1168.7984578482747
 20
545.90842905475279
 40
1.2083333333333177
 50
127.52351320610693
 51
52.47648680188081
  0
ARC
  8
_0-1_線色１__水色__
  6
CONTINUOUS
 62
    4
 10
1208.5413817453662
 20
547.82509572237836
 40
1.2083333333333581
 50
307.52351320333912
 51
232.47648680464988
  0
ARC
  8
_0-1_線色１__水色__
  6
CONTINUOUS
 62
    4
 10
1210.0133418898417
 20
545.90842905577892
 40
1.2083333333333177
 50
127.52351320610693
 51
52.47648680188081
  0
ARC
  8
_0-1_線色１__水色__
  6
CONTINUOUS
 62
    4
 10
1205.5974614566833
 20
547.82509572217327
 40
1.2083333333333581
 50
307.52351320333912
 51
232.47648680464988
  0
ARC
  8
_0-1_線色１__水色__
  6
CONTINUOUS
 62
    4
 10
1207.0694216011577
 20
545.90842905557361
 40
1.2083333333333177
 50
127.52351320610693
 51
52.47648680188081
  0
ARC
  8
_0-1_線色１__水色__
  6
CONTINUOUS
 62
    4
 10
1202.6535411679993
 20
547.82509572196795
 40
1.2083333333333581
 50
307.52351320333912
 51
232.47648680464988
  0
ARC
  8
_0-1_線色１__水色__
  6
CONTINUOUS
 62
    4
 10
1204.1255013124749
 20
545.90842905536852
 40
1.2083333333333177
 50
127.52351320610693
 51
52.47648680188081
  0
ARC
  8
_0-1_線色１__水色__
  6
CONTINUOUS
 62
    4
 10
1199.7096208793164
 20
547.82509572176286
 40
1.2083333333333581
 50
307.52351320333912
 51
232.47648680464988
  0
ARC
  8
_0-1_線色１__水色__
  6
CONTINUOUS
 62
    4
 10
1201.181581023792
 20
545.9084290551632
 40
1.2083333333333177
 50
127.52351320610693
 51
52.47648680188081
  0
ARC
  8
_0-1_線色１__水色__
  6
CONTINUOUS
 62
    4
 10
1196.7657005906324
 20
547.82509572155755
 40
1.2083333333333581
 50
307.52351320333912
 51
232.47648680464988
  0
ARC
  8
_0-1_線色１__水色__
  6
CONTINUOUS
 62
    4
 10
1198.237660735108
 20
545.90842905495811
 40
1.2083333333333177
 50
127.52351320610693
 51
52.47648680188081
  0
ARC
  8
_0-1_線色１__水色__
  6
CONTINUOUS
 62
    4
 10
1193.8217803019495
 20
547.82509572135245
 40
1.2083333333333581
 50
307.52351320333912
 51
232.47648680464988
  0
ARC
  8
_0-1_線色１__水色__
  6
CONTINUOUS
 62
    4
 10
1195.2937404464251
 20
545.90842905475279
 40
1.2083333333333177
 50
127.52351320610693
 51
52.47648680188081
  0
ARC
  8
_0-1_線色１__水色__
  6
CONTINUOUS
 62
    4
 10
1187.9339397245826
 20
547.82509572094204
 40
1.2083333333333581
 50
307.52351320333912
 51
232.47648680464988
  0
ARC
  8
_0-1_線色１__水色__
  6
CONTINUOUS
 62
    4
 10
1190.8778600132666
 20
547.82509572114714
 40
1.2083333333333581
 50
307.52351320333912
 51
232.47648680464988
  0
ARC
  8
_0-1_線色１__水色__
  6
CONTINUOUS
 62
    4
 10
1189.4058998690582
 20
545.90842905434238
 40
1.2083333333333177
 50
127.52351320610693
 51
52.47648680188081
  0
ARC
  8
_0-1_線色１__水色__
  6
CONTINUOUS
 62
    4
 10
1192.3498201577411
 20
545.9084290545477
 40
1.2083333333333177
 50
127.52351320610693
 51
52.47648680188081
  0
ARC
  8
_0-1_線色１__水色__
  6
CONTINUOUS
 62
    4
 10
1186.4619795803746
 20
545.90842905413729
 40
1.2083333333333177
 50
127.52351320610693
 51
52.47648680188081
  0
ARC
  8
_0-1_線色１__水色__
  6
CONTINUOUS
 62
    4
 10
1184.9900194358997
 20
547.82509572073673
 40
1.2083333333333581
 50
307.52351320333912
 51
232.47648680464988
  0
ARC
  8
_0-1_線色１__水色__
  6
CONTINUOUS
 62
    4
 10
1235.0366643435166
 20
547.82509572237836
 40
1.2083333333333581
 50
307.52351320333912
 51
232.47648680464988
  0
ARC
  8
_0-1_線色１__水色__
  6
CONTINUOUS
 62
    4
 10
1236.5086244879922
 20
545.90842905577892
 40
1.2083333333333177
 50
127.52351320610693
 51
52.47648680188081
  0
ARC
  8
_0-1_線色１__水色__
  6
CONTINUOUS
 62
    4
 10
1232.092744054833
 20
547.82509572217327
 40
1.2083333333333581
 50
307.52351320333912
 51
232.47648680464988
  0
ARC
  8
_0-1_線色１__水色__
  6
CONTINUOUS
 62
    4
 10
1233.5647041993082
 20
545.90842905557361
 40
1.2083333333333177
 50
127.52351320610693
 51
52.47648680188081
  0
ARC
  8
_0-1_線色１__水色__
  6
CONTINUOUS
 62
    4
 10
1229.1488237661497
 20
547.82509572196795
 40
1.2083333333333581
 50
307.52351320333912
 51
232.47648680464988
  0
ARC
  8
_0-1_線色１__水色__
  6
CONTINUOUS
 62
    4
 10
1230.6207839106253
 20
545.90842905536852
 40
1.2083333333333177
 50
127.52351320610693
 51
52.47648680188081
  0
ARC
  8
_0-1_線色１__水色__
  6
CONTINUOUS
 62
    4
 10
1226.2049034774668
 20
547.82509572176286
 40
1.2083333333333581
 50
307.52351320333912
 51
232.47648680464988
  0
ARC
  8
_0-1_線色１__水色__
  6
CONTINUOUS
 62
    4
 10
1227.6768636219417
 20
545.9084290551632
 40
1.2083333333333177
 50
127.52351320610693
 51
52.47648680188081
  0
ARC
  8
_0-1_線色１__水色__
  6
CONTINUOUS
 62
    4
 10
1223.2609831887828
 20
547.82509572155755
 40
1.2083333333333581
 50
307.52351320333912
 51
232.47648680464988
  0
ARC
  8
_0-1_線色１__水色__
  6
CONTINUOUS
 62
    4
 10
1224.7329433332584
 20
545.90842905495811
 40
1.2083333333333177
 50
127.52351320610693
 51
52.47648680188081
  0
ARC
  8
_0-1_線色１__水色__
  6
CONTINUOUS
 62
    4
 10
1220.3170629000999
 20
547.82509572135245
 40
1.2083333333333581
 50
307.52351320333912
 51
232.47648680464988
  0
ARC
  8
_0-1_線色１__水色__
  6
CONTINUOUS
 62
    4
 10
1221.7890230445751
 20
545.90842905475279
 40
1.2083333333333177
 50
127.52351320610693
 51
52.47648680188081
  0
ARC
  8
_0-1_線色１__水色__
  6
CONTINUOUS
 62
    4
 10
1214.429222322733
 20
547.82509572094204
 40
1.2083333333333581
 50
307.52351320333912
 51
232.47648680464988
  0
ARC
  8
_0-1_線色１__水色__
  6
CONTINUOUS
 62
    4
 10
1217.3731426114164
 20
547.82509572114714
 40
1.2083333333333581
 50
307.52351320333912
 51
232.47648680464988
  0
ARC
  8
_0-1_線色１__水色__
  6
CONTINUOUS
 62
    4
 10
1215.9011824672086
 20
545.90842905434238
 40
1.2083333333333177
 50
127.52351320610693
 51
52.47648680188081
  0
ARC
  8
_0-1_線色１__水色__
  6
CONTINUOUS
 62
    4
 10
1218.8451027558915
 20
545.9084290545477
 40
1.2083333333333177
 50
127.52351320610693
 51
52.47648680188081
  0
ARC
  8
_0-1_線色１__水色__
  6
CONTINUOUS
 62
    4
 10
1212.9572621785246
 20
545.90842905413729
 40
1.2083333333333177
 50
127.52351320610693
 51
52.47648680188081
  0
ARC
  8
_0-1_線色１__水色__
  6
CONTINUOUS
 62
    4
 10
1211.4853020340497
 20
547.82509572073673
 40
1.2083333333333581
 50
307.52351320333912
 51
232.47648680464988
  0
ARC
  8
_0-1_線色１__水色__
  6
CONTINUOUS
 62
    4
 10
1237.9805846321995
 20
547.82509572196795
 40
1.2083333333333581
 50
307.52351320333912
 51
232.47648680464988
  0
ARC
  8
_0-1_線色１__水色__
  6
CONTINUOUS
 62
    4
 10
1239.452544776675
 20
545.90842905536852
 40
1.2083333333333177
 50
127.5235132061069
 51
270
  0
ARC
  8
_0-1_線色１__水色__
  6
CONTINUOUS
 62
    4
 10
1108.4480919301552
 20
547.82509572215531
 40
1.2083333333333581
 50
307.52351320333912
 51
232.47648680464988
  0
ARC
  8
_0-1_線色１__水色__
  6
CONTINUOUS
 62
    4
 10
1109.9200520746303
 20
545.90842905555576
 40
1.2083333333333177
 50
127.52351320610693
 51
52.47648680188081
  0
ARC
  8
_0-1_線色１__水色__
  6
CONTINUOUS
 62
    4
 10
1105.5041716414717
 20
547.82509572195011
 40
1.2083333333333581
 50
307.52351320333912
 51
232.47648680464988
  0
ARC
  8
_0-1_線色１__水色__
  6
CONTINUOUS
 62
    4
 10
1106.9761317859468
 20
545.90842905535055
 40
1.2083333333333177
 50
127.52351320610693
 51
52.47648680188081
  0
ARC
  8
_0-1_線色１__水色__
  6
CONTINUOUS
 62
    4
 10
1102.5602513527883
 20
547.8250957217449
 40
1.2083333333333581
 50
307.52351320333912
 51
232.47648680464988
  0
ARC
  8
_0-1_線色１__水色__
  6
CONTINUOUS
 62
    4
 10
1104.0322114972639
 20
545.90842905514535
 40
1.2083333333333177
 50
127.52351320610693
 51
52.47648680188081
  0
ARC
  8
_0-1_線色１__水色__
  6
CONTINUOUS
 62
    4
 10
1099.616331064105
 20
547.8250957215397
 40
1.2083333333333581
 50
307.52351320333912
 51
232.47648680464988
  0
ARC
  8
_0-1_線色１__水色__
  6
CONTINUOUS
 62
    4
 10
1101.0882912085804
 20
545.90842905494014
 40
1.2083333333333177
 50
127.52351320610693
 51
52.47648680188081
  0
ARC
  8
_0-1_線色１__水色__
  6
CONTINUOUS
 62
    4
 10
1126.1116136622554
 20
547.8250957215397
 40
1.2083333333333581
 50
307.52351320333912
 51
232.47648680464988
  0
ARC
  8
_0-1_線色１__水色__
  6
CONTINUOUS
 62
    4
 10
1127.5835738067308
 20
545.90842905494014
 40
1.2083333333333177
 50
127.52351320610693
 51
52.47648680188081
  0
ARC
  8
_0-1_線色１__水色__
  6
CONTINUOUS
 62
    4
 10
1123.1676933735719
 20
547.82509572133449
 40
1.2083333333333581
 50
307.52351320333912
 51
232.47648680464988
  0
ARC
  8
_0-1_線色１__水色__
  6
CONTINUOUS
 62
    4
 10
1124.6396535180475
 20
545.90842905473494
 40
1.2083333333333177
 50
127.52351320610693
 51
52.47648680188081
  0
ARC
  8
_0-1_線色１__水色__
  6
CONTINUOUS
 62
    4
 10
1120.2237730848883
 20
547.82509572112929
 40
1.2083333333333581
 50
307.52351320333912
 51
232.47648680464988
  0
ARC
  8
_0-1_線色１__水色__
  6
CONTINUOUS
 62
    4
 10
1121.6957332293641
 20
545.90842905452973
 40
1.2083333333333177
 50
127.52351320610693
 51
52.47648680188081
  0
ARC
  8
_0-1_線色１__水色__
  6
CONTINUOUS
 62
    4
 10
1114.3359325075221
 20
547.82509572071888
 40
1.2083333333333581
 50
307.52351320333912
 51
232.47648680464988
  0
ARC
  8
_0-1_線色１__水色__
  6
CONTINUOUS
 62
    4
 10
1117.2798527962054
 20
547.82509572092408
 40
1.2083333333333581
 50
307.52351320333912
 51
232.47648680464988
  0
ARC
  8
_0-1_線色１__水色__
  6
CONTINUOUS
 62
    4
 10
1115.807892651997
 20
545.90842905411932
 40
1.2083333333333177
 50
127.52351320610693
 51
52.47648680188081
  0
ARC
  8
_0-1_線色１__水色__
  6
CONTINUOUS
 62
    4
 10
1118.7518129406806
 20
545.90842905432453
 40
1.2083333333333177
 50
127.52351320610693
 51
52.47648680188081
  0
ARC
  8
_0-1_線色１__水色__
  6
CONTINUOUS
 62
    4
 10
1112.8639723633137
 20
545.90842905391412
 40
1.2083333333333177
 50
127.52351320610693
 51
52.47648680188081
  0
ARC
  8
_0-1_線色１__水色__
  6
CONTINUOUS
 62
    4
 10
1111.3920122188388
 20
547.82509572051367
 40
1.2083333333333581
 50
307.52351320333912
 51
232.47648680464988
  0
ARC
  8
_0-1_線色１__水色__
  6
CONTINUOUS
 62
    4
 10
1079.0088890433447
 20
547.82509572193226
 40
1.2083333333333581
 50
307.52351320333912
 51
232.47648680464988
  0
ARC
  8
_0-1_線色１__水色__
  6
CONTINUOUS
 62
    4
 10
1080.4808491878198
 20
545.90842905533259
 40
1.2083333333333177
 50
127.52351320610693
 51
52.47648680188081
  0
ARC
  8
_0-1_線色１__水色__
  6
CONTINUOUS
 62
    4
 10
1076.0649687546611
 20
547.82509572172694
 40
1.2083333333333581
 50
307.52351320333912
 51
232.47648680464988
  0
ARC
  8
_0-1_線色１__水色__
  6
CONTINUOUS
 62
    4
 10
1077.5369288991362
 20
545.9084290551275
 40
1.2083333333333177
 50
127.52351320610693
 51
52.47648680188081
  0
ARC
  8
_0-1_線色１__水色__
  6
CONTINUOUS
 62
    4
 10
1073.1210484659778
 20
547.82509572152185
 40
1.2083333333333581
 50
307.52351320333912
 51
232.47648680464988
  0
ARC
  8
_0-1_線色１__水色__
  6
CONTINUOUS
 62
    4
 10
1074.5930086104534
 20
545.90842905492218
 40
1.2083333333333177
 50
127.52351320610693
 51
52.47648680188081
  0
ARC
  8
_0-1_線色１__水色__
  6
CONTINUOUS
 62
    4
 10
1070.1771281772944
 20
547.82509572131653
 40
1.2083333333333581
 50
307.52351320333912
 51
232.47648680464988
  0
ARC
  8
_0-1_線色１__水色__
  6
CONTINUOUS
 62
    4
 10
1071.6490883217698
 20
545.90842905471709
 40
1.2083333333333177
 50
127.52351320610693
 51
52.47648680188081
  0
ARC
  8
_0-1_線色１__水色__
  6
CONTINUOUS
 62
    4
 10
1096.6724107754449
 20
547.82509572131653
 40
1.2083333333333581
 50
307.52351320333912
 51
232.47648680464988
  0
ARC
  8
_0-1_線色１__水色__
  6
CONTINUOUS
 62
    4
 10
1098.1443709199198
 20
545.90842905471709
 40
1.2083333333333177
 50
127.52351320610693
 51
52.47648680188081
  0
ARC
  8
_0-1_線色１__水色__
  6
CONTINUOUS
 62
    4
 10
1093.7284904867613
 20
547.82509572111144
 40
1.2083333333333581
 50
307.52351320333912
 51
232.47648680464988
  0
ARC
  8
_0-1_線色１__水色__
  6
CONTINUOUS
 62
    4
 10
1095.2004506312369
 20
545.90842905451177
 40
1.2083333333333177
 50
127.52351320610693
 51
52.47648680188081
  0
ARC
  8
_0-1_線色１__水色__
  6
CONTINUOUS
 62
    4
 10
1090.7845701980777
 20
547.82509572090612
 40
1.2083333333333581
 50
307.52351320333912
 51
232.47648680464988
  0
ARC
  8
_0-1_線色１__水色__
  6
CONTINUOUS
 62
    4
 10
1092.2565303425529
 20
545.90842905430668
 40
1.2083333333333177
 50
127.52351320610693
 51
52.47648680188081
  0
ARC
  8
_0-1_線色１__水色__
  6
CONTINUOUS
 62
    4
 10
1084.8967296207115
 20
547.82509572049571
 40
1.2083333333333581
 50
307.52351320333912
 51
232.47648680464988
  0
ARC
  8
_0-1_線色１__水色__
  6
CONTINUOUS
 62
    4
 10
1087.8406499093944
 20
547.82509572070103
 40
1.2083333333333581
 50
307.52351320333912
 51
232.47648680464988
  0
ARC
  8
_0-1_線色１__水色__
  6
CONTINUOUS
 62
    4
 10
1086.3686897651864
 20
545.90842905389627
 40
1.2083333333333177
 50
127.52351320610693
 51
52.47648680188081
  0
ARC
  8
_0-1_線色１__水色__
  6
CONTINUOUS
 62
    4
 10
1089.31261005387
 20
545.90842905410136
 40
1.2083333333333177
 50
127.52351320610693
 51
52.47648680188081
  0
ARC
  8
_0-1_線色１__水色__
  6
CONTINUOUS
 62
    4
 10
1083.4247694765031
 20
545.90842905369095
 40
1.2083333333333177
 50
127.52351320610693
 51
52.47648680188081
  0
ARC
  8
_0-1_線色１__水色__
  6
CONTINUOUS
 62
    4
 10
1081.9528093320275
 20
547.82509572029062
 40
1.2083333333333581
 50
307.52351320333912
 51
232.47648680464988
  0
ARC
  8
_0-1_線色１__水色__
  6
CONTINUOUS
 62
    4
 10
1049.5696861565334
 20
547.82509572170909
 40
1.2083333333333581
 50
307.52351320333912
 51
232.47648680464988
  0
ARC
  8
_0-1_線色１__水色__
  6
CONTINUOUS
 62
    4
 10
1051.0416463010092
 20
545.90842905510954
 40
1.2083333333333177
 50
127.52351320610693
 51
52.47648680188081
  0
ARC
  8
_0-1_線色１__水色__
  6
CONTINUOUS
 62
    4
 10
1046.6257658678505
 20
547.82509572150389
 40
1.2083333333333581
 50
307.52351320333912
 51
232.47648680464988
  0
ARC
  8
_0-1_線色１__水色__
  6
CONTINUOUS
 62
    4
 10
1048.0977260123257
 20
545.90842905490433
 40
1.2083333333333177
 50
127.52351320610693
 51
52.47648680188081
  0
ARC
  8
_0-1_線色１__水色__
  6
CONTINUOUS
 62
    4
 10
1043.6818455791672
 20
547.82509572129868
 40
1.2083333333333581
 50
307.52351320333912
 51
232.47648680464988
  0
ARC
  8
_0-1_線色１__水色__
  6
CONTINUOUS
 62
    4
 10
1045.1538057236421
 20
545.90842905469913
 40
1.2083333333333177
 50
127.52351320610693
 51
52.47648680188081
  0
ARC
  8
_0-1_線色１__水色__
  6
CONTINUOUS
 62
    4
 10
1040.7379252904839
 20
547.82509572109348
 40
1.2083333333333581
 50
307.52351320333912
 51
232.47648680464988
  0
ARC
  8
_0-1_線色１__水色__
  6
CONTINUOUS
 62
    4
 10
1042.2098854349592
 20
545.90842905449392
 40
1.2083333333333177
 50
127.52351320610693
 51
52.47648680188081
  0
ARC
  8
_0-1_線色１__水色__
  6
CONTINUOUS
 62
    4
 10
1067.2332078886343
 20
547.82509572109348
 40
1.2083333333333581
 50
307.52351320333912
 51
232.47648680464988
  0
ARC
  8
_0-1_線色１__水色__
  6
CONTINUOUS
 62
    4
 10
1068.7051680331092
 20
545.90842905449392
 40
1.2083333333333177
 50
127.52351320610693
 51
52.47648680188081
  0
ARC
  8
_0-1_線色１__水色__
  6
CONTINUOUS
 62
    4
 10
1064.2892875999507
 20
547.82509572088827
 40
1.2083333333333581
 50
307.52351320333912
 51
232.47648680464988
  0
ARC
  8
_0-1_線色１__水色__
  6
CONTINUOUS
 62
    4
 10
1065.7612477444259
 20
545.90842905428872
 40
1.2083333333333177
 50
127.52351320610693
 51
52.47648680188081
  0
ARC
  8
_0-1_線色１__水色__
  6
CONTINUOUS
 62
    4
 10
1061.3453673112672
 20
547.82509572068307
 40
1.2083333333333581
 50
307.52351320333912
 51
232.47648680464988
  0
ARC
  8
_0-1_線色１__水色__
  6
CONTINUOUS
 62
    4
 10
1062.8173274557423
 20
545.90842905408351
 40
1.2083333333333177
 50
127.52351320610693
 51
52.47648680188081
  0
ARC
  8
_0-1_線色１__水色__
  6
CONTINUOUS
 62
    4
 10
1055.4575267339005
 20
547.82509572027266
 40
1.2083333333333581
 50
307.52351320333912
 51
232.47648680464988
  0
ARC
  8
_0-1_線色１__水色__
  6
CONTINUOUS
 62
    4
 10
1058.4014470225839
 20
547.82509572047786
 40
1.2083333333333581
 50
307.52351320333912
 51
232.47648680464988
  0
ARC
  8
_0-1_線色１__水色__
  6
CONTINUOUS
 62
    4
 10
1056.9294868783759
 20
545.9084290536731
 40
1.2083333333333177
 50
127.52351320610693
 51
52.47648680188081
  0
ARC
  8
_0-1_線色１__水色__
  6
CONTINUOUS
 62
    4
 10
1059.8734071670594
 20
545.90842905387831
 40
1.2083333333333177
 50
127.52351320610693
 51
52.47648680188081
  0
ARC
  8
_0-1_線色１__水色__
  6
CONTINUOUS
 62
    4
 10
1053.9855665896926
 20
545.9084290534679
 40
1.2083333333333177
 50
127.52351320610693
 51
52.47648680188081
  0
ARC
  8
_0-1_線色１__水色__
  6
CONTINUOUS
 62
    4
 10
1052.513606445217
 20
547.82509572006745
 40
1.2083333333333581
 50
307.52351320333912
 51
232.47648680464988
  0
ARC
  8
_0-1_線色１__水色__
  6
CONTINUOUS
 62
    4
 10
1020.130483269723
 20
547.82509572148592
 40
1.2083333333333581
 50
307.52351320333912
 51
232.47648680464988
  0
ARC
  8
_0-1_線色１__水色__
  6
CONTINUOUS
 62
    4
 10
1021.602443414198
 20
545.90842905488648
 40
1.2083333333333177
 50
127.52351320610693
 51
52.47648680188081
  0
ARC
  8
_0-1_線色１__水色__
  6
CONTINUOUS
 62
    4
 10
1017.1865629810395
 20
547.82509572128083
 40
1.2083333333333581
 50
307.52351320333912
 51
232.47648680464988
  0
ARC
  8
_0-1_線色１__水色__
  6
CONTINUOUS
 62
    4
 10
1018.6585231255151
 20
545.90842905468116
 40
1.2083333333333177
 50
127.52351320610693
 51
52.47648680188081
  0
ARC
  8
_0-1_線色１__水色__
  6
CONTINUOUS
 62
    4
 10
1014.2426426923566
 20
547.82509572107551
 40
1.2083333333333581
 50
307.52351320333912
 51
232.47648680464988
  0
ARC
  8
_0-1_線色１__水色__
  6
CONTINUOUS
 62
    4
 10
1015.7146028368317
 20
545.90842905447607
 40
1.2083333333333177
 50
127.52351320610693
 51
52.47648680188081
  0
ARC
  8
_0-1_線色１__水色__
  6
CONTINUOUS
 62
    4
 10
1011.2987224036726
 20
547.82509572087042
 40
1.2083333333333581
 50
307.52351320333912
 51
232.47648680464988
  0
ARC
  8
_0-1_線色１__水色__
  6
CONTINUOUS
 62
    4
 10
1012.7706825481482
 20
545.90842905427075
 40
1.2083333333333177
 50
127.52351320610693
 51
52.47648680188081
  0
ARC
  8
_0-1_線色１__水色__
  6
CONTINUOUS
 62
    4
 10
1037.7940050018231
 20
547.82509572087042
 40
1.2083333333333581
 50
307.52351320333912
 51
232.47648680464988
  0
ARC
  8
_0-1_線色１__水色__
  6
CONTINUOUS
 62
    4
 10
1039.2659651462986
 20
545.90842905427075
 40
1.2083333333333177
 50
127.52351320610693
 51
52.47648680188081
  0
ARC
  8
_0-1_線色１__水色__
  6
CONTINUOUS
 62
    4
 10
1034.8500847131402
 20
547.8250957206651
 40
1.2083333333333581
 50
307.52351320333912
 51
232.47648680464988
  0
ARC
  8
_0-1_線色１__水色__
  6
CONTINUOUS
 62
    4
 10
1036.3220448576153
 20
545.90842905406566
 40
1.2083333333333177
 50
127.52351320610693
 51
52.47648680188081
  0
ARC
  8
_0-1_線色１__水色__
  6
CONTINUOUS
 62
    4
 10
1031.9061644244562
 20
547.82509572046001
 40
1.2083333333333581
 50
307.52351320333912
 51
232.47648680464988
  0
ARC
  8
_0-1_線色１__水色__
  6
CONTINUOUS
 62
    4
 10
1033.3781245689318
 20
545.90842905386035
 40
1.2083333333333177
 50
127.52351320610693
 51
52.47648680188081
  0
ARC
  8
_0-1_線色１__水色__
  6
CONTINUOUS
 62
    4
 10
1026.01832384709
 20
547.8250957200496
 40
1.2083333333333581
 50
307.52351320333912
 51
232.47648680464988
  0
ARC
  8
_0-1_線色１__水色__
  6
CONTINUOUS
 62
    4
 10
1028.9622441357733
 20
547.82509572025469
 40
1.2083333333333581
 50
307.52351320333912
 51
232.47648680464988
  0
ARC
  8
_0-1_線色１__水色__
  6
CONTINUOUS
 62
    4
 10
1027.4902839915649
 20
545.90842905344994
 40
1.2083333333333177
 50
127.52351320610693
 51
52.47648680188081
  0
ARC
  8
_0-1_線色１__水色__
  6
CONTINUOUS
 62
    4
 10
1030.4342042802489
 20
545.90842905365525
 40
1.2083333333333177
 50
127.52351320610693
 51
52.47648680188081
  0
ARC
  8
_0-1_線色１__水色__
  6
CONTINUOUS
 62
    4
 10
1024.546363702882
 20
545.90842905324484
 40
1.2083333333333177
 50
127.52351320610693
 51
52.47648680188081
  0
ARC
  8
_0-1_線色１__水色__
  6
CONTINUOUS
 62
    4
 10
1023.0744035584064
 20
547.82509571984428
 40
1.2083333333333581
 50
307.52351320333912
 51
232.47648680464988
  0
ARC
  8
_0-1_線色１__水色__
  6
CONTINUOUS
 62
    4
 10
990.6912803829124
 20
547.82509572126287
 40
1.2083333333333581
 50
307.52351320333912
 51
232.47648680464988
  0
ARC
  8
_0-1_線色１__水色__
  6
CONTINUOUS
 62
    4
 10
992.16324052738742
 20
545.90842905466332
 40
1.2083333333333177
 50
127.52351320610693
 51
52.47648680188081
  0
ARC
  8
_0-1_線色１__水色__
  6
CONTINUOUS
 62
    4
 10
987.74736009422895
 20
547.82509572105766
 40
1.2083333333333581
 50
307.52351320333912
 51
232.47648680464988
  0
ARC
  8
_0-1_線色１__水色__
  6
CONTINUOUS
 62
    4
 10
989.21932023870397
 20
545.90842905445811
 40
1.2083333333333177
 50
127.52351320610693
 51
52.47648680188081
  0
ARC
  8
_0-1_線色１__水色__
  6
CONTINUOUS
 62
    4
 10
984.80343980554551
 20
547.82509572085246
 40
1.2083333333333581
 50
307.52351320333912
 51
232.47648680464988
  0
ARC
  8
_0-1_線色１__水色__
  6
CONTINUOUS
 62
    4
 10
986.2753999500211
 20
545.90842905425291
 40
1.2083333333333177
 50
127.52351320610693
 51
52.47648680188081
  0
ARC
  8
_0-1_線色１__水色__
  6
CONTINUOUS
 62
    4
 10
981.85951951686206
 20
547.82509572064725
 40
1.2083333333333581
 50
307.52351320333912
 51
232.47648680464988
  0
ARC
  8
_0-1_線色１__水色__
  6
CONTINUOUS
 62
    4
 10
983.33147966133765
 20
545.9084290540477
 40
1.2083333333333177
 50
127.52351320610693
 51
52.47648680188081
  0
ARC
  8
_0-1_線色１__水色__
  6
CONTINUOUS
 62
    4
 10
1008.3548021150125
 20
547.82509572064725
 40
1.2083333333333581
 50
307.52351320333912
 51
232.47648680464988
  0
ARC
  8
_0-1_線色１__水色__
  6
CONTINUOUS
 62
    4
 10
1009.8267622594881
 20
545.9084290540477
 40
1.2083333333333177
 50
127.52351320610693
 51
52.47648680188081
  0
ARC
  8
_0-1_線色１__水色__
  6
CONTINUOUS
 62
    4
 10
1005.410881826329
 20
547.82509572044205
 40
1.2083333333333581
 50
307.52351320333912
 51
232.47648680464988
  0
ARC
  8
_0-1_線色１__水色__
  6
CONTINUOUS
 62
    4
 10
1006.8828419708046
 20
545.9084290538425
 40
1.2083333333333177
 50
127.52351320610693
 51
52.47648680188081
  0
ARC
  8
_0-1_線色１__水色__
  6
CONTINUOUS
 62
    4
 10
1002.4669615376456
 20
547.82509572023685
 40
1.2083333333333581
 50
307.52351320333912
 51
232.47648680464988
  0
ARC
  8
_0-1_線色１__水色__
  6
CONTINUOUS
 62
    4
 10
1003.9389216821212
 20
545.90842905363729
 40
1.2083333333333177
 50
127.52351320610693
 51
52.47648680188081
  0
ARC
  8
_0-1_線色１__水色__
  6
CONTINUOUS
 62
    4
 10
996.57912096027928
 20
547.82509571982644
 40
1.2083333333333581
 50
307.52351320333912
 51
232.47648680464988
  0
ARC
  8
_0-1_線色１__水色__
  6
CONTINUOUS
 62
    4
 10
999.52304124896273
 20
547.82509572003164
 40
1.2083333333333581
 50
307.52351320333912
 51
232.47648680464988
  0
ARC
  8
_0-1_線色１__水色__
  6
CONTINUOUS
 62
    4
 10
998.0510811047543
 20
545.90842905322688
 40
1.2083333333333177
 50
127.52351320610693
 51
52.47648680188081
  0
ARC
  8
_0-1_線色１__水色__
  6
CONTINUOUS
 62
    4
 10
1000.9950013934377
 20
545.90842905343209
 40
1.2083333333333177
 50
127.52351320610693
 51
52.47648680188081
  0
ARC
  8
_0-1_線色１__水色__
  6
CONTINUOUS
 62
    4
 10
995.10716081607086
 20
545.90842905302168
 40
1.2083333333333177
 50
127.52351320610693
 51
52.47648680188081
  0
ARC
  8
_0-1_線色１__水色__
  6
CONTINUOUS
 62
    4
 10
993.63520067159584
 20
547.82509571962123
 40
1.2083333333333581
 50
307.52351320333912
 51
232.47648680464988
  0
ARC
  8
_0-1_線色１__水色__
  6
CONTINUOUS
 62
    4
 10
978.91559922820193
 20
547.82509572042409
 40
1.2083333333333581
 50
307.52351320333912
 51
82.570446798685794
  0
ARC
  8
_0-1_線色１__水色__
  6
CONTINUOUS
 62
    4
 10
980.38755937267752
 20
545.90842905382465
 40
1.2083333333333177
 50
127.52351320610693
 51
154.32245408297459
  0
ARC
  8
_0-1_線色１__水色__
  6
CONTINUOUS
 62
    4
 10
980.38755937267752
 20
545.90842905382465
 40
1.2083333333333177
 50
215.67754591704434
 51
52.47648680188081
  0
LINE
  8
_0-5_金属
  6
CONTINUOUS
 62
    7
 10
1045.5352746766794
 20
450.36676138501065
 11
1109.5352746766798
 21
450.36676138501065
  0
LINE
  8
_0-5_金属
  6
CONTINUOUS
 62
    7
 10
1109.5352746766798
 20
450.36676138501065
 11
1109.5352746766798
 21
459.36676138501042
  0
LINE
  8
_0-5_金属
  6
CONTINUOUS
 62
    7
 10
959.53527467667982
 20
450.36676138501065
 11
1023.5352746766796
 21
450.36676138501065
  0
ARC
  8
_0-5_金属
  6
CONTINUOUS
 62
    7
 10
1023.5352746766796
 20
442.36676138501053
 40
8
 50
0
 51
90
  0
ARC
  8
_0-5_金属
  6
CONTINUOUS
 62
    7
 10
1045.5352746766794
 20
442.36676138501053
 40
8
 50
90
 51
180
  0
LINE
  8
_0-5_金属
  6
CONTINUOUS
 62
    7
 10
1031.5352746766798
 20
442.36676138501053
 11
1031.5352746766798
 21
385.06763162026999
  0
LINE
  8
_0-5_金属
  6
CONTINUOUS
 62
    7
 10
1037.5352746766798
 20
385.06763162026999
 11
1037.5352746766798
 21
442.36676138501053
  0
LINE
  8
_0-a_文字
  6
CONTINUOUS
 62
    7
 10
1025.2761636593004
 20
509.36676238327976
 11
1094.5581965384058
 21
389.36676138501042
  0
LINE
  8
_0-a_文字
  6
CONTINUOUS
 62
    7
 10
1094.5581965384058
 20
389.36676138501042
 11
1114.5581965384058
 21
389.36676138501042
  0
TEXT
  8
_0-a_文字
 62
    7
 10
1187.3299927216101
 20
426.86676138501042
 40
15.000000000000036
 41
0.9999999999999956
 50
0
  1
耐火デッキプレート t=1.2以上
  0
TEXT
  8
_0-a_文字
 62
    7
 10
1187.3299927216101
 20
406.86676138501042
 40
15.000000000000036
 41
0.9999999999999956
 50
0
  1
（別途工事）
  0
TEXT
  8
_0-a_文字
 62
    7
 10
1119.5581965384058
 20
381.86676138501042
 40
15.000000000000036
 41
0.9999999999999981
 50
0
  1
亜鉛めっき鋼板 t=1.2以上
  0
TEXT
  8
_0-a_文字
 62
    7
 10
1119.5581965384058
 20
361.86676138501042
 40
15.000000000000036
 41
0.9999999999999981
 50
0
  1
（別途工事）
  0
LINE
  8
_0-a_文字
  6
CONTINUOUS
 62
    7
 10
1074.5982879901874
 20
679.36676238327982
 11
1094.5982879901874
 21
679.36676238327982
  0
TEXT
  8
_0-a_文字
 62
    7
 10
1099.5982879901885
 20
671.86676238327982
 40
14.999999999999947
 41
1.0000000000000056
 50
0
  1
ＢＰ－Ｈ１５
  0
LINE
  8
_0-a_文字
  6
CONTINUOUS
 62
    7
 10
1001.5352746766814
 20
552.81791117020339
 11
1074.5982879901874
 21
679.36676238327982
  0
TEXT
  8
_f-0_
 62
    7
 10
405.30228976001922
 20
1163.75
 40
17.5
 41
1
 50
0
  1
パラペット 立上り接着工法（笠木なし）
  0
LINE
  8
_0-7_ビス
  6
CONTINUOUS
 62
    7
 10
877.26420686481219
 20
913.63329578558989
 11
877.26420686481219
 21
914.01791117020571
  0
LINE
  8
_0-7_ビス
  6
DASHED3
 62
    7
 10
872.73167498106716
 20
911.46854163937803
 11
873.81422270096095
 21
914.01791117020571
  0
LINE
  8
_0-7_ビス
  6
CONTINUOUS
 62
    7
 10
865.26420686481231
 20
913.63329578558989
 11
865.26420686481231
 21
914.01791117020571
  0
LINE
  8
_0-7_ビス
  6
DASHED3
 62
    7
 10
869.79673874855735
 20
911.46854163937803
 11
868.71419102866355
 21
914.01791117020571
  0
LINE
  8
_0-7_ビス
  6
CONTINUOUS
 62
    7
 10
877.26420686481219
 20
913.63329578558989
 11
865.26420686481231
 21
913.63329578558989
  0
LINE
  8
_0-7_ビス
  6
CONTINUOUS
 62
    7
 10
877.26420686481219
 20
914.01791117020571
 11
865.26420686481231
 21
914.01791117020571
  0
LINE
  8
ADD_LINE
  6
DOT
 62
    4
 10
871.26420686481197
 20
880.89854650825464
 11
871.26420686481197
 21
920.51526625087149
  0
ARC
  8
_0-7_ビス
  6
DASHED3
 62
    7
 10
871.26420686481197
 20
912.57908473764451
 40
1.8403175392666382
 50
217.11750793457031
 51
322.88247680664062
  0
LINE
  8
_0-7_ビス
  6
CONTINUOUS
 62
    7
 10
875.34999330243863
 20
911.71908222321667
 11
877.26420686481219
 21
913.63329578558989
  0
ARC
  8
_0-7_ビス
  6
CONTINUOUS
 62
    7
 10
876.76420686481151
 20
910.30486866084379
 40
2
 50
135.00000000000153
 51
180.00000000000003
  0
LINE
  8
_0-7_ビス
  6
CONTINUOUS
 62
    7
 10
867.1784204271853
 20
911.71908222321667
 11
865.26420686481174
 21
913.63329578558989
  0
ARC
  8
_0-7_ビス
  6
CONTINUOUS
 62
    7
 10
865.76420686481242
 20
910.30486866084379
 40
2
 50
0
 51
44.999999999998501
  0
LINE
  8
_0-7_ビス
  6
CONTINUOUS
 62
    7
 10
874.76420686481219
 20
910.01791117020559
 11
867.76420686481174
 21
910.01791117020559
  0
LINE
  8
_0-7_ビス
  6
CONTINUOUS
 62
    7
 10
874.76420686481219
 20
894.17802774312781
 11
867.76420686481174
 21
894.17802774312781
  0
LINE
  8
_0-7_ビス
  6
CONTINUOUS
 62
    7
 10
874.76420686481219
 20
909.01791117020571
 11
867.76420686481174
 21
909.01791117020571
  0
LINE
  8
_0-7_ビス
  6
CONTINUOUS
 62
    4
 10
870.25019548912212
 20
894.17802774312781
 11
874.76420686481219
 21
895.38759306152315
  0
LINE
  8
_0-7_ビス
  6
CONTINUOUS
 62
    4
 10
867.76420686481174
 20
907.8181078108114
 11
872.24178730675249
 21
909.01791117020571
  0
LINE
  8
_0-7_ビス
  6
CONTINUOUS
 62
    4
 10
867.76420686481174
 20
895.51188728143438
 11
874.76420686481219
 21
897.38759306152338
  0
LINE
  8
_0-7_ビス
  6
CONTINUOUS
 62
    4
 10
867.76420686481174
 20
897.51188728143484
 11
874.76420686481219
 21
899.38759306152315
  0
LINE
  8
_0-7_ビス
  6
CONTINUOUS
 62
    4
 10
867.76420686481174
 20
899.51188728143484
 11
874.76420686481219
 21
901.38759306152315
  0
LINE
  8
_0-7_ビス
  6
CONTINUOUS
 62
    4
 10
867.76420686481174
 20
901.51188728143461
 11
874.76420686481219
 21
903.38759306152326
  0
LINE
  8
_0-7_ビス
  6
CONTINUOUS
 62
    4
 10
867.76420686481174
 20
903.51188728143461
 11
874.76420686481219
 21
905.38759306152315
  0
LINE
  8
_0-7_ビス
  6
CONTINUOUS
 62
    4
 10
867.76420686481174
 20
905.51188728143507
 11
874.76420686481219
 21
907.3875930615236
  0
LINE
  8
_0-7_ビス
  6
CONTINUOUS
 62
    7
 10
874.76420686481219
 20
910.30486866084379
 11
874.76420686481219
 21
890.69875368529119
  0
LINE
  8
_0-7_ビス
  6
CONTINUOUS
 62
    7
 10
874.76420686481219
 20
890.69875368529119
 11
871.26420686481197
 21
888.67802774312793
  0
LINE
  8
_0-7_ビス
  6
CONTINUOUS
 62
    7
 10
867.76420686481174
 20
910.30486866084379
 11
867.76420686481174
 21
890.69875368529119
  0
LINE
  8
_0-7_ビス
  6
CONTINUOUS
 62
    7
 10
867.76420686481174
 20
890.69875368529119
 11
871.26420686481197
 21
888.67802774312793
  0
LINE
  8
_0-2_線色２__白__
  6
CONTINUOUS
 62
    7
 10
833.00921479435942
 20
919.01791117020571
 11
832.99099600683633
 21
919.14881611688656
  0
LINE
  8
_0-2_線色２__白__
  6
CONTINUOUS
 62
    7
 10
832.99099600683633
 20
919.14881611688656
 11
832.95792922717567
 21
919.37389005190562
  0
LINE
  8
_0-2_線色２__白__
  6
CONTINUOUS
 62
    7
 10
832.95792922717567
 20
919.37389005190562
 11
832.9202650113092
 21
919.59722996216351
  0
LINE
  8
_0-2_線色２__白__
  6
CONTINUOUS
 62
    7
 10
832.9202650113092
 20
919.59722996216351
 11
832.87509358948569
 21
919.81773836363459
  0
LINE
  8
_0-2_線色２__白__
  6
CONTINUOUS
 62
    7
 10
832.87509358948569
 20
919.81773836363459
 11
832.81950519195505
 21
920.03431777229252
  0
LINE
  8
_0-2_線色２__白__
  6
CONTINUOUS
 62
    7
 10
832.81950519195505
 20
920.03431777229252
 11
832.75059004896605
 21
920.24587070411167
  0
LINE
  8
_0-2_線色２__白__
  6
CONTINUOUS
 62
    7
 10
832.75059004896605
 20
920.24587070411167
 11
832.70336635067338
 21
920.36583580710408
  0
LINE
  8
_0-2_線色２__白__
  6
CONTINUOUS
 62
    7
 10
832.70336635067338
 20
920.36583580710408
 11
832.66242528941007
 21
920.45795264669459
  0
LINE
  8
_0-2_線色２__白__
  6
CONTINUOUS
 62
    7
 10
832.66242528941007
 20
920.45795264669459
 11
832.58401011672845
 21
920.61366694970752
  0
LINE
  8
_0-2_線色２__白__
  6
CONTINUOUS
 62
    7
 10
832.58401011672845
 20
920.61366694970752
 11
832.49690310240112
 21
920.76567055258829
  0
LINE
  8
_0-2_線色２__白__
  6
CONTINUOUS
 62
    7
 10
832.49690310240112
 20
920.76567055258829
 11
832.40251811325322
 21
920.91422306838865
  0
LINE
  8
_0-2_線色２__白__
  6
CONTINUOUS
 62
    7
 10
832.40251811325322
 20
920.91422306838865
 11
832.30226901610877
 21
921.05958411016081
  0
LINE
  8
_0-2_線色２__白__
  6
CONTINUOUS
 62
    7
 10
832.30226901610877
 20
921.05958411016081
 11
832.1975696777929
 21
921.20201329095698
  0
LINE
  8
_0-2_線色２__白__
  6
CONTINUOUS
 62
    7
 10
832.1975696777929
 20
921.20201329095698
 11
832.13536209811423
 21
921.28338113816176
  0
LINE
  8
_0-2_線色２__白__
  6
CONTINUOUS
 62
    7
 10
832.13536209811423
 20
921.28338113816176
 11
832.06114582417797
 21
921.37806473096384
  0
LINE
  8
_0-2_線色２__白__
  6
CONTINUOUS
 62
    7
 10
832.06114582417797
 20
921.37806473096384
 11
831.93092088407411
 21
921.5387835248257
  0
LINE
  8
_0-2_線色２__白__
  6
CONTINUOUS
 62
    7
 10
831.93092088407411
 20
921.5387835248257
 11
831.79806906485283
 21
921.69665028721624
  0
LINE
  8
_0-2_線色２__白__
  6
CONTINUOUS
 62
    7
 10
831.79806906485283
 20
921.69665028721624
 11
831.66287092672519
 21
921.85207078068265
  0
LINE
  8
_0-2_線色２__白__
  6
CONTINUOUS
 62
    7
 10
831.66287092672519
 20
921.85207078068265
 11
831.52560702990172
 21
922.00545076776984
  0
LINE
  8
_0-2_線色２__白__
  6
CONTINUOUS
 62
    7
 10
831.52560702990172
 20
922.00545076776984
 11
831.38655793459293
 21
922.15719601102501
  0
LINE
  8
_0-2_線色２__白__
  6
CONTINUOUS
 62
    7
 10
831.38655793459293
 20
922.15719601102501
 11
831.30520203668084
 21
922.2446191040317
  0
LINE
  8
_0-2_線色２__白__
  6
CONTINUOUS
 62
    7
 10
831.30520203668084
 20
922.2446191040317
 11
831.21956696326663
 21
922.3356892784301
  0
LINE
  8
_0-2_線色２__白__
  6
CONTINUOUS
 62
    7
 10
831.21956696326663
 20
922.3356892784301
 11
831.07036960495861
 21
922.49139102726303
  0
LINE
  8
_0-2_線色２__白__
  6
CONTINUOUS
 62
    7
 10
831.07036960495861
 20
922.49139102726303
 11
830.9186193913888
 21
922.64473700566271
  0
LINE
  8
_0-2_線色２__白__
  6
CONTINUOUS
 62
    7
 10
830.9186193913888
 20
922.64473700566271
 11
830.76363031188578
 21
922.79492464458349
  0
LINE
  8
_0-2_線色２__白__
  6
CONTINUOUS
 62
    7
 10
830.76363031188578
 20
922.79492464458349
 11
830.60471635577869
 21
922.94115137498034
  0
LINE
  8
_0-2_線色２__白__
  6
CONTINUOUS
 62
    7
 10
830.60471635577869
 20
922.94115137498034
 11
830.44119151239784
 21
923.08261462780843
  0
LINE
  8
_0-2_線色２__白__
  6
CONTINUOUS
 62
    7
 10
830.44119151239784
 20
923.08261462780843
 11
830.3439640708109
 21
923.16216443508915
  0
LINE
  8
_0-2_線色２__白__
  6
CONTINUOUS
 62
    7
 10
830.3439640708109
 20
923.16216443508915
 11
830.25631037126857
 21
923.23088978758528
  0
LINE
  8
_0-2_線色２__白__
  6
CONTINUOUS
 62
    7
 10
830.25631037126857
 20
923.23088978758528
 11
830.10169727134837
 21
923.34510255538567
  0
LINE
  8
_0-2_線色２__白__
  6
CONTINUOUS
 62
    7
 10
830.10169727134837
 20
923.34510255538567
 11
829.9427321281587
 21
923.45307524431655
  0
LINE
  8
_0-2_線色２__白__
  6
CONTINUOUS
 62
    7
 10
829.9427321281587
 20
923.45307524431655
 11
829.77948547093206
 21
923.55385047574282
  0
LINE
  8
_0-2_線色２__白__
  6
CONTINUOUS
 62
    7
 10
829.77948547093206
 20
923.55385047574282
 11
829.61202782890098
 21
923.64647087102958
  0
LINE
  8
_0-2_線色２__白__
  6
CONTINUOUS
 62
    7
 10
829.61202782890098
 20
923.64647087102958
 11
829.4404297312974
 21
923.72997905154057
  0
LINE
  8
_0-2_線色２__白__
  6
CONTINUOUS
 62
    7
 10
829.4404297312974
 20
923.72997905154057
 11
829.33903347012915
 21
923.77386132246102
  0
LINE
  8
_0-2_線色２__白__
  6
CONTINUOUS
 62
    7
 10
829.33903347012915
 20
923.77386132246102
 11
829.22512797738932
 21
923.81839003572452
  0
LINE
  8
_0-2_線色２__白__
  6
CONTINUOUS
 62
    7
 10
829.22512797738932
 20
923.81839003572452
 11
829.02523951953469
 21
923.88570066413854
  0
LINE
  8
_0-2_線色２__白__
  6
CONTINUOUS
 62
    7
 10
829.02523951953469
 20
923.88570066413854
 11
828.82153742067658
 21
923.94230421563657
  0
LINE
  8
_0-2_線色２__白__
  6
CONTINUOUS
 62
    7
 10
828.82153742067658
 20
923.94230421563657
 11
828.61473834386743
 21
923.9896790893672
  0
LINE
  8
_0-2_線色２__白__
  6
CONTINUOUS
 62
    7
 10
828.61473834386743
 20
923.9896790893672
 11
828.40555895215914
 21
924.02930368447642
  0
LINE
  8
_0-2_線色２__白__
  6
CONTINUOUS
 62
    7
 10
828.40555895215914
 20
924.02930368447642
 11
828.19471590860303
 21
924.06265640011213
  0
LINE
  8
_0-2_線色２__白__
  6
CONTINUOUS
 62
    7
 10
828.19471590860303
 20
924.06265640011213
 11
828.07194706057317
 21
924.07970976614683
  0
LINE
  8
_0-2_線色２__白__
  6
CONTINUOUS
 62
    7
 10
828.07194706057317
 20
924.07970976614683
 11
827.92349009048962
 21
924.09842676541359
  0
LINE
  8
_0-2_線色２__白__
  6
CONTINUOUS
 62
    7
 10
827.92349009048962
 20
924.09842676541359
 11
827.66716982520506
 21
924.12533352650314
  0
LINE
  8
_0-2_線色２__白__
  6
CONTINUOUS
 62
    7
 10
827.66716982520506
 20
924.12533352650314
 11
827.41077449662384
 21
924.14419177380239
  0
LINE
  8
_0-2_線色２__白__
  6
CONTINUOUS
 62
    7
 10
827.41077449662384
 20
924.14419177380239
 11
827.15474665999295
 21
924.15353786498918
  0
LINE
  8
_0-2_線色２__白__
  6
CONTINUOUS
 62
    7
 10
827.15474665999295
 20
924.15353786498918
 11
826.89952887055881
 21
924.1519081577419
  0
LINE
  8
_0-2_線色２__白__
  6
CONTINUOUS
 62
    7
 10
826.89952887055881
 20
924.1519081577419
 11
826.64556368356727
 21
924.13783900973931
  0
LINE
  8
_0-2_線色２__白__
  6
CONTINUOUS
 62
    7
 10
826.64556368356727
 20
924.13783900973931
 11
826.49901220733113
 21
924.12340240095909
  0
LINE
  8
_0-2_線色２__白__
  6
CONTINUOUS
 62
    7
 10
826.49901220733113
 20
924.12340240095909
 11
826.39166801576494
 21
924.10971261487362
  0
LINE
  8
_0-2_線色２__白__
  6
CONTINUOUS
 62
    7
 10
826.39166801576494
 20
924.10971261487362
 11
826.20721795499549
 21
924.08075298363292
  0
LINE
  8
_0-2_線色２__白__
  6
CONTINUOUS
 62
    7
 10
826.20721795499549
 20
924.08075298363292
 11
826.02324709755464
 21
924.04643750209425
  0
LINE
  8
_0-2_線色２__白__
  6
CONTINUOUS
 62
    7
 10
826.02324709755464
 20
924.04643750209425
 11
825.8393910616968
 21
924.00842267606686
  0
LINE
  8
_0-2_線色２__白__
  6
CONTINUOUS
 62
    7
 10
825.8393910616968
 20
924.00842267606686
 11
825.65528546567634
 21
923.96836501136045
  0
LINE
  8
_0-2_線色２__白__
  6
CONTINUOUS
 62
    7
 10
825.65528546567634
 20
923.96836501136045
 11
825.47056592774823
 21
923.92792101378495
  0
LINE
  8
_0-2_線色２__白__
  6
CONTINUOUS
 62
    7
 10
825.47056592774823
 20
923.92792101378495
 11
825.36300370221227
 21
923.9049392268978
  0
LINE
  8
_0-2_線色２__白__
  6
CONTINUOUS
 62
    7
 10
825.36300370221227
 20
923.9049392268978
 11
825.24089247088398
 21
923.87966550539977
  0
LINE
  8
_0-2_線色２__白__
  6
CONTINUOUS
 62
    7
 10
825.24089247088398
 20
923.87966550539977
 11
825.03009444732015
 21
923.83631598916486
  0
LINE
  8
_0-2_線色２__白__
  6
CONTINUOUS
 62
    7
 10
825.03009444732015
 20
923.83631598916486
 11
824.82038922348295
 21
923.79018283101573
  0
LINE
  8
_0-2_線色２__白__
  6
CONTINUOUS
 62
    7
 10
824.82038922348295
 20
923.79018283101573
 11
824.61343227421537
 21
923.73769678931239
  0
LINE
  8
_0-2_線色２__白__
  6
CONTINUOUS
 62
    7
 10
824.61343227421537
 20
923.73769678931239
 11
824.41087907436042
 21
923.67528862241386
  0
LINE
  8
_0-2_線色２__白__
  6
CONTINUOUS
 62
    7
 10
824.41087907436042
 20
923.67528862241386
 11
824.21438509876111
 21
923.5993890886798
  0
LINE
  8
_0-2_線色２__白__
  6
CONTINUOUS
 62
    7
 10
824.21438509876111
 20
923.5993890886798
 11
824.10384727264045
 21
923.54777914802298
  0
LINE
  8
_0-2_線色２__白__
  6
CONTINUOUS
 62
    7
 10
824.10384727264045
 20
923.54777914802298
 11
824.00452504146131
 21
923.49469367609936
  0
LINE
  8
_0-2_線色２__白__
  6
CONTINUOUS
 62
    7
 10
824.00452504146131
 20
923.49469367609936
 11
823.83910112627063
 21
923.39140739500044
  0
LINE
  8
_0-2_線色２__白__
  6
CONTINUOUS
 62
    7
 10
823.83910112627063
 20
923.39140739500044
 11
823.68104955491162
 21
923.27485776326876
  0
LINE
  8
_0-2_線色２__白__
  6
CONTINUOUS
 62
    7
 10
823.68104955491162
 20
923.27485776326876
 11
823.53037450849456
 21
923.14693108995448
  0
LINE
  8
_0-2_線色２__白__
  6
CONTINUOUS
 62
    7
 10
823.53037450849456
 20
923.14693108995448
 11
823.38708016812859
 21
923.00951368410722
  0
LINE
  8
_0-2_線色２__白__
  6
CONTINUOUS
 62
    7
 10
823.38708016812859
 20
923.00951368410722
 11
823.251170714924
 21
922.8644918547775
  0
LINE
  8
_0-2_線色２__白__
  6
CONTINUOUS
 62
    7
 10
823.251170714924
 20
922.8644918547775
 11
823.17572863493751
 21
922.77763815078038
  0
LINE
  8
_0-2_線色２__白__
  6
CONTINUOUS
 62
    7
 10
823.17572863493751
 20
922.77763815078038
 11
823.0914336105667
 21
922.67507076278912
  0
LINE
  8
_0-2_線色２__白__
  6
CONTINUOUS
 62
    7
 10
823.0914336105667
 20
922.67507076278912
 11
822.95326175129844
 21
922.49378575305286
  0
LINE
  8
_0-2_線色２__白__
  6
CONTINUOUS
 62
    7
 10
822.95326175129844
 20
922.49378575305286
 11
822.82315148427926
 21
922.30756107843263
  0
LINE
  8
_0-2_線色２__白__
  6
CONTINUOUS
 62
    7
 10
822.82315148427926
 20
922.30756107843263
 11
822.69993158229283
 21
922.11719501734342
  0
LINE
  8
_0-2_線色２__白__
  6
CONTINUOUS
 62
    7
 10
822.69993158229283
 20
922.11719501734342
 11
822.58243081812338
 21
921.92348584820002
  0
LINE
  8
_0-2_線色２__白__
  6
CONTINUOUS
 62
    7
 10
822.58243081812338
 20
921.92348584820002
 11
822.46947796455515
 21
921.72723184941697
  0
LINE
  8
_0-2_線色２__白__
  6
CONTINUOUS
 62
    7
 10
822.46947796455515
 20
921.72723184941697
 11
822.40558763769513
 21
921.61255305238797
  0
LINE
  8
_0-2_線色２__白__
  6
CONTINUOUS
 62
    7
 10
822.40558763769513
 20
921.61255305238797
 11
822.33832027018934
 21
921.4894864602519
  0
LINE
  8
_0-2_線色２__白__
  6
CONTINUOUS
 62
    7
 10
822.33832027018934
 20
921.4894864602519
 11
822.22433902898047
 21
921.2762797038838
  0
LINE
  8
_0-2_線色２__白__
  6
CONTINUOUS
 62
    7
 10
822.22433902898047
 20
921.2762797038838
 11
822.11222448061676
 21
921.06198270434697
  0
LINE
  8
_0-2_線色２__白__
  6
CONTINUOUS
 62
    7
 10
822.11222448061676
 20
921.06198270434697
 11
822.00120787136939
 21
920.84683344327254
  0
LINE
  8
_0-2_線色２__白__
  6
CONTINUOUS
 62
    7
 10
822.00120787136939
 20
920.84683344327254
 11
821.89052044751065
 21
920.63106990229187
  0
LINE
  8
_0-2_線色２__白__
  6
CONTINUOUS
 62
    7
 10
821.89052044751065
 20
920.63106990229187
 11
821.77939345531399
 21
920.41493006303597
  0
LINE
  8
_0-2_線色２__白__
  6
CONTINUOUS
 62
    7
 10
821.77939345531399
 20
920.41493006303597
 11
821.71443546068247
 21
920.28949031353534
  0
LINE
  8
_0-2_線色２__白__
  6
CONTINUOUS
 62
    7
 10
821.71443546068247
 20
920.28949031353534
 11
821.62602200650667
 21
920.1206621305289
  0
LINE
  8
_0-2_線色２__白__
  6
CONTINUOUS
 62
    7
 10
821.62602200650667
 20
920.1206621305289
 11
821.46951719057711
 21
919.83126636464158
  0
LINE
  8
_0-2_線色２__白__
  6
CONTINUOUS
 62
    7
 10
821.46951719057711
 20
919.83126636464158
 11
821.30529559734953
 21
919.54655818839024
  0
LINE
  8
_0-2_線色２__白__
  6
CONTINUOUS
 62
    7
 10
821.30529559734953
 20
919.54655818839024
 11
821.13037160996441
 21
919.26950476037234
  0
LINE
  8
_0-2_線色２__白__
  6
CONTINUOUS
 62
    7
 10
821.13037160996441
 20
919.26950476037234
 11
820.94175961156395
 21
919.00307323918582
  0
LINE
  8
_0-2_線色２__白__
  6
CONTINUOUS
 62
    7
 10
820.94175961156395
 20
919.00307323918582
 11
820.73647398528863
 21
918.75023078342815
  0
LINE
  8
_0-2_線色２__白__
  6
CONTINUOUS
 62
    7
 10
820.73647398528863
 20
918.75023078342815
 11
820.60859197746254
 21
918.61097788364759
  0
LINE
  8
_0-2_線色２__白__
  6
CONTINUOUS
 62
    7
 10
820.60859197746254
 20
918.61097788364759
 11
820.56237680515778
 21
918.56387287773737
  0
LINE
  8
_0-2_線色２__白__
  6
CONTINUOUS
 62
    7
 10
820.56237680515778
 20
918.56387287773737
 11
820.48067754361739
 21
918.48452778270234
  0
LINE
  8
_0-2_線色２__白__
  6
CONTINUOUS
 62
    7
 10
820.48067754361739
 20
918.48452778270234
 11
820.39647515128763
 21
918.40772767326052
  0
LINE
  8
_0-2_線色２__白__
  6
CONTINUOUS
 62
    7
 10
820.39647515128763
 20
918.40772767326052
 11
820.30982917579195
 21
918.33367876993429
  0
LINE
  8
_0-2_線色２__白__
  6
CONTINUOUS
 62
    7
 10
820.30982917579195
 20
918.33367876993429
 11
820.22079916475604
 21
918.26258729324513
  0
LINE
  8
_0-2_線色２__白__
  6
CONTINUOUS
 62
    7
 10
820.22079916475604
 20
918.26258729324513
 11
820.1294446658045
 21
918.19465946371508
  0
LINE
  8
_0-2_線色２__白__
  6
CONTINUOUS
 62
    7
 10
820.1294446658045
 20
918.19465946371508
 11
820.07541744090986
 21
918.15679216732497
  0
LINE
  8
_0-2_線色２__白__
  6
CONTINUOUS
 62
    7
 10
820.07541744090986
 20
918.15679216732497
 11
819.98581602982199
 21
918.09749947694718
  0
LINE
  8
_0-2_線色２__白__
  6
CONTINUOUS
 62
    7
 10
819.98581602982199
 20
918.09749947694718
 11
819.82762458565105
 21
918.00108621275194
  0
LINE
  8
_0-2_線色２__白__
  6
CONTINUOUS
 62
    7
 10
819.82762458565105
 20
918.00108621275194
 11
819.6662132986188
 21
917.90975780368149
  0
LINE
  8
_0-2_線色２__白__
  6
CONTINUOUS
 62
    7
 10
819.6662132986188
 20
917.90975780368149
 11
819.50329335032563
 21
917.82086709523037
  0
LINE
  8
_0-2_線色２__白__
  6
CONTINUOUS
 62
    7
 10
819.50329335032563
 20
917.82086709523037
 11
819.34057592237309
 21
917.73176693289452
  0
LINE
  8
_0-2_線色２__白__
  6
CONTINUOUS
 62
    7
 10
819.34057592237309
 20
917.73176693289452
 11
819.179772196361
 21
917.63981016216894
  0
LINE
  8
_0-2_線色２__白__
  6
CONTINUOUS
 62
    7
 10
819.179772196361
 20
917.63981016216894
 11
819.08805718803478
 21
917.58412322065737
  0
LINE
  8
_0-2_線色２__白__
  6
CONTINUOUS
 62
    7
 10
819.08805718803478
 20
917.58412322065737
 11
818.99564619563591
 21
917.52475845078584
  0
LINE
  8
_0-2_線色２__白__
  6
CONTINUOUS
 62
    7
 10
818.99564619563591
 20
917.52475845078584
 11
818.8397031934818
 21
917.41725668901745
  0
LINE
  8
_0-2_線色２__白__
  6
CONTINUOUS
 62
    7
 10
818.8397031934818
 20
917.41725668901745
 11
818.68738065126024
 21
917.30427349904858
  0
LINE
  8
_0-2_線色２__白__
  6
CONTINUOUS
 62
    7
 10
818.68738065126024
 20
917.30427349904858
 11
818.53790416252536
 21
917.18701344665328
  0
LINE
  8
_0-2_線色２__白__
  6
CONTINUOUS
 62
    7
 10
818.53790416252536
 20
917.18701344665328
 11
818.39049932083185
 21
917.06668109760562
  0
LINE
  8
_0-2_線色２__白__
  6
CONTINUOUS
 62
    7
 10
818.39049932083185
 20
917.06668109760562
 11
818.24439171973552
 21
916.94448101768012
  0
LINE
  8
_0-2_線色２__白__
  6
CONTINUOUS
 62
    7
 10
818.24439171973552
 20
916.94448101768012
 11
818.15993855033241
 21
916.87322383858736
  0
LINE
  8
_0-2_線色２__白__
  6
CONTINUOUS
 62
    7
 10
818.15993855033241
 20
916.87322383858736
 11
818.05409668671416
 21
916.78374325468667
  0
LINE
  8
_0-2_線色２__白__
  6
CONTINUOUS
 62
    7
 10
818.05409668671416
 20
916.78374325468667
 11
817.87252390840422
 21
916.62866020089177
  0
LINE
  8
_0-2_線色２__白__
  6
CONTINUOUS
 62
    7
 10
817.87252390840422
 20
916.62866020089177
 11
817.69334925577937
 21
916.47127103265029
  0
LINE
  8
_0-2_線色２__白__
  6
CONTINUOUS
 62
    7
 10
817.69334925577937
 20
916.47127103265029
 11
817.51801712955455
 21
916.31008083472409
  0
LINE
  8
_0-2_線色２__白__
  6
CONTINUOUS
 62
    7
 10
817.51801712955455
 20
916.31008083472409
 11
817.34797193044528
 21
916.14359469187525
  0
LINE
  8
_0-2_線色２__白__
  6
CONTINUOUS
 62
    7
 10
817.34797193044528
 20
916.14359469187525
 11
817.18465805916594
 21
915.97031768886518
  0
LINE
  8
_0-2_線色２__白__
  6
CONTINUOUS
 62
    7
 10
817.18465805916594
 20
915.97031768886518
 11
817.09358947722706
 21
915.86611638065483
  0
LINE
  8
_0-2_線色２__白__
  6
CONTINUOUS
 62
    7
 10
817.09358947722706
 20
915.86611638065483
 11
817.04193020459002
 21
915.80402910513158
  0
LINE
  8
_0-2_線色２__白__
  6
CONTINUOUS
 62
    7
 10
817.04193020459002
 20
915.80402910513158
 11
816.95560509428503
 21
915.6945563652946
  0
LINE
  8
_0-2_線色２__白__
  6
CONTINUOUS
 62
    7
 10
816.95560509428503
 20
915.6945563652946
 11
816.87324522215249
 21
915.58205510753487
  0
LINE
  8
_0-2_線色２__白__
  6
CONTINUOUS
 62
    7
 10
816.87324522215249
 20
915.58205510753487
 11
816.79542453140755
 21
915.46657417482322
  0
LINE
  8
_0-2_線色２__白__
  6
CONTINUOUS
 62
    7
 10
816.79542453140755
 20
915.46657417482322
 11
816.72271696526309
 21
915.34816241013061
  0
LINE
  8
_0-2_線色２__白__
  6
CONTINUOUS
 62
    7
 10
816.72271696526309
 20
915.34816241013061
 11
816.6556964669337
 21
915.22686865642731
  0
LINE
  8
_0-2_線色２__白__
  6
CONTINUOUS
 62
    7
 10
816.6556964669337
 20
915.22686865642731
 11
816.61965655584709
 21
915.15521699858482
  0
LINE
  8
_0-2_線色２__白__
  6
CONTINUOUS
 62
    7
 10
816.61965655584709
 20
915.15521699858482
 11
816.5730047024897
 21
915.05374110753473
  0
LINE
  8
_0-2_線色２__白__
  6
CONTINUOUS
 62
    7
 10
816.5730047024897
 20
915.05374110753473
 11
816.50151794413887
 21
914.87497672848372
  0
LINE
  8
_0-2_線色２__白__
  6
CONTINUOUS
 62
    7
 10
816.50151794413887
 20
914.87497672848372
 11
816.43956660551567
 21
914.69215631033535
  0
LINE
  8
_0-2_線色２__白__
  6
CONTINUOUS
 62
    7
 10
816.43956660551567
 20
914.69215631033535
 11
816.38506871724644
 21
914.50616545114576
  0
LINE
  8
_0-2_線色２__白__
  6
CONTINUOUS
 62
    7
 10
816.38506871724644
 20
914.50616545114576
 11
816.33594230995982
 21
914.3178897489704
  0
LINE
  8
_0-2_線色２__白__
  6
CONTINUOUS
 62
    7
 10
816.33594230995982
 20
914.3178897489704
 11
816.29010541428158
 21
914.12821480186699
  0
LINE
  8
_0-2_線色２__白__
  6
CONTINUOUS
 62
    7
 10
816.29010541428158
 20
914.12821480186699
 11
816.26420686481197
 21
914.01791117020571
  0
LINE
  8
_0-4_線色４__黄__
  6
CONTINUOUS
 62
    2
 10
827.0120827274269
 20
919.01791117020571
 11
827.0120827274269
 21
914.01791117020571
  0
LINE
  8
_0-4_線色４__黄__
  6
CONTINUOUS
 62
    2
 10
895.06880508991742
 20
919.01791117020571
 11
827.0120827274269
 21
919.01791117020571
  0
LINE
  8
_0-4_線色４__黄__
  6
CONTINUOUS
 62
    2
 10
895.06880508991742
 20
919.01791117020571
 11
899.12015366587468
 21
915.56676238327987
  0
LINE
  8
_0-4_線色４__黄__
  6
CONTINUOUS
 62
    2
 10
980.73527467667986
 20
915.56676238327987
 11
899.12015366587468
 21
915.56676238327987
  0
LINE
  8
_0-2_線色２__白__
  6
CONTINUOUS
 62
    7
 10
896.26420686481197
 20
911.43140304678946
 11
897.2792198176279
 21
910.56676238327987
  0
LINE
  8
_0-2_線色２__白__
  6
CONTINUOUS
 62
    7
 10
845.42870004187535
 20
912.81791117019429
 11
845.42870004187535
 21
910.56676238327987
  0
LINE
  8
_0-d_断熱__ハッチ
  6
CONTINUOUS
 62
    4
 10
865.40082209458149
 20
910.56676238327987
 11
866.21896638032524
 21
911.38490666902362
  0
LINE
  8
_0-d_断熱__ハッチ
  6
CONTINUOUS
 62
    4
 10
861.86528818864872
 20
910.56676238328009
 11
864.11643697556428
 21
912.81791117019543
  0
LINE
  8
_0-d_断熱__ハッチ
  6
CONTINUOUS
 62
    4
 10
858.32975428271538
 20
910.56676238328009
 11
860.58090306963095
 21
912.81791117019588
  0
LINE
  8
_0-d_断熱__ハッチ
  6
CONTINUOUS
 62
    4
 10
854.79422037678205
 20
910.56676238328032
 11
857.04536916369818
 21
912.81791117019623
  0
LINE
  8
_0-d_断熱__ハッチ
  6
CONTINUOUS
 62
    4
 10
851.25868647084872
 20
910.56676238328032
 11
853.50983525776542
 21
912.81791117019657
  0
LINE
  8
_0-d_断熱__ハッチ
  6
CONTINUOUS
 62
    4
 10
847.72315256491538
 20
910.56676238328066
 11
849.97430135183208
 21
912.81791117019702
  0
LINE
  8
_0-d_断熱__ハッチ
  6
CONTINUOUS
 62
    4
 10
845.42870004187421
 20
911.80784376617248
 11
846.43876744589647
 21
912.81791117019475
  0
LINE
  8
_0-d_断熱__ハッチ
  6
CONTINUOUS
 62
    4
 10
893.6850933420385
 20
910.56676238327896
 11
894.48715242396361
 21
911.36882146520406
  0
LINE
  8
_0-d_断熱__ハッチ
  6
CONTINUOUS
 62
    4
 10
890.14955943610289
 20
910.56676238327645
 11
892.40070822301959
 21
912.81791117019316
  0
LINE
  8
_0-d_断熱__ハッチ
  6
CONTINUOUS
 62
    4
 10
886.61402553016956
 20
910.56676238327668
 11
888.86517431708626
 21
912.81791117019338
  0
LINE
  8
_0-d_断熱__ハッチ
  6
CONTINUOUS
 62
    4
 10
883.07849162423622
 20
910.56676238327668
 11
885.32964041115349
 21
912.81791117019395
  0
LINE
  8
_0-d_断熱__ハッチ
  6
CONTINUOUS
 62
    4
 10
879.54295771830289
 20
910.56676238327691
 11
881.79410650522073
 21
912.81791117019452
  0
LINE
  8
_0-d_断熱__ハッチ
  6
CONTINUOUS
 62
    4
 10
876.00742381236955
 20
910.56676238327691
 11
878.25857259928739
 21
912.81791117019509
  0
LINE
  8
_0-a_文字
  6
CONTINUOUS
 62
    7
 10
918.33463374581186
 20
1020.7250866029037
 11
938.33463374581186
 21
1020.7250866029037
  0
TEXT
  8
_0-a_文字
 62
    7
 10
943.33463374581186
 20
1013.2250866029037
 40
15.000000000000213
 41
0.9999999999999852
 50
0
  1
特注塩ビ鋼板
  0
LINE
  8
_0-a_文字
  6
CONTINUOUS
 62
    7
 10
903.90087701607115
 20
995.72508660290373
 11
938.33463374581186
 21
995.72508660290373
  0
TEXT
  8
_0-a_文字
 62
    7
 10
943.33463374581186
 20
988.22508660290373
 40
15.000000000000036
 41
0.9999999999999978
 50
0
  1
ロンシーラントＴＢ
  0
TEXT
  8
_0-a_文字
 62
    7
 10
943.33463374581186
 20
963.22508660290373
 40
15.000000000000036
 41
0.9999999999999977
 50
0
  1
亜鉛めっき鋼板 t=1.2以上（別途工事）
  0
LINE
  8
_0-a_文字
  6
CONTINUOUS
 62
    7
 10
889.46712028633101
 20
970.72508660290373
 11
938.33463374581186
 21
970.72508660290373
  0
LINE
  8
_0-a_文字
  6
CONTINUOUS
 62
    7
 10
875.03336355659087
 20
945.72508660290487
 11
938.33463374581186
 21
945.72508660290487
  0
TEXT
  8
_0-a_文字
 62
    7
 10
943.33463374581186
 20
938.22508660290487
 40
15.000000000000036
 41
0.9999999999999974
 50
0
  1
ブチルテープ（別途工事）
  0
LINE
  8
_0-a_文字
  6
CONTINUOUS
 62
    7
 10
853.30723884718054
 20
908.09433475462754
 11
918.33463374581186
 21
1020.7250866029037
  0
LINE
  8
_0-a_文字
  6
CONTINUOUS
 62
    7
 10
896.68534190583898
 20
1045.7250866029049
 11
916.68534190583898
 21
1045.7250866029049
  0
TEXT
  8
_0-a_文字
 62
    7
 10
921.68534190583898
 20
1038.2250866029049
 40
15.000000000000213
 41
0.9999999999999862
 50
0
  1
プルーフシーラー
  0
LINE
  8
_0-a_文字
  6
CONTINUOUS
 62
    7
 10
824.65747550502613
 20
920.96916243591272
 11
896.68534190583898
 21
1045.7250866029049
  0
LINE
  8
_0-6_鋼板__アングル
  6
CONTINUOUS
 62
    2
 10
824.53527467667755
 20
910.56676238327987
 11
824.53527467667755
 21
909.36676238327868
  0
LINE
  8
_0-6_鋼板__アングル
  6
CONTINUOUS
 62
    2
 10
977.5352746766805
 20
909.36676238327868
 11
824.53527467667755
 21
909.36676238327868
  0
LINE
  8
_0-6_鋼板__アングル
  6
CONTINUOUS
 62
    2
 10
978.73527467668055
 20
910.56676238327987
 11
824.53527467667755
 21
910.56676238327987
  0
LINE
  8
_0-6_鋼板__アングル
  6
CONTINUOUS
 62
    2
 10
978.73527467668055
 20
880.56676238327987
 11
977.5352746766805
 21
880.56676238327987
  0
LINE
  8
_0-6_鋼板__アングル
  6
CONTINUOUS
 62
    2
 10
977.5352746766805
 20
909.36676238327868
 11
977.5352746766805
 21
880.56676238327987
  0
LINE
  8
_0-6_鋼板__アングル
  6
CONTINUOUS
 62
    2
 10
978.73527467668055
 20
910.56676238327987
 11
978.73527467668055
 21
880.56676238327987
  0
LINE
  8
_0-6_鋼板__アングル
  6
CONTINUOUS
 62
    2
 10
959.53527467667982
 20
509.36676238327976
 11
1160.7352746766799
 21
509.36676238327976
  0
LINE
  8
_0-6_鋼板__アングル
  6
CONTINUOUS
 62
    2
 10
960.73527467667986
 20
510.56676238327981
 11
1160.7352746766799
 21
510.56676238327981
  0
LINE
  8
_0-6_鋼板__アングル
  6
CONTINUOUS
 62
    2
 10
1160.7352746766799
 20
509.36676238327976
 11
1160.7352746766799
 21
510.56676238327981
  0
LINE
  8
_0-6_鋼板__アングル
  6
CONTINUOUS
 62
    2
 10
959.53527467667982
 20
509.36676238327976
 11
959.53527467667982
 21
610.56676238327873
  0
LINE
  8
_0-6_鋼板__アングル
  6
CONTINUOUS
 62
    2
 10
959.53527467667982
 20
610.56676238327873
 11
960.73527467667986
 21
610.56676238327873
  0
LINE
  8
_0-6_鋼板__アングル
  6
CONTINUOUS
 62
    2
 10
960.73527467667986
 20
510.56676238327981
 11
960.73527467667986
 21
610.56676238327873
  0
LINE
  8
_0-6_鋼板__アングル
  6
CONTINUOUS
 62
    2
 10
977.5352746766805
 20
552.81791117020566
 11
978.86435332739325
 21
537.62647267832313
  0
LINE
  8
_0-6_鋼板__アングル
  6
CONTINUOUS
 62
    2
 10
978.84484487795248
 20
551.61791117019425
 11
980.06893713241311
 21
537.62647267832313
  0
LINE
  8
_0-6_鋼板__アングル
  6
CONTINUOUS
 62
    2
 10
978.86435332739325
 20
537.62647267832313
 11
980.06893713241311
 21
537.62647267832313
  0
LINE
  8
_0-6_鋼板__アングル
  6
CONTINUOUS
 62
    2
 10
978.84484487795248
 20
551.61791117019425
 11
994.53821840184105
 21
551.61791117019425
  0
LINE
  8
_0-6_鋼板__アングル
  6
CONTINUOUS
 62
    2
 10
1007.3882615226887
 20
552.32020874405612
 11
1004.7852746766819
 21
550.31791117020566
  0
ARC
  8
_0-6_鋼板__アングル
  6
CONTINUOUS
 62
    2
 10
1008.8515673487279
 20
550.41791117020557
 40
2.3999999999999999
 50
90
 51
127.56859202882603
  0
LINE
  8
_0-6_鋼板__アングル
  6
CONTINUOUS
 62
    2
 10
995.68228783067411
 20
552.32020874405612
 11
998.28527467668096
 21
550.31791117020566
  0
ARC
  8
_0-6_鋼板__アングル
  6
CONTINUOUS
 62
    2
 10
994.21898200463488
 20
550.41791117020557
 40
2.3999999999999999
 50
52.431407971173961
 51
90
  0
LINE
  8
_0-6_鋼板__アングル
  6
CONTINUOUS
 62
    4
 10
1008.8515673487279
 20
552.81791117020566
 11
994.21898200463488
 21
552.81791117020566
  0
LINE
  8
_0-6_鋼板__アングル
  6
CONTINUOUS
 62
    4
 10
998.28527467668096
 20
550.31791117020566
 11
1004.7852746766819
 21
550.31791117020566
  0
LINE
  8
_0-6_鋼板__アングル
  6
CONTINUOUS
 62
    2
 10
1004.7852746766819
 20
550.31791117020566
 11
1005.5169275897003
 21
549.36676238327982
  0
LINE
  8
_0-6_鋼板__アングル
  6
CONTINUOUS
 62
    2
 10
998.28527467668096
 20
550.31791117020566
 11
997.55362176366248
 21
549.36676238327982
  0
LINE
  8
_0-6_鋼板__アングル
  6
CONTINUOUS
 62
    4
 10
997.55362176366248
 20
549.36676238327982
 11
1005.5169275897003
 21
549.36676238327982
  0
LINE
  8
_0-6_鋼板__アングル
  6
CONTINUOUS
 62
    2
 10
1008.1199144357072
 20
551.36905995713028
 11
1005.5169275897003
 21
549.36676238327982
  0
ARC
  8
_0-6_鋼板__アングル
  6
CONTINUOUS
 62
    2
 10
1008.8515673487279
 20
550.41791117020557
 40
1.2
 50
90
 51
127.56859202882507
  0
LINE
  8
_0-6_鋼板__アングル
  6
CONTINUOUS
 62
    2
 10
994.95063491765563
 20
551.36905995713028
 11
997.55362176366248
 21
549.36676238327982
  0
ARC
  8
_0-6_鋼板__アングル
  6
CONTINUOUS
 62
    2
 10
994.21898200463488
 20
550.41791117020557
 40
1.2
 50
52.431407971171978
 51
90.000000000000057
  0
LINE
  8
_0-6_鋼板__アングル
  6
CONTINUOUS
 62
    2
 10
977.5352746766805
 20
552.81791117020566
 11
994.21898200463488
 21
552.81791117020566
  0
LINE
  8
_0-6_鋼板__アングル
  6
CONTINUOUS
 62
    2
 10
1022.4775344588863
 20
551.25977601593581
 11
1024.7571149299608
 21
549.31791117020543
  0
ARC
  8
_0-6_鋼板__アングル
  6
CONTINUOUS
 62
    2
 10
1021.5048347754885
 20
550.11791117020584
 40
2.7000000000000002
 50
49.573921259901446
 51
90
  0
ARC
  8
_0-6_鋼板__アングル
  6
CONTINUOUS
 62
    2
 10
1021.5048347754885
 20
550.11791117020471
 40
1.5000000000000002
 50
49.573921259901446
 51
90
  0
LINE
  8
_0-6_鋼板__アングル
  6
CONTINUOUS
 62
    2
 10
1023.2556942056078
 20
552.17326789251933
 11
1025.5352746766823
 21
550.23140304678896
  0
LINE
  8
_0-6_鋼板__アングル
  6
CONTINUOUS
 62
    2
 10
1025.5352746766823
 20
550.23140304678896
 11
1024.7571149299608
 21
549.31791117020543
  0
LINE
  8
_0-6_鋼板__アングル
  6
CONTINUOUS
 62
    2
 10
1008.8515673487279
 20
552.81791117020566
 11
1021.5048347754885
 21
552.81791117020566
  0
LINE
  8
_0-6_鋼板__アングル
  6
CONTINUOUS
 62
    2
 10
1008.5323309515513
 20
551.61791117019425
 11
1021.5048347754885
 21
551.61791117019425
  0
LINE
  8
ADD_LINE
  6
DOT
 62
    4
 10
1001.5352746766814
 20
564.37069987105338
 11
1001.5352746766814
 21
530.18634368098992
  0
LINE
  8
_0-6_鋼板__アングル
  6
CONTINUOUS
 62
    2
 10
816.26420686481197
 20
864.01791117020537
 11
817.46420686481201
 21
864.01791117020537
  0
LINE
  8
_0-6_鋼板__アングル
  6
CONTINUOUS
 62
    2
 10
817.46420686481201
 20
864.01791117020537
 11
824.53527467667755
 21
871.0889789820709
  0
LINE
  8
_0-6_鋼板__アングル
  6
CONTINUOUS
 62
    2
 10
823.68674653925382
 20
871.93750711949463
 11
824.53527467667755
 21
871.0889789820709
  0
LINE
  8
_0-6_鋼板__アングル
  6
CONTINUOUS
 62
    2
 10
817.46420686481201
 20
865.71496744505282
 11
823.68674653925382
 21
871.93750711949463
  0
LINE
  8
_0-6_鋼板__アングル
  6
CONTINUOUS
 62
    2
 10
817.46420686481201
 20
912.81791117019429
 11
817.46420686481201
 21
865.71496744505282
  0
LINE
  8
_0-6_鋼板__アングル
  6
CONTINUOUS
 62
    2
 10
816.26420686481197
 20
914.01791117020571
 11
816.26420686481197
 21
864.01791117020537
  0
LINE
  8
_0-6_鋼板__アングル
  6
CONTINUOUS
 62
    2
 10
877.11719371081813
 20
913.52020874405662
 11
874.51420686481185
 21
911.51791117020571
  0
LINE
  8
_0-6_鋼板__アングル
  6
CONTINUOUS
 62
    2
 10
865.41122001880581
 20
913.52020874405662
 11
868.01420686481151
 21
911.51791117020571
  0
LINE
  8
_0-6_鋼板__アングル
  6
CONTINUOUS
 62
    4
 10
878.58049953685736
 20
914.01791117020571
 11
863.94791419276658
 21
914.01791117020571
  0
LINE
  8
_0-6_鋼板__アングル
  6
CONTINUOUS
 62
    4
 10
868.01420686481151
 20
911.51791117020571
 11
874.51420686481185
 21
911.51791117020571
  0
LINE
  8
_0-6_鋼板__アングル
  6
CONTINUOUS
 62
    2
 10
874.51420686481185
 20
911.51791117020571
 11
875.24585977783147
 21
910.56676238327987
  0
LINE
  8
_0-6_鋼板__アングル
  6
CONTINUOUS
 62
    2
 10
868.01420686481151
 20
911.51791117020571
 11
867.2825539517919
 21
910.56676238327987
  0
LINE
  8
_0-6_鋼板__アングル
  6
CONTINUOUS
 62
    4
 10
867.2825539517919
 20
910.56676238327987
 11
875.24585977783147
 21
910.56676238327987
  0
LINE
  8
_0-6_鋼板__アングル
  6
CONTINUOUS
 62
    2
 10
877.84884662383774
 20
912.56905995713078
 11
875.24585977783147
 21
910.56676238327987
  0
LINE
  8
_0-6_鋼板__アングル
  6
CONTINUOUS
 62
    2
 10
864.67956710578619
 20
912.56905995713078
 11
867.2825539517919
 21
910.56676238327987
  0
LINE
  8
ADD_LINE
  6
DOT
 62
    4
 10
871.26420686481197
 20
925.57069987105388
 11
871.26420686481197
 21
891.38634368099019
  0
ARC
  8
_0-6_鋼板__アングル
  6
CONTINUOUS
 62
    2
 10
878.58049953685736
 20
911.61791117020562
 40
1.2
 50
90
 51
127.56859202882507
  0
ARC
  8
_0-6_鋼板__アングル
  6
CONTINUOUS
 62
    2
 10
878.58049953685736
 20
911.61791117020562
 40
2.3999999999999999
 50
90
 51
127.56859202882603
  0
ARC
  8
_0-6_鋼板__アングル
  6
CONTINUOUS
 62
    2
 10
863.94791419276658
 20
911.61791117020562
 40
1.2
 50
52.431407971171978
 51
90
  0
ARC
  8
_0-6_鋼板__アングル
  6
CONTINUOUS
 62
    2
 10
863.94791419276658
 20
911.61791117020562
 40
2.3999999999999999
 50
52.431407971173961
 51
90
  0
LINE
  8
_0-6_鋼板__アングル
  6
CONTINUOUS
 62
    2
 10
893.20646664701826
 20
912.45977601593518
 11
895.48604711809276
 21
910.51791117020548
  0
ARC
  8
_0-6_鋼板__アングル
  6
CONTINUOUS
 62
    2
 10
892.23376696361811
 20
911.31791117020521
 40
2.7000000000000002
 50
49.573921259901446
 51
90
  0
ARC
  8
_0-6_鋼板__アングル
  6
CONTINUOUS
 62
    2
 10
892.23376696361811
 20
911.31791117020521
 40
1.5000000000000002
 50
49.573921259901446
 51
90
  0
LINE
  8
_0-6_鋼板__アングル
  6
CONTINUOUS
 62
    2
 10
893.98462639373747
 20
913.37326789251938
 11
896.26420686481197
 21
911.43140304678946
  0
LINE
  8
_0-6_鋼板__アングル
  6
CONTINUOUS
 62
    2
 10
896.26420686481197
 20
911.43140304678946
 11
895.48604711809276
 21
910.51791117020548
  0
LINE
  8
_0-6_鋼板__アングル
  6
CONTINUOUS
 62
    2
 10
878.58049953685736
 20
912.81791117019429
 11
892.23376696361811
 21
912.81791117019429
  0
LINE
  8
_0-6_鋼板__アングル
  6
CONTINUOUS
 62
    2
 10
878.58049953685736
 20
914.01791117020571
 11
892.23376696361811
 21
914.01791117020571
  0
LINE
  8
_0-6_鋼板__アングル
  6
CONTINUOUS
 62
    2
 10
816.26420686481197
 20
914.01791117020571
 11
863.94791419276658
 21
914.01791117020571
  0
LINE
  8
_0-6_鋼板__アングル
  6
CONTINUOUS
 62
    2
 10
817.46420686481201
 20
912.81791117019429
 11
863.94791419276658
 21
912.81791117019429
  0
LINE
  8
_0-5_金属
  6
CONTINUOUS
 62
    7
 10
989.73501028208148
 20
459.36696063502438
 11
1037.4991645406885
 21
459.36696063502438
  0
TEXT
  8
_0-a_文字
 62
    7
 10
1067.4999999999952
 20
327.50000000000341
 40
15.000000000000213
 41
0.9999999999999907
 50
0
  1
※ 断熱材の種類が硬質ウレタンフォームの場合、ラジアルシートＬ６００の敷設は不要
  0
TEXT
  8
_0-a_文字
 62
    7
 10
1067.4999999999952
 20
287.50000000000341
 40
15.000000000000213
 41
0.9999999999999905
 50
0
  1
※ 本図面は防水納まりの参考図であり、下地等の構造を保証するものではありません
  0
TEXT
  8
_0-a_文字
 62
    7
 10
1067.4999999999952
 20
307.50000000000341
 40
15.000000000000213
 41
0.9999999999999905
 50
0
  1
※ デッキ端部などの開口部には、必要に応じ遮炎性を満たす処理をお願いします（別途工事）
  0
ENDSEC
  0
EOF
