  0
SECTION
  2
HEADER
  9
$ACADVER
  1
AC1009
  9
$INSBASE
 10
0
 20
0
 30
0
  9
$EXTMIN
 10
0
 20
0
  9
$EXTMAX
 10
2100
 20
1485
  9
$LIMMIN
 10
0
 20
0
  9
$LIMMAX
 10
2100
 20
1485
  9
$LTSCALE
 40
5
  0
ENDSEC
  0
SECTION
  2
TABLES
  0
TABLE
  2
LTYPE
 70
     9
  0
LTYPE
  2
CONTINUOUS
 70
    64
  3
実線
 72
    65
 73
     0
 40
0.0
  0
LTYPE
  2
DASHED1
 70
    64
  3
--  --  --  --  --  --  --  --  
 72
    65
 73
     2
 40
2.5
 49
1.25
 49
-1.25
  0
LTYPE
  2
DASHED2
 70
    64
  3
----    ----    ----    ----    
 72
    65
 73
     2
 40
5.0
 49
2.5
 49
-2.5
  0
LTYPE
  2
DASHED3
 70
    64
  3
------  ------  ------  ------  
 72
    65
 73
     2
 40
5.0
 49
3.75
 49
-1.25
  0
LTYPE
  2
CENTER1
 70
    64
  3
----- - ----- - ----- - ----- - 
 72
    65
 73
     4
 40
10.0
 49
6.25
 49
-1.25
 49
1.25
 49
-1.25
  0
LTYPE
  2
CENTER2
 70
    64
  3
----------  --  ----------  --  
 72
    65
 73
     4
 40
20.0
 49
12.5
 49
-2.5
 49
2.5
 49
-2.5
  0
LTYPE
  2
PHANTOM1
 70
    64
  3
--- - - --- - - --- - - --- - - 
 72
    65
 73
     6
 40
10.0
 49
3.25
 49
-1.25
 49
1.25
 49
-1.25
 49
1.25
 49
-1.25
  0
LTYPE
  2
PHANTOM2
 70
    64
  3
--------  -  -  --------  -  -  
 72
    65
 73
     6
 40
20.0
 49
10.0
 49
-2.5
 49
1.25
 49
-2.5
 49
1.25
 49
-2.5
  0
LTYPE
  2
DOT
 70
    64
  3
-   -   -   -   -   -   -   -   
 72
    65
 73
     2
 40
2.5
 49
0.625
 49
-1.875
  0
LTYPE
  2
DUMMY
 70
    64
  3
ダミー
 72
    65
 73
     0
 40
0.0
  0
LTYPE
  2
RAND1
 70
    64
  3
ランダム線1
 72
    65
 73
     4
 40
10.0
 49
1.0
 49
-2.0
 49
3.0
 49
-4.0
  0
LTYPE
  2
RAND2
 70
    64
  3
ランダム線2
 72
    65
 73
     4
 40
14.0
 49
2.0
 49
-3.0
 49
4.0
 49
-5.0
  0
LTYPE
  2
RAND3
 70
    64
  3
ランダム線3
 72
    65
 73
     4
 40
18.0
 49
3.0
 49
-4.0
 49
5.0
 49
-6.0
  0
LTYPE
  2
RAND4
 70
    64
  3
ランダム線4
 72
    65
 73
     4
 40
22.0
 49
4.0
 49
-5.0
 49
6.0
 49
-7.0
  0
LTYPE
  2
RAND5
 70
    64
  3
ランダム線5
 72
    65
 73
     4
 40
26.0
 49
5.0
 49
-6.0
 49
7.0
 49
-8.0
  0
LTYPE
  2
LONG1
 70
    64
  3
----------  --  ----------  --  
 72
    65
 73
     4
 40
40.0
 49
32.5
 49
-2.5
 49
2.5
 49
-2.5
  0
LTYPE
  2
LONG2
 70
    64
  3
--------  -  -  --------  -  -  
 72
    65
 73
     6
 40
40.0
 49
30.0
 49
-2.5
 49
1.25
 49
-2.5
 49
1.25
 49
-2.5
  0
LTYPE
  2
LONG3
 70
    64
  3
+++++++++++++++..+++++++++++++++
 72
    65
 73
     2
 40
40.0
 49
37.5
 49
-2.5
  0
LTYPE
  2
LONG4
 70
    64
  3
+++++++++++++++..+++++++++++++++
 72
    65
 73
     2
 40
80.0
 49
75.0
 49
-5.0
  0
LTYPE
  2
LONG5
 70
    64
  3
----------  --  ----------  --  
 72
    65
 73
     4
 40
60.0
 49
37.5
 49
-7.5
 49
7.5
 49
-7.5
  0
LTYPE
  2
dashed
 70
   64
  3
-------   -------------   ------
 72
   65
 73
    2
 40
7.5
 49
6
 49
-1.5
  0
LTYPE
  2
dashed_spaced
 70
   64
  3
----        --------        ----
 72
   65
 73
    2
 40
12
 49
6
 49
-6
  0
LTYPE
  2
long_dashed_dotted
 70
   64
  3
------------- --- --------------
 72
   65
 73
    4
 40
15.25
 49
12
 49
-1.5
 49
0.25
 49
-1.5
  0
LTYPE
  2
long_dashed_double-dotted
 70
   64
  3
----------- --- --- ------------
 72
   65
 73
    6
 40
17
 49
12
 49
-1.5
 49
0.25
 49
-1.5
 49
0.25
 49
-1.5
  0
LTYPE
  2
long_dashed_triplicate-dotted
 70
   64
  3
--------- --- --- --- ----------
 72
   65
 73
    8
 40
18.75
 49
12
 49
-1.5
 49
0.25
 49
-1.5
 49
0.25
 49
-1.5
 49
0.25
 49
-1.5
  0
LTYPE
  2
dotted
 70
   64
  3
   -       -       -       -    
 72
   65
 73
    2
 40
1.75
 49
0.25
 49
-1.5
  0
LTYPE
  2
chain
 70
   64
  3
-------------- -- --------------
 72
   65
 73
    4
 40
18.5
 49
12
 49
-1.5
 49
3.5
 49
-1.5
  0
LTYPE
  2
chain_double_dash
 70
   64
  3
------------ -- -- -------------
 72
   65
 73
    6
 40
23.5
 49
12
 49
-1.5
 49
3.5
 49
-1.5
 49
3.5
 49
-1.5
  0
LTYPE
  2
dashed_dotted
 70
   64
  3
-----------     -     ----------
 72
   65
 73
    4
 40
9.25
 49
6
 49
-1.5
 49
0.25
 49
-1.5
  0
LTYPE
  2
double-dashed_dotted
 70
   64
  3
------   -----------   -   -----
 72
   65
 73
    6
 40
16.75
 49
6
 49
-1.5
 49
6
 49
-1.5
 49
0.25
 49
-1.5
  0
LTYPE
  2
dashed_double-dotted
 70
   64
  3
---------    -    -    ---------
 72
   65
 73
    6
 40
11
 49
6
 49
-1.5
 49
0.25
 49
-1.5
 49
0.25
 49
-1.5
  0
LTYPE
  2
double-dashed_double-dotted
 70
   64
  3
-----   ---------   -   -   ----
 72
   65
 73
    8
 40
18.5
 49
6
 49
-1.5
 49
6
 49
-1.5
 49
0.25
 49
-1.5
 49
0.25
 49
-1.5
  0
LTYPE
  2
dashed_triplicate-dotted
 70
   64
  3
-------    -    -    -    ------
 72
   65
 73
    8
 40
12.75
 49
6
 49
-1.5
 49
0.25
 49
-1.5
 49
0.25
 49
-1.5
 49
0.25
 49
-1.5
  0
LTYPE
  2
double-dashed_triplicate-dotted
 70
   64
  3
-----  ---------  -  -  -  -----
 72
   65
 73
   10
 40
20.25
 49
6
 49
-1.5
 49
6
 49
-1.5
 49
0.25
 49
-1.5
 49
0.25
 49
-1.5
 49
0.25
 49
-1.5
  0
LTYPE
  2
undefined
 70
   64
  3
--------------------------------
 72
   65
 73
    0
 40
0
  0
ENDTAB
  0
TABLE
  2
STYLE
  5
3
100
AcDbSymbolTable
 70
     1
  0
STYLE
  5
10
100
AcDbSymbolTableRecord
100
AcDbTextStyleTableRecord
  2
STANDARD
 70
     0
 40
0.0
 41
1.0
 50
0.0
 71
     0
 42
0.2
  3
txt
  4
bigfont.shx
  0
STYLE
  5
26
100
AcDbSymbolTableRecord
100
AcDbTextStyleTableRecord
  2
TATEGAKI
 70
    68
 40
0.0
 41
1.0
 50
0.0
 71
     0
 42
1.0
  3
txt
  4
bigfont.shx
  0
ENDTAB
  0
TABLE
  2
LAYER
 70
   13
  0
LAYER
  2
_0-1_線色１__水色__
 70
   64
 62
    7
  6
CONTINUOUS
  0
LAYER
  2
_0-2_線色２__白__
 70
   64
 62
    7
  6
CONTINUOUS
  0
LAYER
  2
_0-3_線色３__緑__
 70
   64
 62
    7
  6
CONTINUOUS
  0
LAYER
  2
_0-4_線色４__黄__
 70
   64
 62
    7
  6
CONTINUOUS
  0
LAYER
  2
_0-5_金属
 70
   64
 62
    7
  6
CONTINUOUS
  0
LAYER
  2
_0-6_鋼板__アングル
 70
   64
 62
    7
  6
CONTINUOUS
  0
LAYER
  2
_0-7_ビス
 70
   64
 62
    7
  6
CONTINUOUS
  0
LAYER
  2
_0-8_笠木他
 70
   64
 62
    7
  6
CONTINUOUS
  0
LAYER
  2
_0-a_文字
 70
   64
 62
    7
  6
CONTINUOUS
  0
LAYER
  2
_0-d_断熱__ハッチ
 70
   64
 62
    7
  6
CONTINUOUS
  0
LAYER
  2
_f-0_
 70
   64
 62
    7
  6
CONTINUOUS
  0
LAYER
  2
_f-f_
 70
   64
 62
    7
  6
CONTINUOUS
  0
LAYER
  2
ADD_LINE
 70
   64
 62
    7
  6
CONTINUOUS
  0
ENDTAB
  0
ENDSEC
  0
SECTION
  2
BLOCKS
  0
ENDSEC
  0
SECTION
  2
ENTITIES
  0
LINE
  8
_f-0_
  6
CONTINUOUS
 62
  136
 10
1714.9999999999989
 20
1192.5
 11
385
 21
1192.5
  0
LINE
  8
_f-0_
  6
CONTINUOUS
 62
  136
 10
385
 20
277.50000000000341
 11
1714.9999999999989
 21
277.50000000000341
  0
LINE
  8
_f-0_
  6
CONTINUOUS
 62
  136
 10
385
 20
1192.5
 11
385
 21
277.50000000000341
  0
LINE
  8
_f-0_
  6
CONTINUOUS
 62
  136
 10
1714.9999999999989
 20
1192.5
 11
1714.9999999999989
 21
277.50000000000341
  0
LINE
  8
_f-0_
  6
CONTINUOUS
 62
    6
 10
1714.9999999999989
 20
1152.5
 11
385
 21
1152.5
  0
LINE
  8
_f-f_
  6
CONTINUOUS
 62
    9
 10
310
 20
217.5
 11
310
 21
1267.5
  0
LINE
  8
_f-f_
  6
CONTINUOUS
 62
    9
 10
1790
 20
217.5
 11
310
 21
217.5
  0
LINE
  8
_f-f_
  6
CONTINUOUS
 62
    9
 10
1790
 20
1267.5
 11
310
 21
1267.5
  0
LINE
  8
_f-f_
  6
CONTINUOUS
 62
    9
 10
1790
 20
1267.5
 11
1790
 21
217.5
  0
LINE
  8
ADD_LINE
  6
DOT
 62
  136
 10
1764.9999999999989
 20
1242.5
 11
335
 21
1242.5
  0
LINE
  8
ADD_LINE
  6
DOT
 62
  136
 10
335
 20
242.50000000000227
 11
335
 21
1242.5
  0
LINE
  8
ADD_LINE
  6
DOT
 62
  136
 10
1765
 20
1242.5
 11
1765
 21
242.5
  0
LINE
  8
ADD_LINE
  6
DOT
 62
  136
 10
1765
 20
242.5
 11
335.00000000000114
 21
242.5
  0
LINE
  8
_0-5_金属
  6
CONTINUOUS
 62
    7
 10
957.23527467667736
 20
563.66676238327898
 11
957.23527467667736
 21
605.06676238327884
  0
LINE
  8
_0-5_金属
  6
CONTINUOUS
 62
    7
 10
959.53527467667982
 20
563.66676238327898
 11
959.53527467667982
 21
605.06676238327884
  0
ARC
  8
_0-5_金属
  6
CONTINUOUS
 62
    7
 10
863.83527467667818
 20
563.66676238327898
 40
4.2999999999999989
 50
180
 51
270
  0
LINE
  8
_0-5_金属
  6
CONTINUOUS
 62
    7
 10
863.83527467667818
 20
559.36676238327834
 11
879.53527467667755
 21
559.36676238327834
  0
LINE
  8
_0-5_金属
  6
CONTINUOUS
 62
    7
 10
859.53527467667755
 20
563.66676238327898
 11
859.53527467667755
 21
605.06676238327884
  0
ARC
  8
_0-5_金属
  6
CONTINUOUS
 62
    7
 10
863.83527467667818
 20
605.06676238327884
 40
4.2999999999999989
 50
90
 51
180
  0
LINE
  8
_0-5_金属
  6
CONTINUOUS
 62
    7
 10
863.83527467667818
 20
609.36676238327948
 11
955.23527467667918
 21
609.36676238327948
  0
ARC
  8
_0-5_金属
  6
CONTINUOUS
 62
    7
 10
955.23527467667918
 20
605.06676238327884
 40
4.2999999999999989
 50
0
 51
90
  0
ARC
  8
_0-5_金属
  6
CONTINUOUS
 62
    7
 10
955.23527467667918
 20
563.66676238327898
 40
4.2999999999999989
 50
270
 51
0
  0
LINE
  8
_0-5_金属
  6
CONTINUOUS
 62
    7
 10
955.23527467667918
 20
559.36676238327834
 11
939.53527467667755
 21
559.36676238327834
  0
ARC
  8
_0-5_金属
  6
CONTINUOUS
 62
    7
 10
955.23527467667918
 20
563.66676238327898
 40
2
 50
270
 51
0
  0
LINE
  8
_0-5_金属
  6
CONTINUOUS
 62
    7
 10
955.23527467667918
 20
561.66676238327852
 11
939.53527467667755
 21
561.66676238327852
  0
ARC
  8
_0-5_金属
  6
CONTINUOUS
 62
    7
 10
955.23527467667918
 20
605.06676238327884
 40
2
 50
0
 51
90.000000000000014
  0
LINE
  8
_0-5_金属
  6
CONTINUOUS
 62
    7
 10
955.23527467667918
 20
607.06676238327816
 11
863.83527467667818
 21
607.06676238327816
  0
ARC
  8
_0-5_金属
  6
CONTINUOUS
 62
    7
 10
863.83527467667818
 20
605.06676238327884
 40
2
 50
90
 51
180
  0
LINE
  8
_0-5_金属
  6
CONTINUOUS
 62
    7
 10
861.83527467668
 20
605.06676238327884
 11
861.83527467668
 21
563.66676238327898
  0
ARC
  8
_0-5_金属
  6
CONTINUOUS
 62
    7
 10
863.83527467667818
 20
563.66676238327898
 40
2
 50
180
 51
270
  0
LINE
  8
_0-5_金属
  6
CONTINUOUS
 62
    7
 10
863.83527467667818
 20
561.66676238327852
 11
879.53527467667755
 21
561.66676238327852
  0
LINE
  8
_0-5_金属
  6
CONTINUOUS
 62
    7
 10
957.23527467667736
 20
863.66676238327898
 11
957.23527467667736
 21
905.06676238327998
  0
ARC
  8
_0-5_金属
  6
CONTINUOUS
 62
    7
 10
863.83527467667818
 20
863.66676238327898
 40
4.2999999999999989
 50
180
 51
270
  0
LINE
  8
_0-5_金属
  6
CONTINUOUS
 62
    7
 10
863.83527467667818
 20
859.36676238327834
 11
879.53527467667755
 21
859.36676238327834
  0
LINE
  8
_0-5_金属
  6
CONTINUOUS
 62
    7
 10
859.53527467667755
 20
863.66676238327898
 11
859.53527467667755
 21
905.06676238327998
  0
ARC
  8
_0-5_金属
  6
CONTINUOUS
 62
    7
 10
863.83527467667818
 20
905.06676238327998
 40
4.2999999999999989
 50
90
 51
180
  0
ARC
  8
_0-5_金属
  6
CONTINUOUS
 62
    7
 10
955.23527467667918
 20
905.06676238327998
 40
4.2999999999999989
 50
0
 51
90
  0
ARC
  8
_0-5_金属
  6
CONTINUOUS
 62
    7
 10
955.23527467667918
 20
863.66676238327898
 40
4.2999999999999989
 50
270
 51
0
  0
LINE
  8
_0-5_金属
  6
CONTINUOUS
 62
    7
 10
955.23527467667918
 20
859.36676238327834
 11
939.53527467667755
 21
859.36676238327834
  0
ARC
  8
_0-5_金属
  6
CONTINUOUS
 62
    7
 10
955.23527467667918
 20
863.66676238327898
 40
2
 50
270
 51
0
  0
LINE
  8
_0-5_金属
  6
CONTINUOUS
 62
    7
 10
955.23527467667918
 20
861.66676238327852
 11
939.53527467667755
 21
861.66676238327852
  0
ARC
  8
_0-5_金属
  6
CONTINUOUS
 62
    7
 10
955.23527467667918
 20
905.06676238327998
 40
2
 50
0
 51
90.000000000000014
  0
ARC
  8
_0-5_金属
  6
CONTINUOUS
 62
    7
 10
863.83527467667818
 20
905.06676238327998
 40
2
 50
90
 51
180
  0
LINE
  8
_0-5_金属
  6
CONTINUOUS
 62
    7
 10
861.83527467668
 20
905.06676238327998
 11
861.83527467668
 21
863.66676238327898
  0
ARC
  8
_0-5_金属
  6
CONTINUOUS
 62
    7
 10
863.83527467667818
 20
863.66676238327898
 40
2
 50
180
 51
270
  0
LINE
  8
_0-5_金属
  6
CONTINUOUS
 62
    7
 10
863.83527467667818
 20
861.66676238327852
 11
879.53527467667755
 21
861.66676238327852
  0
LINE
  8
_0-5_金属
  6
CONTINUOUS
 62
    7
 10
939.53527467667755
 20
861.66676238327852
 11
939.53527467667755
 21
859.36676238327834
  0
LINE
  8
_0-5_金属
  6
CONTINUOUS
 62
    7
 10
879.53527467667755
 20
861.66676238327852
 11
879.53527467667755
 21
859.36676238327834
  0
LINE
  8
_0-5_金属
  6
CONTINUOUS
 62
    7
 10
939.53527467667755
 20
859.36676238327834
 11
939.53527467667755
 21
609.36676238327948
  0
LINE
  8
_0-5_金属
  6
CONTINUOUS
 62
    7
 10
879.53527467667755
 20
859.36676238327834
 11
879.53527467667755
 21
609.36676238327948
  0
LINE
  8
_0-5_金属
  6
CONTINUOUS
 62
    7
 10
955.23527467667918
 20
907.06676238327816
 11
863.83527467667818
 21
907.06676238327816
  0
LINE
  8
_0-5_金属
  6
CONTINUOUS
 62
    7
 10
863.83527467667818
 20
909.36676238327834
 11
955.23527467667918
 21
909.36676238327834
  0
LINE
  8
_0-5_金属
  6
CONTINUOUS
 62
    7
 10
859.53527467667755
 20
863.66676238327898
 11
859.53527467667755
 21
605.06676238327884
  0
LINE
  8
_0-2_線色２__白__
  6
CONTINUOUS
 62
    7
 10
959.53527467667982
 20
605.06676238327884
 11
959.53527467667982
 21
909.36676238327834
  0
LINE
  8
_0-5_金属
  6
CONTINUOUS
 62
    7
 10
959.53527467667755
 20
863.66676238327898
 11
959.53527467667755
 21
905.06676238327998
  0
LINE
  8
_0-5_金属
  6
CONTINUOUS
 62
    7
 10
879.53527467667755
 20
561.66676238327852
 11
879.53527467667755
 21
559.36676238327834
  0
LINE
  8
_0-5_金属
  6
CONTINUOUS
 62
    7
 10
939.53527467667755
 20
561.66676238327852
 11
939.53527467667755
 21
559.36676238327834
  0
LINE
  8
_0-2_線色２__白__
  6
CONTINUOUS
 62
    7
 10
824.53527467667755
 20
907.36676238328016
 11
859.53527467667755
 21
907.36676238328016
  0
LINE
  8
_0-d_断熱__ハッチ
  6
CONTINUOUS
 62
    4
 10
857.79175665220237
 20
907.36676238328016
 11
859.53527467667755
 21
909.1102804077542
  0
LINE
  8
_0-d_断熱__ハッチ
  6
CONTINUOUS
 62
    4
 10
854.25622274627017
 20
907.36676238328016
 11
856.25622274626949
 21
909.36676238327948
  0
LINE
  8
_0-d_断熱__ハッチ
  6
CONTINUOUS
 62
    4
 10
850.7206888403357
 20
907.36676238328016
 11
852.72068884033615
 21
909.36676238327948
  0
LINE
  8
_0-d_断熱__ハッチ
  6
CONTINUOUS
 62
    4
 10
847.1851549344035
 20
907.3667623832813
 11
849.18515493440395
 21
909.36676238328062
  0
LINE
  8
_0-d_断熱__ハッチ
  6
CONTINUOUS
 62
    4
 10
843.6496210284713
 20
907.3667623832813
 11
845.64962102847062
 21
909.36676238328062
  0
LINE
  8
_0-d_断熱__ハッチ
  6
CONTINUOUS
 62
    4
 10
840.11408712253683
 20
907.36676238328016
 11
842.11408712253615
 21
909.36676238328062
  0
LINE
  8
_0-d_断熱__ハッチ
  6
CONTINUOUS
 62
    4
 10
836.5785532166035
 20
907.36676238328016
 11
838.57855321660281
 21
909.36676238328062
  0
LINE
  8
_0-d_断熱__ハッチ
  6
CONTINUOUS
 62
    4
 10
833.04301931068039
 20
907.36676238328016
 11
835.04301931067857
 21
909.36676238328062
  0
LINE
  8
_0-d_断熱__ハッチ
  6
CONTINUOUS
 62
    4
 10
829.50748540474592
 20
907.36676238328016
 11
831.50748540474297
 21
909.36676238327721
  0
LINE
  8
_0-d_断熱__ハッチ
  6
CONTINUOUS
 62
    4
 10
825.97195149881372
 20
907.3667623832813
 11
827.97195149881077
 21
909.36676238327834
  0
LINE
  8
_0-2_線色２__白__
  6
CONTINUOUS
 62
    7
 10
959.53527467667982
 20
909.36676238327834
 11
977.5352746766805
 21
909.36676238327834
  0
LINE
  8
_0-2_線色２__白__
  6
CONTINUOUS
 62
    7
 10
977.5352746766805
 20
510.56676238327952
 11
977.5352746766805
 21
909.36676238327834
  0
LINE
  8
_0-d_断熱__ハッチ
  6
CONTINUOUS
 62
    4
 10
969.53161091219044
 20
510.56676238327839
 11
977.53527467668164
 21
518.57042614776958
  0
LINE
  8
_0-d_断熱__ハッチ
  6
CONTINUOUS
 62
    4
 10
960.73527467667986
 20
512.37702786556781
 11
977.5352746766805
 21
529.17702786556845
  0
LINE
  8
_0-d_断熱__ハッチ
  6
CONTINUOUS
 62
    4
 10
960.73527467667873
 20
522.98362958336327
 11
977.53527467667936
 21
539.78362958336277
  0
LINE
  8
_0-d_断熱__ハッチ
  6
CONTINUOUS
 62
    4
 10
960.73527467667873
 20
533.59023130115645
 11
977.5352746766805
 21
550.39023130115936
  0
LINE
  8
_0-d_断熱__ハッチ
  6
CONTINUOUS
 62
    4
 10
960.73527467667759
 20
544.19683301895645
 11
977.53527467667936
 21
560.99683301895936
  0
LINE
  8
_0-d_断熱__ハッチ
  6
CONTINUOUS
 62
    4
 10
960.73527467667873
 20
554.80343473675759
 11
977.53527467668164
 21
571.60343473676051
  0
LINE
  8
_0-d_断熱__ハッチ
  6
CONTINUOUS
 62
    4
 10
960.73527467667986
 20
565.41003645455874
 11
977.5352746766805
 21
582.21003645455937
  0
LINE
  8
_0-d_断熱__ハッチ
  6
CONTINUOUS
 62
    4
 10
960.735274676681
 20
576.01663817235533
 11
977.53527467667936
 21
592.81663817235483
  0
LINE
  8
_0-d_断熱__ハッチ
  6
CONTINUOUS
 62
    4
 10
960.73527467667986
 20
586.62323989014965
 11
977.53527467668164
 21
603.42323989015028
  0
LINE
  8
_0-d_断熱__ハッチ
  6
CONTINUOUS
 62
    4
 10
960.73527467667986
 20
597.22984160794965
 11
977.5352746766805
 21
614.02984160795029
  0
LINE
  8
_0-d_断熱__ハッチ
  6
CONTINUOUS
 62
    4
 10
960.73527467667873
 20
607.83644332574966
 11
977.53527467668164
 21
624.63644332575143
  0
LINE
  8
_0-d_断熱__ハッチ
  6
CONTINUOUS
 62
    4
 10
959.53527467668096
 20
617.24304504355075
 11
977.5352746766805
 21
635.2430450435503
  0
LINE
  8
_0-d_断熱__ハッチ
  6
CONTINUOUS
 62
    4
 10
959.53527467667982
 20
627.84964676134507
 11
977.5352746766805
 21
645.84964676134575
  0
LINE
  8
_0-d_断熱__ハッチ
  6
CONTINUOUS
 62
    4
 10
959.53527467668096
 20
638.45624847914166
 11
977.53527467668164
 21
656.45624847914235
  0
LINE
  8
_0-d_断熱__ハッチ
  6
CONTINUOUS
 62
    4
 10
959.53527467667982
 20
649.06285019694167
 11
977.5352746766805
 21
667.06285019694121
  0
LINE
  8
_0-d_断熱__ハッチ
  6
CONTINUOUS
 62
    4
 10
959.53527467667868
 20
659.6694519147394
 11
977.53527467668164
 21
677.66945191474235
  0
LINE
  8
_0-d_断熱__ハッチ
  6
CONTINUOUS
 62
    4
 10
959.53527467668096
 20
670.27605363254168
 11
977.5352746766805
 21
688.27605363254122
  0
LINE
  8
_0-d_断熱__ハッチ
  6
CONTINUOUS
 62
    4
 10
959.53527467667982
 20
680.88265535033713
 11
977.5352746766805
 21
698.88265535033668
  0
LINE
  8
_0-d_断熱__ハッチ
  6
CONTINUOUS
 62
    4
 10
959.53527467668096
 20
691.48925706813259
 11
977.53527467668164
 21
709.48925706813441
  0
LINE
  8
_0-d_断熱__ハッチ
  6
CONTINUOUS
 62
    4
 10
959.53527467667982
 20
702.09585878593259
 11
977.5352746766805
 21
720.09585878593214
  0
LINE
  8
_0-d_断熱__ハッチ
  6
CONTINUOUS
 62
    4
 10
959.53527467667868
 20
712.70246050373032
 11
977.53527467668164
 21
730.70246050373441
  0
LINE
  8
_0-d_断熱__ハッチ
  6
CONTINUOUS
 62
    4
 10
959.53527467668096
 20
723.3090622215326
 11
977.5352746766805
 21
741.30906222153214
  0
LINE
  8
_0-d_断熱__ハッチ
  6
CONTINUOUS
 62
    4
 10
959.53527467668096
 20
733.91566393932806
 11
977.5352746766805
 21
751.9156639393276
  0
LINE
  8
_0-d_断熱__ハッチ
  6
CONTINUOUS
 62
    4
 10
959.53527467668096
 20
744.52226565712351
 11
977.53527467668277
 21
762.52226565712533
  0
LINE
  8
_0-d_断熱__ハッチ
  6
CONTINUOUS
 62
    4
 10
959.53527467667982
 20
755.12886737492352
 11
977.53527467668164
 21
773.1288673749242
  0
LINE
  8
_0-d_断熱__ハッチ
  6
CONTINUOUS
 62
    4
 10
959.53527467667982
 20
765.73546909272125
 11
977.53527467668164
 21
783.7354690927242
  0
LINE
  8
_0-d_断熱__ハッチ
  6
CONTINUOUS
 62
    4
 10
959.53527467668096
 20
776.34207081052352
 11
977.5352746766805
 21
794.34207081052307
  0
LINE
  8
_0-d_断熱__ハッチ
  6
CONTINUOUS
 62
    4
 10
959.53527467668096
 20
786.94867252831898
 11
977.53527467668164
 21
804.94867252831966
  0
LINE
  8
_0-d_断熱__ハッチ
  6
CONTINUOUS
 62
    4
 10
959.53527467668096
 20
797.55527424611444
 11
977.5352746766805
 21
815.55527424611398
  0
LINE
  8
_0-d_断熱__ハッチ
  6
CONTINUOUS
 62
    4
 10
959.53527467667982
 20
808.16187596391444
 11
977.53527467668164
 21
826.16187596391626
  0
LINE
  8
_0-d_断熱__ハッチ
  6
CONTINUOUS
 62
    4
 10
959.53527467667982
 20
818.76847768171217
 11
977.53527467668164
 21
836.76847768171513
  0
LINE
  8
_0-d_断熱__ハッチ
  6
CONTINUOUS
 62
    4
 10
959.53527467668096
 20
829.37507939951445
 11
977.5352746766805
 21
847.37507939951399
  0
LINE
  8
_0-d_断熱__ハッチ
  6
CONTINUOUS
 62
    4
 10
959.53527467668209
 20
839.98168111731559
 11
977.53527467668164
 21
857.98168111731627
  0
LINE
  8
_0-d_断熱__ハッチ
  6
CONTINUOUS
 62
    4
 10
959.53527467668096
 20
850.58828283510536
 11
977.5352746766805
 21
868.58828283510491
  0
LINE
  8
_0-d_断熱__ハッチ
  6
CONTINUOUS
 62
    4
 10
959.53527467667982
 20
861.19488455290536
 11
977.53527467668277
 21
879.19488455290718
  0
LINE
  8
_0-d_断熱__ハッチ
  6
CONTINUOUS
 62
    4
 10
959.53527467667982
 20
871.80148627070309
 11
977.53527467668164
 21
889.80148627070605
  0
LINE
  8
_0-d_断熱__ハッチ
  6
CONTINUOUS
 62
    4
 10
959.53527467668096
 20
882.40808798850537
 11
977.5352746766805
 21
900.40808798850492
  0
LINE
  8
_0-d_断熱__ハッチ
  6
CONTINUOUS
 62
    4
 10
959.53527467667982
 20
893.01468970630538
 11
975.88734735365506
 21
909.36676238327834
  0
LINE
  8
_0-d_断熱__ハッチ
  6
CONTINUOUS
 62
    4
 10
959.53527467668096
 20
903.62129142409628
 11
965.28074563586188
 21
909.36676238327834
  0
LINE
  8
_0-5_金属
  6
CONTINUOUS
 62
    7
 10
1189.9331697766752
 20
508.1281113850099
 11
1197.8253197766742
 21
497.24546138501012
  0
LINE
  8
_0-5_金属
  6
CONTINUOUS
 62
    7
 10
1213.1367197766747
 20
460.61281138500988
 11
1193.0388197766752
 21
488.49581138500923
  0
LINE
  8
_0-5_金属
  6
CONTINUOUS
 62
    7
 10
1195.2873697766745
 20
493.45701138500942
 11
1195.4864697766743
 21
493.47291138501021
  0
LINE
  8
_0-5_金属
  6
CONTINUOUS
 62
    7
 10
1195.383019776674
 20
492.26086138500989
 11
1195.5823197766745
 21
492.27681138501055
  0
LINE
  8
_0-5_金属
  6
CONTINUOUS
 62
    7
 10
1214.1102197766747
 20
461.31446138501076
 11
1194.0122697766753
 21
489.19751138500999
  0
LINE
  8
_0-5_金属
  6
CONTINUOUS
 62
    7
 10
1188.9617197766745
 20
507.42361138501053
 11
1196.8538697766746
 21
496.54101138501062
  0
LINE
  8
_0-5_金属
  6
CONTINUOUS
 62
    7
 10
1140.2814197766747
 20
509.36676138501014
 11
1187.5045697766745
 21
509.36676138501014
  0
LINE
  8
_0-5_金属
  6
CONTINUOUS
 62
    7
 10
1140.2816697766752
 20
508.16681138500996
 11
1187.5045697766745
 21
508.16681138500996
  0
LINE
  8
_0-5_金属
  6
CONTINUOUS
 62
    7
 10
976.53531977667512
 20
472.36676138500968
 11
990.33511977667445
 21
472.36676138500968
  0
LINE
  8
_0-5_金属
  6
CONTINUOUS
 62
    7
 10
991.42761977667419
 20
467.49186138500988
 11
987.98661977667507
 21
465.24716138500992
  0
LINE
  8
_0-5_金属
  6
CONTINUOUS
 62
    7
 10
992.08321977667424
 20
466.4868113850099
 11
988.64226977667499
 21
464.24216138500981
  0
LINE
  8
_0-5_金属
  6
CONTINUOUS
 62
    7
 10
976.53531977667512
 20
471.16681138500951
 11
990.33511977667445
 21
471.16681138500951
  0
LINE
  8
_0-5_金属
  6
CONTINUOUS
 62
    7
 10
959.53527467667982
 20
459.36676138501014
 11
1109.5352746766798
 21
459.36676138501014
  0
LINE
  8
_0-5_金属
  6
CONTINUOUS
 62
    7
 10
1055.244319776674
 20
497.24556138500986
 11
1063.1364697766753
 21
508.1281113850099
  0
LINE
  8
_0-5_金属
  6
CONTINUOUS
 62
    7
 10
1060.0307697766755
 20
488.49581138500923
 11
1039.9327697766751
 21
460.61276138501
  0
LINE
  8
_0-5_金属
  6
CONTINUOUS
 62
    7
 10
1057.5831197766752
 20
493.47301138500995
 11
1057.782219776675
 21
493.45706138501043
  0
LINE
  8
_0-5_金属
  6
CONTINUOUS
 62
    7
 10
1057.4871197766754
 20
492.27671138500966
 11
1057.6863697766748
 21
492.26071138501027
  0
LINE
  8
_0-5_金属
  6
CONTINUOUS
 62
    7
 10
1059.0573197766741
 20
489.1974113850091
 11
1038.9593197766749
 21
461.31441138500975
  0
LINE
  8
_0-5_金属
  6
CONTINUOUS
 62
    7
 10
1056.2157697766747
 20
496.54111138501037
 11
1064.1078197766751
 21
507.42361138501053
  0
LINE
  8
_0-5_金属
  6
CONTINUOUS
 62
    7
 10
989.73526977667461
 20
460.56696138500968
 11
1037.4991697766745
 21
460.56696138500968
  0
LINE
  8
_0-5_金属
  6
CONTINUOUS
 62
    7
 10
1065.5651197766747
 20
509.36676138501014
 11
1112.788969776675
 21
509.36676138501014
  0
LINE
  8
_0-5_金属
  6
CONTINUOUS
 62
    7
 10
1065.5651197766747
 20
508.16681138500996
 11
1112.788969776675
 21
508.16681138500996
  0
LINE
  8
_0-5_金属
  6
CONTINUOUS
 62
    7
 10
962.73526977667416
 20
472.36676138500968
 11
976.53531977667512
 21
472.36676138500968
  0
LINE
  8
_0-5_金属
  6
CONTINUOUS
 62
    7
 10
962.73526977667416
 20
471.16681138500951
 11
976.53531977667512
 21
471.16681138500951
  0
LINE
  8
_0-5_金属
  6
CONTINUOUS
 62
    7
 10
960.73551977667535
 20
469.16681138501019
 11
960.73551977667535
 21
467.96686138501002
  0
LINE
  8
_0-5_金属
  6
CONTINUOUS
 62
    7
 10
959.53556977667404
 20
469.16681138501019
 11
959.53556977667404
 21
467.96686138501002
  0
LINE
  8
_0-5_金属
  6
CONTINUOUS
 62
    7
 10
960.38596977667453
 20
465.36726138501024
 11
961.35421977667534
 21
466.07646138500911
  0
LINE
  8
_0-5_金属
  6
CONTINUOUS
 62
    7
 10
959.53581977667454
 20
467.96691138500989
 11
963.93596977667471
 21
467.96691138500989
  0
LINE
  8
_0-5_金属
  6
CONTINUOUS
 62
    7
 10
963.93541977667496
 20
467.96691138500989
 11
960.38561977667541
 21
465.36686138501011
  0
LINE
  8
_0-5_金属
  6
CONTINUOUS
 62
    7
 10
1125.2595197766743
 20
498.09631138501061
 11
1114.9145197766745
 21
508.48356138500947
  0
LINE
  8
_0-5_金属
  6
CONTINUOUS
 62
    7
 10
1124.4092197766747
 20
497.24951138501012
 11
1114.0642697766748
 21
507.63671138500911
  0
LINE
  8
_0-5_金属
  6
CONTINUOUS
 62
    7
 10
1138.155519776675
 20
508.48381138500997
 11
1127.8101697766749
 21
498.0962613850096
  0
LINE
  8
_0-5_金属
  6
CONTINUOUS
 62
    7
 10
1139.0060197766741
 20
507.63701138501062
 11
1128.6605697766743
 21
497.24931138500949
  0
ARC
  8
_0-5_金属
  6
CONTINUOUS
 62
    7
 10
1195.2347697766754
 20
495.36676138500923
 40
3.1999969500000001
 50
0.000035
 51
35.949935000000004
  0
ARC
  8
_0-5_金属
  6
CONTINUOUS
 62
    7
 10
1195.2347697766754
 20
495.36676138500923
 40
1.9999961500000005
 50
0.000035
 51
35.949717000000007
  0
ARC
  8
_0-5_金属
  6
CONTINUOUS
 62
    7
 10
1195.6346697766753
 20
490.36676138500923
 40
2.0000114
 50
180.00009000000003
 51
216.07594000000003
  0
ARC
  8
_0-5_金属
  6
CONTINUOUS
 62
    7
 10
1195.534819776675
 20
490.36676138500923
 40
3.1000213500000005
 50
94.576591000000008
 51
179.99990000000003
  0
ARC
  8
_0-5_金属
  6
CONTINUOUS
 62
    7
 10
1195.3346197766746
 20
495.36676138500923
 40
3.0999907999999996
 50
274.58181000000002
 51
359.99996000000004
  0
ARC
  8
_0-5_金属
  6
CONTINUOUS
 62
    7
 10
1195.6346697766753
 20
490.36676138500923
 40
3.2000122000000002
 50
180.00009000000003
 51
215.78394000000003
  0
ARC
  8
_0-5_金属
  6
CONTINUOUS
 62
    7
 10
1195.3346197766746
 20
495.36676138500923
 40
1.8999938500000002
 50
274.57776999999999
 51
359.99995999999999
  0
ARC
  8
_0-5_金属
  6
CONTINUOUS
 62
    7
 10
1195.534819776675
 20
490.36676138500923
 40
1.9000091499999998
 50
94.580906999999996
 51
179.9999
  0
ARC
  8
_0-5_金属
  6
CONTINUOUS
 62
    7
 10
1215.5704697766748
 20
462.36701138501019
 40
1.7999992
 50
215.78405000000001
 51
270.00022999999999
  0
ARC
  8
_0-5_金属
  6
CONTINUOUS
 62
    7
 10
1215.5704697766748
 20
462.36701138501019
 40
2.9999989999999999
 50
215.78405000000001
 51
270.00022999999999
  0
ARC
  8
_0-5_金属
  6
CONTINUOUS
 62
    7
 10
1187.5045697766745
 20
506.36676138501059
 40
1.7999992
 50
35.949661999999996
 51
89.999489999999994
  0
ARC
  8
_0-5_金属
  6
CONTINUOUS
 62
    7
 10
1187.5045697766745
 20
506.36676138501059
 40
3.0000000000000004
 50
35.949770999999998
 51
89.999654000000007
  0
ARC
  8
_0-5_金属
  6
CONTINUOUS
 62
    7
 10
989.73501977667524
 20
462.56696138501013
 40
3.2000007500000005
 50
123.11782000000001
 51
269.99982999999997
  0
ARC
  8
_0-5_金属
  6
CONTINUOUS
 62
    7
 10
990.33486977667508
 20
469.16681138501019
 40
3.1999998000000001
 50
0.000035
 51
89.999927
  0
ARC
  8
_0-5_金属
  6
CONTINUOUS
 62
    7
 10
990.33486977667508
 20
469.16681138501019
 40
1.9999990000000001
 50
0.000035
 51
89.999927
  0
ARC
  8
_0-5_金属
  6
CONTINUOUS
 62
    7
 10
989.73501977667524
 20
462.56696138501013
 40
2
 50
123.11782000000001
 51
269.99982999999997
  0
ARC
  8
_0-5_金属
  6
CONTINUOUS
 62
    7
 10
990.33486977667508
 20
469.16681138501019
 40
1.9999990000000001
 50
303.11781999999999
 51
359.99995999999999
  0
ARC
  8
_0-5_金属
  6
CONTINUOUS
 62
    7
 10
990.33486977667508
 20
469.16681138501019
 40
3.1999998000000001
 50
303.11781999999999
 51
359.99995999999999
  0
ARC
  8
_0-5_金属
  6
CONTINUOUS
 62
    7
 10
1057.8348697766751
 20
495.36676138500923
 40
3.1999969500000001
 50
144.05005000000003
 51
179.99995999999999
  0
ARC
  8
_0-5_金属
  6
CONTINUOUS
 62
    7
 10
1057.8348697766751
 20
495.36676138500923
 40
1.9999961500000005
 50
144.05027000000001
 51
179.99995999999999
  0
ARC
  8
_0-5_金属
  6
CONTINUOUS
 62
    7
 10
1057.4347197766747
 20
490.36676138500923
 40
2.0000114
 50
323.92410000000001
 51
359.99995999999999
  0
ARC
  8
_0-5_金属
  6
CONTINUOUS
 62
    7
 10
1057.5348197766743
 20
490.36676138500923
 40
3.1000213500000005
 50
0.000035
 51
85.42326300000002
  0
ARC
  8
_0-5_金属
  6
CONTINUOUS
 62
    7
 10
1057.7347697766743
 20
495.36676138500923
 40
3.0999907999999996
 50
180.00009000000003
 51
265.41831999999999
  0
ARC
  8
_0-5_金属
  6
CONTINUOUS
 62
    7
 10
1057.4347197766747
 20
490.36676138500923
 40
3.2000122000000002
 50
324.21611000000001
 51
359.99995999999999
  0
ARC
  8
_0-5_金属
  6
CONTINUOUS
 62
    7
 10
1057.7347697766743
 20
495.36676138500923
 40
1.8999938500000002
 50
180.00009000000003
 51
265.42237
  0
ARC
  8
_0-5_金属
  6
CONTINUOUS
 62
    7
 10
1057.5348197766743
 20
490.36676138500923
 40
1.9000091499999998
 50
0.000035
 51
85.418946000000005
  0
ARC
  8
_0-5_金属
  6
CONTINUOUS
 62
    7
 10
1037.4991697766745
 20
462.36701138501019
 40
1.7999992
 50
269.99990000000003
 51
324.21600000000001
  0
ARC
  8
_0-5_金属
  6
CONTINUOUS
 62
    7
 10
1037.4991697766745
 20
462.36701138501019
 40
2.9999989999999999
 50
269.99990000000003
 51
324.21600000000001
  0
ARC
  8
_0-5_金属
  6
CONTINUOUS
 62
    7
 10
1065.5648697766742
 20
506.36676138501059
 40
1.7999992
 50
90.000364000000005
 51
144.05026999999998
  0
ARC
  8
_0-5_金属
  6
CONTINUOUS
 62
    7
 10
1065.5648697766742
 20
506.36676138501059
 40
3.0000000000000004
 50
90.000200000000021
 51
144.05016000000001
  0
ARC
  8
_0-5_金属
  6
CONTINUOUS
 62
    7
 10
962.73501977667479
 20
469.16681138501019
 40
3.1999998000000001
 50
89.999927
 51
179.99990000000003
  0
ARC
  8
_0-5_金属
  6
CONTINUOUS
 62
    7
 10
962.73501977667479
 20
469.16681138501019
 40
1.9999990000000001
 50
89.999927
 51
179.99990000000003
  0
ARC
  8
_0-5_金属
  6
CONTINUOUS
 62
    7
 10
963.93546977667484
 20
467.96686138501002
 40
3.2001952999999999
 50
180.00009000000003
 51
216.22260000000003
  0
ARC
  8
_0-5_金属
  6
CONTINUOUS
 62
    7
 10
963.93546977667484
 20
467.96686138501002
 40
4.4001951000000004
 50
180.00009000000003
 51
216.22041000000002
  0
ARC
  8
_0-5_金属
  6
CONTINUOUS
 62
    7
 10
1126.5348197766741
 20
499.36651138500963
 40
2.9999989999999999
 50
224.88328000000001
 51
315.11669999999998
  0
ARC
  8
_0-5_金属
  6
CONTINUOUS
 62
    7
 10
1126.5348197766741
 20
499.36651138500963
 40
1.79999825
 50
224.57187999999999
 51
315.11669999999998
  0
ARC
  8
_0-5_金属
  6
CONTINUOUS
 62
    7
 10
1112.7887197766745
 20
506.36676138501059
 40
1.7999992
 50
44.880642999999999
 51
89.996648000000008
  0
ARC
  8
_0-5_金属
  6
CONTINUOUS
 62
    7
 10
1112.7887197766745
 20
506.36676138501059
 40
3.0000000000000004
 50
44.881701999999997
 51
89.998013999999998
  0
ARC
  8
_0-5_金属
  6
CONTINUOUS
 62
    7
 10
1140.2811697766742
 20
506.36676138501059
 40
3.0000000000000004
 50
89.997741000000005
 51
135.11528999999999
  0
ARC
  8
_0-5_金属
  6
CONTINUOUS
 62
    7
 10
1140.2814197766747
 20
506.36676138501059
 40
1.7999992
 50
89.999435000000005
 51
135.11660000000001
  0
LINE
  8
ADD_LINE
  6
DOT
 62
    4
 10
976.53411977667474
 20
491.07881138501
 11
976.53411977667474
 21
414.97960274840523
  0
LINE
  8
ADD_LINE
  6
DOT
 62
    4
 10
1126.5344197766751
 20
525.46031138501064
 11
1126.5344197766751
 21
414.97960274840523
  0
LINE
  8
_0-5_金属
  6
CONTINUOUS
 62
    7
 10
1215.6007697766745
 20
459.36676138501014
 11
1239.452544776675
 21
459.36676138501014
  0
LINE
  8
_0-5_金属
  6
CONTINUOUS
 62
    7
 10
1215.5704697766748
 20
460.56696138500968
 11
1239.452544776675
 21
460.56696138500968
  0
LINE
  8
_0-a_文字
  6
CONTINUOUS
 62
    7
 10
1162.3299927216124
 20
434.36676138501014
 11
1182.3299927216124
 21
434.36676138501014
  0
LINE
  8
_0-a_文字
  6
CONTINUOUS
 62
    7
 10
1126.5345197766749
 20
496.36633920659676
 11
1162.3299927216124
 21
434.36676138501014
  0
LINE
  8
_0-2_線色２__白__
  6
CONTINUOUS
 62
    7
 10
978.73527467668055
 20
880.56676238327952
 11
977.5352746766805
 21
878.48830141419683
  0
LINE
  8
_0-4_線色４__黄__
  6
CONTINUOUS
 62
    2
 10
983.73527467668055
 20
879.22701642112372
 11
982.53527467668277
 21
877.14855545204443
  0
LINE
  8
_0-4_線色４__黄__
  6
CONTINUOUS
 62
    2
 10
983.73527467668055
 20
912.56676238327884
 11
983.73527467668055
 21
879.22701642112372
  0
ARC
  8
_0-4_線色４__黄__
  6
CONTINUOUS
 62
    2
 10
980.73527467667986
 20
912.56676238327884
 40
3
 50
0
 51
90
  0
ARC
  8
_0-4_線色４__黄__
  6
CONTINUOUS
 62
    2
 10
820.76211511759766
 20
924.22981214762046
 40
14.174472191977507
 50
285.43791299863494
 51
324.80011879761605
  0
ARC
  8
_0-4_線色４__黄__
  6
CONTINUOUS
 62
    2
 10
845.18670389825502
 20
926.43969346000119
 40
10.892428114515676
 50
236.56644740139643
 51
266.57134018064198
  0
ARC
  8
_0-4_線色４__黄__
  6
CONTINUOUS
 62
    2
 10
836.43046016445851
 20
913.17705921753884
 40
5
 50
56.566447401396069
 51
144.80011879761557
  0
LINE
  8
_0-d_断熱__ハッチ
  6
CONTINUOUS
 62
    4
 10
842.92865933875078
 20
915.56676238327725
 11
843.10913128461607
 21
915.74723432914368
  0
LINE
  8
_0-d_断熱__ハッチ
  6
CONTINUOUS
 62
    4
 10
840.80733899518918
 20
915.56676238327725
 11
841.44915489804589
 21
916.20857828613168
  0
LINE
  8
_0-d_断熱__ハッチ
  6
CONTINUOUS
 62
    4
 10
833.68601865163328
 20
910.56676238327952
 11
834.53527467667868
 21
911.41601840832379
  0
LINE
  8
_0-d_断熱__ハッチ
  6
CONTINUOUS
 62
    4
 10
838.68601865163441
 20
915.56676238327952
 11
839.98747904117863
 21
916.86822277282261
  0
LINE
  8
_0-d_断熱__ハッチ
  6
CONTINUOUS
 62
    4
 10
831.56469830807282
 20
910.56676238327725
 11
834.53527467667868
 21
913.53733875188198
  0
LINE
  8
_0-d_断熱__ハッチ
  6
CONTINUOUS
 62
    4
 10
836.56469830807623
 20
915.56676238327725
 11
838.65358118398717
 21
917.6556452591916
  0
LINE
  8
_0-d_断熱__ハッチ
  6
CONTINUOUS
 62
    4
 10
829.44337796451805
 20
910.56676238327952
 11
837.01892496187838
 21
918.142309380641
  0
LINE
  8
_0-d_断熱__ハッチ
  6
CONTINUOUS
 62
    4
 10
827.32205762095987
 20
910.56676238327952
 11
834.57555778517531
 21
917.82026254749496
  0
LINE
  8
_0-d_断熱__ハッチ
  6
CONTINUOUS
 62
    4
 10
825.20073727739259
 20
910.56676238327952
 11
825.50711790263904
 21
910.87314300852711
  0
LINE
  8
_0-3_線色３__緑__
  6
RAND3
 62
    3
 10
884.53527467667755
 20
910.56676238327952
 11
834.53527467667755
 21
910.56676238327952
  0
LINE
  8
_0-4_線色４__黄__
  6
CONTINUOUS
 62
    2
 10
834.53527467667755
 20
915.56676238327952
 11
834.53527467667755
 21
910.56676238327952
  0
LINE
  8
_0-4_線色４__黄__
  6
CONTINUOUS
 62
    2
 10
980.73527467667986
 20
915.56676238327952
 11
834.53527467667755
 21
915.56676238327952
  0
TEXT
  8
_0-a_文字
 62
    7
 10
932.19930747951594
 20
1013.2250866029057
 40
14.999999999999858
 41
1.0000000000000122
 50
0
  1
ロンシーラントＬ
  0
LINE
  8
_0-a_文字
  6
CONTINUOUS
 62
    7
 10
879.19637199784347
 20
1045.7250866029058
 11
899.19637199784347
 21
1045.7250866029058
  0
TEXT
  8
_0-a_文字
 62
    7
 10
904.19637199784347
 20
1038.2250866029058
 40
14.999999999999858
 41
1.0000000000000122
 50
0
  1
笠木（別途工事）
  0
LINE
  8
_0-a_文字
  6
CONTINUOUS
 62
    7
 10
893.82825990182482
 20
1020.7250866029057
 11
927.19930747951594
 21
1020.7250866029057
  0
LINE
  8
_0-a_文字
  6
CONTINUOUS
 62
    7
 10
906.78458293623066
 20
995.72508660290566
 11
926.78458293623066
 21
995.72508660290566
  0
LINE
  8
_0-a_文字
  6
CONTINUOUS
 62
    7
 10
892.35082620648996
 20
970.72508660290566
 11
926.78458293623066
 21
970.72508660290566
  0
TEXT
  8
_0-a_文字
 62
    7
 10
931.78458293623066
 20
963.22508660290566
 40
15.000000000000036
 41
0.9999999999999974
 50
0
  1
ブチルテープ（別途工事）
  0
LINE
  8
_0-a_文字
  6
CONTINUOUS
 62
    7
 10
856.2853905803297
 20
908.25791970129274
 11
906.78458293623066
 21
995.72508660290566
  0
LINE
  8
_0-a_文字
  6
CONTINUOUS
 62
    7
 10
843.59936933783501
 20
910.56676238327952
 11
907.19930747951594
 21
1020.7250866029057
  0
LINE
  8
_0-a_文字
  6
CONTINUOUS
 62
    7
 10
832.99276302471526
 20
915.35491510805457
 11
893.82825990182482
 21
1020.7250866029057
  0
LINE
  8
_0-d_断熱__ハッチ
  6
CONTINUOUS
 62
    4
 10
1226.0459203052903
 20
509.36676238327834
 11
1239.4525447766762
 21
522.77338685466418
  0
LINE
  8
_0-d_断熱__ハッチ
  6
CONTINUOUS
 62
    4
 10
977.5352746766805
 20
519.26760648203924
 11
986.23611877544022
 21
510.56676238327952
  0
LINE
  8
_0-2_線色２__白__
  6
CONTINUOUS
 62
    7
 10
1160.7352746766799
 20
509.36676238327948
 11
1239.452544776675
 21
509.36676238327948
  0
LINE
  8
_0-5_金属
  6
CONTINUOUS
 62
    7
 10
959.53527467667982
 20
863.66676238327898
 11
959.53527467667982
 21
605.06676238327884
  0
LINE
  8
_0-4_線色４__黄__
  6
CONTINUOUS
 62
    2
 10
1026.180806750034
 20
562.81791117020532
 11
1030.2321553259924
 21
559.36676238327948
  0
LINE
  8
_0-4_線色４__黄__
  6
CONTINUOUS
 62
    2
 10
985.53527467668232
 20
562.81791117020532
 11
1026.180806750034
 21
562.81791117020532
  0
LINE
  8
_0-4_線色４__黄__
  6
CONTINUOUS
 62
    2
 10
1030.2321553259924
 20
559.36676238327948
 11
1036.2292873929243
 21
559.36676238327948
  0
LINE
  8
_0-2_線色２__白__
  6
CONTINUOUS
 62
    7
 10
1025.5352746766823
 20
550.23140304678861
 11
1026.5502876294966
 21
549.36676238327948
  0
LINE
  8
_0-2_線色２__白__
  6
CONTINUOUS
 62
    7
 10
1046.9512647060708
 20
554.47706601494076
 11
1046.9771632555387
 21
554.36676238327948
  0
LINE
  8
_0-2_線色２__白__
  6
CONTINUOUS
 62
    7
 10
1046.905427810392
 20
554.66674096204372
 11
1046.9512647060708
 21
554.47706601494076
  0
LINE
  8
_0-2_線色２__白__
  6
CONTINUOUS
 62
    7
 10
1046.8563014031054
 20
554.85501666421953
 11
1046.905427810392
 21
554.66674096204372
  0
LINE
  8
_0-2_線色２__白__
  6
CONTINUOUS
 62
    7
 10
1046.801803514835
 20
555.04100752341003
 11
1046.8563014031054
 21
554.85501666421953
  0
LINE
  8
_0-2_線色２__白__
  6
CONTINUOUS
 62
    7
 10
1046.7398521762118
 20
555.22382794155931
 11
1046.801803514835
 21
555.04100752341003
  0
LINE
  8
_0-2_線色２__白__
  6
CONTINUOUS
 62
    7
 10
1046.6683654178621
 20
555.40259232060919
 11
1046.7398521762118
 21
555.22382794155931
  0
LINE
  8
_0-2_線色２__白__
  6
CONTINUOUS
 62
    7
 10
1046.6217135645036
 20
555.50406821165836
 11
1046.6683654178621
 21
555.40259232060919
  0
LINE
  8
_0-2_線色２__白__
  6
CONTINUOUS
 62
    7
 10
1046.5856736534181
 20
555.57571986950109
 11
1046.6217135645036
 21
555.50406821165836
  0
LINE
  8
_0-2_線色２__白__
  6
CONTINUOUS
 62
    7
 10
1046.5186531550887
 20
555.69701362320359
 11
1046.5856736534181
 21
555.57571986950109
  0
LINE
  8
_0-2_線色２__白__
  6
CONTINUOUS
 62
    7
 10
1046.4459455889448
 20
555.8154253878962
 11
1046.5186531550887
 21
555.69701362320359
  0
LINE
  8
_0-2_線色２__白__
  6
CONTINUOUS
 62
    7
 10
1046.3681248981982
 20
555.93090632060978
 11
1046.4459455889448
 21
555.8154253878962
  0
LINE
  8
_0-2_線色２__白__
  6
CONTINUOUS
 62
    7
 10
1046.2857650260673
 20
556.04340757836837
 11
1046.3681248981982
 21
555.93090632060978
  0
LINE
  8
_0-2_線色２__白__
  6
CONTINUOUS
 62
    7
 10
1046.1994399157618
 20
556.15288031820512
 11
1046.2857650260673
 21
556.04340757836837
  0
LINE
  8
_0-2_線色２__白__
  6
CONTINUOUS
 62
    7
 10
1046.1477806431242
 20
556.2149675937286
 11
1046.1994399157618
 21
556.15288031820512
  0
LINE
  8
_0-2_線色２__白__
  6
CONTINUOUS
 62
    7
 10
1046.0567120611847
 20
556.31916890193963
 11
1046.1477806431242
 21
556.2149675937286
  0
LINE
  8
_0-2_線色２__白__
  6
CONTINUOUS
 62
    7
 10
1045.8933981899065
 20
556.49244590494902
 11
1046.0567120611847
 21
556.31916890193963
  0
LINE
  8
_0-2_線色２__白__
  6
CONTINUOUS
 62
    7
 10
1045.7233529907978
 20
556.65893204779934
 11
1045.8933981899065
 21
556.49244590494902
  0
LINE
  8
_0-2_線色２__白__
  6
CONTINUOUS
 62
    7
 10
1045.5480208645724
 20
556.82012224572475
 11
1045.7233529907978
 21
556.65893204779934
  0
LINE
  8
_0-2_線色２__白__
  6
CONTINUOUS
 62
    7
 10
1045.3688462119464
 20
556.97751141396623
 11
1045.5480208645724
 21
556.82012224572475
  0
LINE
  8
_0-2_線色２__白__
  6
CONTINUOUS
 62
    7
 10
1045.1872734336359
 20
557.13259446776021
 11
1045.3688462119464
 21
556.97751141396623
  0
LINE
  8
_0-2_線色２__白__
  6
CONTINUOUS
 62
    7
 10
1045.0814315700188
 20
557.22207505166182
 11
1045.1872734336359
 21
557.13259446776021
  0
LINE
  8
_0-2_線色２__白__
  6
CONTINUOUS
 62
    7
 10
1044.9969784006146
 20
557.29333223075457
 11
1045.0814315700188
 21
557.22207505166182
  0
LINE
  8
_0-2_線色２__白__
  6
CONTINUOUS
 62
    7
 10
1044.85087079952
 20
557.4155323106794
 11
1044.9969784006146
 21
557.29333223075457
  0
LINE
  8
_0-2_線色２__白__
  6
CONTINUOUS
 62
    7
 10
1044.7034659578264
 20
557.5358646597266
 11
1044.85087079952
 21
557.4155323106794
  0
LINE
  8
_0-2_線色２__白__
  6
CONTINUOUS
 62
    7
 10
1044.5539894690921
 20
557.65312471212212
 11
1044.7034659578264
 21
557.5358646597266
  0
LINE
  8
_0-2_線色２__白__
  6
CONTINUOUS
 62
    7
 10
1044.4016669268683
 20
557.7661079020919
 11
1044.5539894690921
 21
557.65312471212212
  0
LINE
  8
_0-2_線色２__白__
  6
CONTINUOUS
 62
    7
 10
1044.2457239247153
 20
557.87360966385961
 11
1044.4016669268683
 21
557.7661079020919
  0
LINE
  8
_0-2_線色２__白__
  6
CONTINUOUS
 62
    7
 10
1044.1533129323159
 20
557.93297443373206
 11
1044.2457239247153
 21
557.87360966385961
  0
LINE
  8
_0-2_線色２__白__
  6
CONTINUOUS
 62
    7
 10
1044.0615979239908
 20
557.98866137524385
 11
1044.1533129323159
 21
557.93297443373206
  0
LINE
  8
_0-2_線色２__白__
  6
CONTINUOUS
 62
    7
 10
1043.9007941979787
 20
558.08061814596897
 11
1044.0615979239908
 21
557.98866137524385
  0
LINE
  8
_0-2_線色２__白__
  6
CONTINUOUS
 62
    7
 10
1043.7380767700245
 20
558.16971830830482
 11
1043.9007941979787
 21
558.08061814596897
  0
LINE
  8
_0-2_線色２__白__
  6
CONTINUOUS
 62
    7
 10
1043.5751568217336
 20
558.25860901675526
 11
1043.7380767700245
 21
558.16971830830482
  0
LINE
  8
_0-2_線色２__白__
  6
CONTINUOUS
 62
    7
 10
1043.4137455347002
 20
558.3499374258264
 11
1043.5751568217336
 21
558.25860901675526
  0
LINE
  8
_0-2_線色２__白__
  6
CONTINUOUS
 62
    7
 10
1043.2555540905298
 20
558.44635069001981
 11
1043.4137455347002
 21
558.3499374258264
  0
LINE
  8
_0-2_線色２__白__
  6
CONTINUOUS
 62
    7
 10
1043.1659526794408
 20
558.50564338039987
 11
1043.2555540905298
 21
558.44635069001981
  0
LINE
  8
_0-2_線色２__白__
  6
CONTINUOUS
 62
    7
 10
1043.1119254545467
 20
558.5435106767892
 11
1043.1659526794408
 21
558.50564338039987
  0
LINE
  8
_0-2_線色２__白__
  6
CONTINUOUS
 62
    7
 10
1043.0205709555946
 20
558.6114385063189
 11
1043.1119254545467
 21
558.5435106767892
  0
LINE
  8
_0-2_線色２__白__
  6
CONTINUOUS
 62
    7
 10
1042.9315409445587
 20
558.68252998300761
 11
1043.0205709555946
 21
558.6114385063189
  0
LINE
  8
_0-2_線色２__白__
  6
CONTINUOUS
 62
    7
 10
1042.844894969063
 20
558.75657888633498
 11
1042.9315409445587
 21
558.68252998300761
  0
LINE
  8
_0-2_線色２__白__
  6
CONTINUOUS
 62
    7
 10
1042.7606925767338
 20
558.83337899577612
 11
1042.844894969063
 21
558.75657888633498
  0
LINE
  8
_0-2_線色２__白__
  6
CONTINUOUS
 62
    7
 10
1042.6789933151929
 20
558.91272409081068
 11
1042.7606925767338
 21
558.83337899577612
  0
LINE
  8
_0-2_線色２__白__
  6
CONTINUOUS
 62
    7
 10
1042.6327781428893
 20
558.95982909672114
 11
1042.6789933151929
 21
558.91272409081068
  0
LINE
  8
_0-2_線色２__白__
  6
CONTINUOUS
 62
    7
 10
1042.5048961350615
 20
559.09908199650147
 11
1042.6327781428893
 21
558.95982909672114
  0
LINE
  8
_0-2_線色２__白__
  6
CONTINUOUS
 62
    7
 10
1042.2996105087884
 20
559.3519244522605
 11
1042.5048961350615
 21
559.09908199650147
  0
LINE
  8
_0-2_線色２__白__
  6
CONTINUOUS
 62
    7
 10
1042.1109985103874
 20
559.61835597344646
 11
1042.2996105087884
 21
559.3519244522605
  0
LINE
  8
_0-2_線色２__白__
  6
CONTINUOUS
 62
    7
 10
1041.9360745230017
 20
559.89540940146355
 11
1042.1109985103874
 21
559.61835597344646
  0
LINE
  8
_0-2_線色２__白__
  6
CONTINUOUS
 62
    7
 10
1041.7718529297747
 20
560.18011757771603
 11
1041.9360745230017
 21
559.89540940146355
  0
LINE
  8
_0-2_線色２__白__
  6
CONTINUOUS
 62
    7
 10
1041.6153481138451
 20
560.46951334360358
 11
1041.7718529297747
 21
560.18011757771603
  0
LINE
  8
_0-2_線色２__白__
  6
CONTINUOUS
 62
    7
 10
1041.5269346596676
 20
560.63834152661059
 11
1041.6153481138451
 21
560.46951334360358
  0
LINE
  8
_0-2_線色２__白__
  6
CONTINUOUS
 62
    7
 10
1041.4619766650378
 20
560.76378127611008
 11
1041.5269346596676
 21
560.63834152661059
  0
LINE
  8
_0-2_線色２__白__
  6
CONTINUOUS
 62
    7
 10
1041.3508496728412
 20
560.97992111536598
 11
1041.4619766650378
 21
560.76378127611008
  0
LINE
  8
_0-2_線色２__白__
  6
CONTINUOUS
 62
    7
 10
1041.2401622489813
 20
561.19568465634586
 11
1041.3508496728412
 21
560.97992111536598
  0
LINE
  8
_0-2_線色２__白__
  6
CONTINUOUS
 62
    7
 10
1041.129145639735
 20
561.41083391742143
 11
1041.2401622489813
 21
561.19568465634586
  0
LINE
  8
_0-2_線色２__白__
  6
CONTINUOUS
 62
    7
 10
1041.0170310913702
 20
561.62513091695757
 11
1041.129145639735
 21
561.41083391742143
  0
LINE
  8
_0-2_線色２__白__
  6
CONTINUOUS
 62
    7
 10
1040.9030498501613
 20
561.83833767332601
 11
1041.0170310913702
 21
561.62513091695757
  0
LINE
  8
_0-2_線色２__白__
  6
CONTINUOUS
 62
    7
 10
1040.8357824826555
 20
561.96140426546265
 11
1040.9030498501613
 21
561.83833767332601
  0
LINE
  8
_0-2_線色２__白__
  6
CONTINUOUS
 62
    7
 10
1040.7718921557955
 20
562.07608306249142
 11
1040.8357824826555
 21
561.96140426546265
  0
LINE
  8
_0-2_線色２__白__
  6
CONTINUOUS
 62
    7
 10
1040.6589393022284
 20
562.27233706127265
 11
1040.7718921557955
 21
562.07608306249142
  0
LINE
  8
_0-2_線色２__白__
  6
CONTINUOUS
 62
    7
 10
1040.5414385380584
 20
562.46604623041605
 11
1040.6589393022284
 21
562.27233706127265
  0
LINE
  8
_0-2_線色２__白__
  6
CONTINUOUS
 62
    7
 10
1040.418218636072
 20
562.65641229150617
 11
1040.5414385380584
 21
562.46604623041605
  0
LINE
  8
_0-2_線色２__白__
  6
CONTINUOUS
 62
    7
 10
1040.2881083690534
 20
562.84263696612754
 11
1040.418218636072
 21
562.65641229150617
  0
LINE
  8
_0-2_線色２__白__
  6
CONTINUOUS
 62
    7
 10
1040.1499365097845
 20
563.02392197586244
 11
1040.2881083690534
 21
562.84263696612754
  0
LINE
  8
_0-2_線色２__白__
  6
CONTINUOUS
 62
    7
 10
1040.0656414854132
 20
563.12648936385415
 11
1040.1499365097845
 21
563.02392197586244
  0
LINE
  8
_0-2_線色２__白__
  6
CONTINUOUS
 62
    7
 10
1039.9901994054278
 20
563.21334306785104
 11
1040.0656414854132
 21
563.12648936385415
  0
LINE
  8
_0-2_線色２__白__
  6
CONTINUOUS
 62
    7
 10
1039.8542899522238
 20
563.35836489718133
 11
1039.9901994054278
 21
563.21334306785104
  0
LINE
  8
_0-2_線色２__白__
  6
CONTINUOUS
 62
    7
 10
1039.7109956118572
 20
563.49578230302825
 11
1039.8542899522238
 21
563.35836489718133
  0
LINE
  8
_0-2_線色２__白__
  6
CONTINUOUS
 62
    7
 10
1039.560320565439
 20
563.62370897634321
 11
1039.7109956118572
 21
563.49578230302825
  0
LINE
  8
_0-2_線色２__白__
  6
CONTINUOUS
 62
    7
 10
1039.40226899408
 20
563.74025860807535
 11
1039.560320565439
 21
563.62370897634321
  0
LINE
  8
_0-2_線色２__白__
  6
CONTINUOUS
 62
    7
 10
1039.2368450788911
 20
563.84354488917381
 11
1039.40226899408
 21
563.74025860807535
  0
LINE
  8
_0-2_線色２__白__
  6
CONTINUOUS
 62
    7
 10
1039.1375228477102
 20
563.89663036109653
 11
1039.2368450788911
 21
563.84354488917381
  0
LINE
  8
_0-2_線色２__白__
  6
CONTINUOUS
 62
    7
 10
1039.0269850215907
 20
563.94824030175243
 11
1039.1375228477102
 21
563.89663036109653
  0
LINE
  8
_0-2_線色２__白__
  6
CONTINUOUS
 62
    7
 10
1038.8304910459908
 20
564.02413983548797
 11
1039.0269850215907
 21
563.94824030175243
  0
LINE
  8
_0-2_線色２__白__
  6
CONTINUOUS
 62
    7
 10
1038.6279378461347
 20
564.08654800238594
 11
1038.8304910459908
 21
564.02413983548797
  0
LINE
  8
_0-2_線色２__白__
  6
CONTINUOUS
 62
    7
 10
1038.4209808968683
 20
564.13903404409041
 11
1038.6279378461347
 21
564.08654800238594
  0
LINE
  8
_0-2_線色２__白__
  6
CONTINUOUS
 62
    7
 10
1038.2112756730305
 20
564.18516720223863
 11
1038.4209808968683
 21
564.13903404409041
  0
LINE
  8
_0-2_線色２__白__
  6
CONTINUOUS
 62
    7
 10
1038.0004776494673
 20
564.22851671847241
 11
1038.2112756730305
 21
564.18516720223863
  0
LINE
  8
_0-2_線色２__白__
  6
CONTINUOUS
 62
    7
 10
1037.878366418139
 20
564.25379043997111
 11
1038.0004776494673
 21
564.22851671847241
  0
LINE
  8
_0-2_線色２__白__
  6
CONTINUOUS
 62
    7
 10
1037.7708041926019
 20
564.27677222685872
 11
1037.878366418139
 21
564.25379043997111
  0
LINE
  8
_0-2_線色２__白__
  6
CONTINUOUS
 62
    7
 10
1037.5860846546755
 20
564.31721622443376
 11
1037.7708041926019
 21
564.27677222685872
  0
LINE
  8
_0-2_線色２__白__
  6
CONTINUOUS
 62
    7
 10
1037.4019790586533
 20
564.35727388914131
 11
1037.5860846546755
 21
564.31721622443376
  0
LINE
  8
_0-2_線色２__白__
  6
CONTINUOUS
 62
    7
 10
1037.2181230227955
 20
564.3952887151687
 11
1037.4019790586533
 21
564.35727388914131
  0
LINE
  8
_0-2_線色２__白__
  6
CONTINUOUS
 62
    7
 10
1037.0341521653552
 20
564.42960419670783
 11
1037.2181230227955
 21
564.3952887151687
  0
LINE
  8
_0-2_線色２__白__
  6
CONTINUOUS
 62
    7
 10
1036.8497021045857
 20
564.4585638279483
 11
1037.0341521653552
 21
564.42960419670783
  0
LINE
  8
_0-2_線色２__白__
  6
CONTINUOUS
 62
    7
 10
1036.7423579130207
 20
564.47225361403355
 11
1036.8497021045857
 21
564.4585638279483
  0
LINE
  8
_0-2_線色２__白__
  6
CONTINUOUS
 62
    7
 10
1036.595806436784
 20
564.48669022281194
 11
1036.7423579130207
 21
564.47225361403355
  0
LINE
  8
_0-2_線色２__白__
  6
CONTINUOUS
 62
    7
 10
1036.3418412497924
 20
564.50075937081522
 11
1036.595806436784
 21
564.48669022281194
  0
LINE
  8
_0-2_線色２__白__
  6
CONTINUOUS
 62
    7
 10
1036.0866234603589
 20
564.50238907806181
 11
1036.3418412497924
 21
564.50075937081522
  0
LINE
  8
_0-2_線色２__白__
  6
CONTINUOUS
 62
    7
 10
1035.830595623728
 20
564.4930429868765
 11
1036.0866234603589
 21
564.50238907806181
  0
LINE
  8
_0-2_線色２__白__
  6
CONTINUOUS
 62
    7
 10
1035.5742002951467
 20
564.47418473957725
 11
1035.830595623728
 21
564.4930429868765
  0
LINE
  8
_0-2_線色２__白__
  6
CONTINUOUS
 62
    7
 10
1035.3178800298622
 20
564.44727797848884
 11
1035.5742002951467
 21
564.47418473957725
  0
LINE
  8
_0-2_線色２__白__
  6
CONTINUOUS
 62
    7
 10
1035.1694230597775
 20
564.42856097922061
 11
1035.3178800298622
 21
564.44727797848884
  0
LINE
  8
_0-2_線色２__白__
  6
CONTINUOUS
 62
    7
 10
1035.0466542117476
 20
564.41150761318625
 11
1035.1694230597775
 21
564.42856097922061
  0
LINE
  8
_0-2_線色２__白__
  6
CONTINUOUS
 62
    7
 10
1034.8358111681921
 20
564.37815489754996
 11
1035.0466542117476
 21
564.41150761318625
  0
LINE
  8
_0-2_線色２__白__
  6
CONTINUOUS
 62
    7
 10
1034.6266317764832
 20
564.33853030244165
 11
1034.8358111681921
 21
564.37815489754996
  0
LINE
  8
_0-2_線色２__白__
  6
CONTINUOUS
 62
    7
 10
1034.4198326996741
 20
564.29115542870989
 11
1034.6266317764832
 21
564.33853030244165
  0
LINE
  8
_0-2_線色２__白__
  6
CONTINUOUS
 62
    7
 10
1034.2161306008177
 20
564.23455187721231
 11
1034.4198326996741
 21
564.29115542870989
  0
LINE
  8
_0-2_線色２__白__
  6
CONTINUOUS
 62
    7
 10
1034.0162421429625
 20
564.1672412487975
 11
1034.2161306008177
 21
564.23455187721231
  0
LINE
  8
_0-2_線色２__白__
  6
CONTINUOUS
 62
    7
 10
1033.9023366502227
 20
564.12271253553456
 11
1034.0162421429625
 21
564.1672412487975
  0
LINE
  8
_0-2_線色２__白__
  6
CONTINUOUS
 62
    7
 10
1033.8009403890544
 20
564.07883026461434
 11
1033.9023366502227
 21
564.12271253553456
  0
LINE
  8
_0-2_線色２__白__
  6
CONTINUOUS
 62
    7
 10
1033.6293422914503
 20
563.99532208410221
 11
1033.8009403890544
 21
564.07883026461434
  0
LINE
  8
_0-2_線色２__白__
  6
CONTINUOUS
 62
    7
 10
1033.4618846494197
 20
563.90270168881727
 11
1033.6293422914503
 21
563.99532208410221
  0
LINE
  8
_0-2_線色２__白__
  6
CONTINUOUS
 62
    7
 10
1033.298637992192
 20
563.801926457391
 11
1033.4618846494197
 21
563.90270168881727
  0
LINE
  8
_0-2_線色２__白__
  6
CONTINUOUS
 62
    7
 10
1033.1396728490029
 20
563.69395376845944
 11
1033.298637992192
 21
563.801926457391
  0
LINE
  8
_0-2_線色２__白__
  6
CONTINUOUS
 62
    7
 10
1032.9850597490838
 20
563.5797410006586
 11
1033.1396728490029
 21
563.69395376845944
  0
LINE
  8
_0-2_線色２__白__
  6
CONTINUOUS
 62
    7
 10
1032.8974060495409
 20
563.51101564816247
 11
1032.9850597490838
 21
563.5797410006586
  0
LINE
  8
_0-2_線色２__白__
  6
CONTINUOUS
 62
    7
 10
1032.8001786079528
 20
563.43146584088174
 11
1032.8974060495409
 21
563.51101564816247
  0
LINE
  8
_0-2_線色２__白__
  6
CONTINUOUS
 62
    7
 10
1032.636653764572
 20
563.29000258805593
 11
1032.8001786079528
 21
563.43146584088174
  0
LINE
  8
_0-2_線色２__白__
  6
CONTINUOUS
 62
    7
 10
1032.4777398084655
 20
563.14377585765726
 11
1032.636653764572
 21
563.29000258805593
  0
LINE
  8
_0-2_線色２__白__
  6
CONTINUOUS
 62
    7
 10
1032.3227507289619
 20
562.99358821873795
 11
1032.4777398084655
 21
563.14377585765726
  0
LINE
  8
_0-2_線色２__白__
  6
CONTINUOUS
 62
    7
 10
1032.1710005153921
 20
562.84024224033658
 11
1032.3227507289619
 21
562.99358821873795
  0
LINE
  8
_0-2_線色２__白__
  6
CONTINUOUS
 62
    7
 10
1032.0218031570846
 20
562.68454049150535
 11
1032.1710005153921
 21
562.84024224033658
  0
LINE
  8
_0-2_線色２__白__
  6
CONTINUOUS
 62
    7
 10
1031.9361680836698
 20
562.59347031710661
 11
1032.0218031570846
 21
562.68454049150535
  0
LINE
  8
_0-2_線色２__白__
  6
CONTINUOUS
 62
    7
 10
1031.8548121857577
 20
562.50604722409946
 11
1031.9361680836698
 21
562.59347031710661
  0
LINE
  8
_0-2_線色２__白__
  6
CONTINUOUS
 62
    7
 10
1031.7157630904501
 20
562.35430198084543
 11
1031.8548121857577
 21
562.50604722409946
  0
LINE
  8
_0-2_線色２__白__
  6
CONTINUOUS
 62
    7
 10
1031.5784991936255
 20
562.20092199375642
 11
1031.7157630904501
 21
562.35430198084543
  0
LINE
  8
_0-2_線色２__白__
  6
CONTINUOUS
 62
    7
 10
1031.4433010554978
 20
562.04550150029092
 11
1031.5784991936255
 21
562.20092199375642
  0
LINE
  8
_0-2_線色２__白__
  6
CONTINUOUS
 62
    7
 10
1031.3104492362766
 20
561.88763473790061
 11
1031.4433010554978
 21
562.04550150029092
  0
LINE
  8
_0-2_線色２__白__
  6
CONTINUOUS
 62
    7
 10
1031.1802242961733
 20
561.72691594403716
 11
1031.3104492362766
 21
561.88763473790061
  0
LINE
  8
_0-2_線色２__白__
  6
CONTINUOUS
 62
    7
 10
1031.1060080222376
 20
561.63223235123553
 11
1031.1802242961733
 21
561.72691594403716
  0
LINE
  8
_0-2_線色２__白__
  6
CONTINUOUS
 62
    7
 10
1031.0438004425589
 20
561.55086450402962
 11
1031.1060080222376
 21
561.63223235123553
  0
LINE
  8
_0-2_線色２__白__
  6
CONTINUOUS
 62
    7
 10
1030.9391011042419
 20
561.40843532323345
 11
1031.0438004425589
 21
561.55086450402962
  0
LINE
  8
_0-2_線色２__白__
  6
CONTINUOUS
 62
    7
 10
1030.8388520070969
 20
561.26307428146276
 11
1030.9391011042419
 21
561.40843532323345
  0
LINE
  8
_0-2_線色２__白__
  6
CONTINUOUS
 62
    7
 10
1030.7444670179495
 20
561.11452176566274
 11
1030.8388520070969
 21
561.26307428146276
  0
LINE
  8
_0-2_線色２__白__
  6
CONTINUOUS
 62
    7
 10
1030.6573600036234
 20
560.96251816278084
 11
1030.7444670179495
 21
561.11452176566274
  0
LINE
  8
_0-2_線色２__白__
  6
CONTINUOUS
 62
    7
 10
1030.5789448309417
 20
560.80680385976905
 11
1030.6573600036234
 21
560.96251816278084
  0
LINE
  8
_0-2_線色２__白__
  6
CONTINUOUS
 62
    7
 10
1030.5380037696784
 20
560.71468702017739
 11
1030.5789448309417
 21
560.80680385976905
  0
LINE
  8
_0-2_線色２__白__
  6
CONTINUOUS
 62
    7
 10
1030.4907800713852
 20
560.59472191718498
 11
1030.5380037696784
 21
560.71468702017739
  0
LINE
  8
_0-2_線色２__白__
  6
CONTINUOUS
 62
    7
 10
1030.4218649283951
 20
560.38316898536607
 11
1030.4907800713852
 21
560.59472191718498
  0
LINE
  8
_0-2_線色２__白__
  6
CONTINUOUS
 62
    7
 10
1030.3662765308661
 20
560.16658957670927
 11
1030.4218649283951
 21
560.38316898536607
  0
LINE
  8
_0-2_線色２__白__
  6
CONTINUOUS
 62
    7
 10
1030.3211051090409
 20
559.94608117523796
 11
1030.3662765308661
 21
560.16658957670927
  0
LINE
  8
_0-2_線色２__白__
  6
CONTINUOUS
 62
    7
 10
1030.2834408931756
 20
559.72274126498007
 11
1030.3211051090409
 21
559.94608117523796
  0
LINE
  8
_0-2_線色２__白__
  6
CONTINUOUS
 62
    7
 10
1030.2503741135149
 20
559.49766732996125
 11
1030.2834408931756
 21
559.72274126498007
  0
LINE
  8
_0-2_線色２__白__
  6
CONTINUOUS
 62
    7
 10
1030.2321553259924
 20
559.36676238327948
 11
1030.2503741135149
 21
559.49766732996125
  0
LINE
  8
_0-2_線色２__白__
  6
CONTINUOUS
 62
    7
 10
977.5352746766805
 20
557.81791117020532
 11
1024.3398729017883
 21
557.81791117020532
  0
LINE
  8
_0-2_線色２__白__
  6
CONTINUOUS
 62
    7
 10
1024.3398729017883
 20
557.81791117020532
 11
1028.3912214777445
 21
554.36676238327948
  0
ARC
  8
_0-2_線色２__白__
  6
CONTINUOUS
 62
    7
 10
985.53527467668232
 20
565.81791117020487
 40
8
 50
180
 51
270
  0
LINE
  8
_0-2_線色２__白__
  6
CONTINUOUS
 62
    7
 10
1028.3912214777445
 20
554.36676238327948
 11
1036.2292873929243
 21
554.36676238327948
  0
LINE
  8
_0-4_線色４__黄__
  6
CONTINUOUS
 62
    2
 10
1036.2292873929243
 20
559.36676238327948
 11
1036.2292873929243
 21
554.36676238327948
  0
LINE
  8
_0-4_線色４__黄__
  6
CONTINUOUS
 62
    2
 10
1036.2292873929243
 20
554.36676238327948
 11
1239.452544776675
 21
554.36676238327948
  0
LINE
  8
_0-2_線色２__白__
  6
CONTINUOUS
 62
    7
 10
979.0417948767174
 20
549.36676238327948
 11
1239.452544776675
 21
549.36676238327948
  0
LINE
  8
_0-2_線色２__白__
  6
CONTINUOUS
 62
    7
 10
979.47923819434777
 20
544.36676238327948
 11
1239.452544776675
 21
544.36676238327948
  0
LINE
  8
_0-4_線色４__黄__
  6
CONTINUOUS
 62
    2
 10
982.53527467668277
 20
565.81791117020487
 11
982.53527467668277
 21
877.14855545204443
  0
ARC
  8
_0-4_線色４__黄__
  6
CONTINUOUS
 62
    2
 10
985.53527467668232
 20
565.81791117020487
 40
3.0000000000000004
 50
180
 51
270
  0
LINE
  8
_0-d_断熱__ハッチ
  6
CONTINUOUS
 62
    4
 10
980.72039002290694
 20
544.36676238327948
 11
1014.5203900229046
 21
510.5667623832818
  0
LINE
  8
_0-d_断熱__ハッチ
  6
CONTINUOUS
 62
    4
 10
1235.2788312500616
 20
544.36676238327948
 11
1239.4525447766773
 21
540.19304885666372
  0
LINE
  8
_0-d_断熱__ハッチ
  6
CONTINUOUS
 62
    4
 10
1197.761649057835
 20
509.36676238328062
 11
1232.7616490578339
 21
544.36676238327948
  0
LINE
  8
_0-d_断熱__ハッチ
  6
CONTINUOUS
 62
    4
 10
1169.4773778103706
 20
509.36676238328289
 11
1204.4773778103672
 21
544.36676238327948
  0
LINE
  8
_0-d_断熱__ハッチ
  6
CONTINUOUS
 62
    4
 10
1142.3931065629108
 20
510.56676238327952
 11
1176.1931065629096
 21
544.36676238327948
  0
LINE
  8
_0-d_断熱__ハッチ
  6
CONTINUOUS
 62
    4
 10
1114.1088353154441
 20
510.56676238328066
 11
1147.908835315443
 21
544.36676238327948
  0
LINE
  8
_0-d_断熱__ハッチ
  6
CONTINUOUS
 62
    4
 10
1085.8245640679854
 20
510.56676238327952
 11
1119.6245640679854
 21
544.36676238327948
  0
LINE
  8
_0-d_断熱__ハッチ
  6
CONTINUOUS
 62
    4
 10
1057.5402928205199
 20
510.56676238328066
 11
1091.3402928205187
 21
544.36676238327948
  0
LINE
  8
_0-d_断熱__ハッチ
  6
CONTINUOUS
 62
    4
 10
1029.2560215730612
 20
510.56676238327952
 11
1063.0560215730611
 21
544.36676238327948
  0
LINE
  8
_0-d_断熱__ハッチ
  6
CONTINUOUS
 62
    4
 10
1000.9717503255968
 20
510.5667623832818
 11
1034.7717503255944
 21
544.36676238327948
  0
LINE
  8
_0-d_断熱__ハッチ
  6
CONTINUOUS
 62
    4
 10
977.5352746766805
 20
515.41455798182312
 11
1006.4874790781369
 21
544.36676238327948
  0
LINE
  8
_0-d_断熱__ハッチ
  6
CONTINUOUS
 62
    4
 10
1009.0046612703645
 20
544.36676238327948
 11
1042.8046612703645
 21
510.56676238327952
  0
LINE
  8
_0-d_断熱__ハッチ
  6
CONTINUOUS
 62
    4
 10
1037.2889325178312
 20
544.36676238327948
 11
1071.0889325178312
 21
510.56676238327952
  0
LINE
  8
_0-d_断熱__ハッチ
  6
CONTINUOUS
 62
    4
 10
1065.5732037652888
 20
544.36676238327948
 11
1099.3732037652887
 21
510.56676238327952
  0
LINE
  8
_0-d_断熱__ハッチ
  6
CONTINUOUS
 62
    4
 10
1093.8574750127509
 20
544.36676238327948
 11
1127.657475012752
 21
510.56676238327952
  0
LINE
  8
_0-d_断熱__ハッチ
  6
CONTINUOUS
 62
    4
 10
1122.141746260213
 20
544.36676238327948
 11
1155.9417462602141
 21
510.56676238327952
  0
LINE
  8
_0-d_断熱__ハッチ
  6
CONTINUOUS
 62
    4
 10
1150.4260175076706
 20
544.36676238327948
 11
1185.4260175076729
 21
509.36676238327721
  0
LINE
  8
_0-d_断熱__ハッチ
  6
CONTINUOUS
 62
    4
 10
1178.7102887551373
 20
544.36676238327948
 11
1213.7102887551384
 21
509.36676238327834
  0
LINE
  8
_0-d_断熱__ハッチ
  6
CONTINUOUS
 62
    4
 10
1206.9945600025949
 20
544.36676238327948
 11
1239.452544776675
 21
511.90877760919932
  0
LINE
  8
_0-a_文字
  6
CONTINUOUS
 62
    7
 10
1159.8693923669452
 20
629.36676238327948
 11
1179.8693923669452
 21
629.36676238327948
  0
TEXT
  8
_0-a_文字
 62
    7
 10
1184.8693923669452
 20
596.86676238327948
 40
15.000000000000014
 41
1.0000000000000022
 50
0
  1
ラジアルシートＬ６００
  0
LINE
  8
_0-a_文字
  6
CONTINUOUS
 62
    7
 10
1131.0018789074638
 20
579.36676238327948
 11
1179.8693923669452
 21
579.36676238327948
  0
LINE
  8
_0-a_文字
  6
CONTINUOUS
 62
    7
 10
1145.4356356372045
 20
604.36676238327948
 11
1179.8693923669452
 21
604.36676238327948
  0
TEXT
  8
_0-a_文字
 62
    7
 10
1184.8693923669452
 20
571.86676238327948
 40
15.00000000000008
 41
0.9999999999999943
 50
0
  1
断熱材
  0
TEXT
  8
_0-a_文字
 62
    7
 10
1116.8340507908147
 20
646.86676238327948
 40
14.999999999999947
 41
1.0000000000000049
 50
0
  1
プルーフシーラー
  0
LINE
  8
_0-a_文字
  6
CONTINUOUS
 62
    7
 10
1091.8340507908147
 20
654.36676238327948
 11
1111.8340507908147
 21
654.36676238327948
  0
LINE
  8
_0-a_文字
  6
CONTINUOUS
 62
    7
 10
1038.1222009589396
 20
561.33510950596303
 11
1091.8340507908147
 21
654.36676238327948
  0
TEXT
  8
_0-a_文字
 62
    7
 10
1037.535274676685
 20
771.86676238327948
 40
15.000000000000036
 41
0.9999999999999992
 50
0
  1
塩ビシート接着工法
  0
LINE
  8
_0-a_文字
  6
CONTINUOUS
 62
    7
 10
1012.535274676685
 20
779.36676238327948
 11
1032.535274676685
 21
779.36676238327948
  0
LINE
  8
_0-a_文字
  6
CONTINUOUS
 62
    7
 10
998.10151794694434
 20
754.36676238327948
 11
1032.535274676685
 21
754.36676238327948
  0
LINE
  8
_0-a_文字
  6
CONTINUOUS
 62
    7
 10
969.24521103576467
 20
704.38617269431631
 11
1012.535274676685
 21
779.36676238327948
  0
TEXT
  8
_0-a_文字
 62
    7
 10
1184.8693923669452
 20
621.86676238327834
 40
15.000000000000036
 41
0.9999999999999981
 50
0
  1
塩ビシート機械的固定工法
  0
LINE
  8
ADD_LINE
  6
DOT
 62
    4
 10
1001.5352746766814
 20
469.69854650825425
 11
1001.5352746766814
 21
559.31526625087088
  0
LINE
  8
_0-7_ビス
  6
CONTINUOUS
 62
    7
 10
1007.5352746766816
 20
552.43329578558985
 11
1007.5352746766816
 21
552.81791117020532
  0
LINE
  8
_0-7_ビス
  6
DASHED3
 62
    7
 10
1003.002742792936
 20
550.26854163937799
 11
1004.0852905128304
 21
552.81791117020532
  0
LINE
  8
_0-7_ビス
  6
CONTINUOUS
 62
    7
 10
995.53527467668118
 20
552.43329578558985
 11
995.53527467668118
 21
552.81791117020532
  0
LINE
  8
_0-7_ビス
  6
DASHED3
 62
    7
 10
1000.0678065604268
 20
550.26854163937799
 11
998.98525884053242
 21
552.81791117020532
  0
LINE
  8
_0-7_ビス
  6
CONTINUOUS
 62
    7
 10
1007.5352746766816
 20
552.43329578558985
 11
995.53527467668118
 21
552.43329578558985
  0
LINE
  8
_0-7_ビス
  6
CONTINUOUS
 62
    7
 10
1007.5352746766816
 20
552.81791117020532
 11
995.53527467668118
 21
552.81791117020532
  0
ARC
  8
_0-7_ビス
  6
DASHED3
 62
    7
 10
1001.5352746766814
 20
551.37908473764412
 40
1.8403175392666382
 50
217.11750793457031
 51
322.88247680664062
  0
LINE
  8
_0-7_ビス
  6
CONTINUOUS
 62
    7
 10
1005.6210611143081
 20
550.51908222321629
 11
1007.5352746766805
 21
552.43329578558985
  0
ARC
  8
_0-7_ビス
  6
CONTINUOUS
 62
    7
 10
1007.035274676681
 20
549.10486866084341
 40
2
 50
135.00000000000153
 51
180.00000000000003
  0
LINE
  8
_0-7_ビス
  6
CONTINUOUS
 62
    7
 10
997.44948823905474
 20
550.51908222321629
 11
995.53527467668118
 21
552.43329578558985
  0
ARC
  8
_0-7_ビス
  6
CONTINUOUS
 62
    7
 10
996.03527467668073
 20
549.10486866084341
 40
2
 50
0
 51
44.999999999998501
  0
LINE
  8
_0-7_ビス
  6
CONTINUOUS
 62
    7
 10
1005.0352746766805
 20
548.81791117020555
 11
998.03527467668118
 21
548.81791117020555
  0
LINE
  8
_0-7_ビス
  6
CONTINUOUS
 62
    7
 10
998.03527467668118
 20
479.83863711236779
 11
1001.5352746766814
 21
477.81791117020532
  0
LINE
  8
_0-7_ビス
  6
CONTINUOUS
 62
    7
 10
998.03527467668118
 20
549.10486866084341
 11
998.03527467668118
 21
479.83863711236779
  0
LINE
  8
_0-7_ビス
  6
CONTINUOUS
 62
    7
 10
1005.0352746766805
 20
483.31791117020487
 11
998.03527467668118
 21
483.31791117020487
  0
LINE
  8
_0-7_ビス
  6
CONTINUOUS
 62
    7
 10
1005.0352746766805
 20
479.83863711236893
 11
1001.5352746766814
 21
477.81791117020532
  0
LINE
  8
_0-7_ビス
  6
CONTINUOUS
 62
    7
 10
1005.0352746766805
 20
549.10486866084341
 11
1005.0352746766805
 21
479.83863711236893
  0
LINE
  8
_0-7_ビス
  6
CONTINUOUS
 62
    7
 10
1005.0352746766805
 20
537.81791117020532
 11
998.03527467668118
 21
537.81791117020532
  0
LINE
  8
_0-7_ビス
  6
CONTINUOUS
 62
    4
 10
998.03527467668118
 20
536.61810781081101
 11
1002.5128551186219
 21
537.81791117020532
  0
LINE
  8
_0-7_ビス
  6
CONTINUOUS
 62
    4
 10
998.03527467668118
 20
524.31188728143468
 11
1005.0352746766805
 21
526.18759306152299
  0
LINE
  8
_0-7_ビス
  6
CONTINUOUS
 62
    4
 10
998.03527467668118
 20
526.31188728143513
 11
1005.0352746766805
 21
528.18759306152231
  0
LINE
  8
_0-7_ビス
  6
CONTINUOUS
 62
    4
 10
998.03527467668118
 20
528.31188728143445
 11
1005.0352746766805
 21
530.18759306152276
  0
LINE
  8
_0-7_ビス
  6
CONTINUOUS
 62
    4
 10
998.03527467668118
 20
530.31188728143377
 11
1005.0352746766805
 21
532.18759306152322
  0
LINE
  8
_0-7_ビス
  6
CONTINUOUS
 62
    4
 10
998.03527467668118
 20
532.31188728143422
 11
1005.0352746766805
 21
534.18759306152253
  0
LINE
  8
_0-7_ビス
  6
CONTINUOUS
 62
    4
 10
998.03527467668118
 20
534.31188728143468
 11
1005.0352746766805
 21
536.18759306152299
  0
LINE
  8
_0-7_ビス
  6
CONTINUOUS
 62
    4
 10
998.03527467668118
 20
512.00566675205721
 11
1005.0352746766805
 21
513.88137253214552
  0
LINE
  8
_0-7_ビス
  6
CONTINUOUS
 62
    4
 10
998.03527467668118
 20
514.00566675205766
 11
1005.0352746766805
 21
515.88137253214597
  0
LINE
  8
_0-7_ビス
  6
CONTINUOUS
 62
    4
 10
998.03527467668118
 20
516.00566675205698
 11
1005.0352746766805
 21
517.88137253214643
  0
LINE
  8
_0-7_ビス
  6
CONTINUOUS
 62
    4
 10
998.03527467668118
 20
518.00566675205744
 11
1005.0352746766805
 21
519.88137253214575
  0
LINE
  8
_0-7_ビス
  6
CONTINUOUS
 62
    4
 10
998.03527467668118
 20
520.00566675205789
 11
1005.0352746766805
 21
521.8813725321462
  0
LINE
  8
_0-7_ビス
  6
CONTINUOUS
 62
    4
 10
998.03527467668118
 20
522.00566675205835
 11
1005.0352746766805
 21
523.88137253214666
  0
LINE
  8
_0-7_ビス
  6
CONTINUOUS
 62
    4
 10
998.03527467668118
 20
499.69944622267974
 11
1005.0352746766805
 21
501.57515200276919
  0
LINE
  8
_0-7_ビス
  6
CONTINUOUS
 62
    4
 10
998.03527467668118
 20
501.69944622268019
 11
1005.0352746766805
 21
503.57515200276964
  0
LINE
  8
_0-7_ビス
  6
CONTINUOUS
 62
    4
 10
998.03527467668118
 20
503.69944622268065
 11
1005.0352746766805
 21
505.57515200276896
  0
LINE
  8
_0-7_ビス
  6
CONTINUOUS
 62
    4
 10
998.03527467668118
 20
505.6994462226811
 11
1005.0352746766805
 21
507.57515200276941
  0
LINE
  8
_0-7_ビス
  6
CONTINUOUS
 62
    4
 10
998.03527467668118
 20
507.69944622268042
 11
1005.0352746766805
 21
509.57515200276873
  0
LINE
  8
_0-7_ビス
  6
CONTINUOUS
 62
    4
 10
998.03527467668118
 20
509.69944622268088
 11
1005.0352746766805
 21
511.57515200276919
  0
LINE
  8
_0-7_ビス
  6
CONTINUOUS
 62
    4
 10
998.03527467668118
 20
487.39322569330341
 11
1005.0352746766805
 21
489.26893147339285
  0
LINE
  8
_0-7_ビス
  6
CONTINUOUS
 62
    4
 10
998.03527467668118
 20
489.39322569330386
 11
1005.0352746766805
 21
491.26893147339217
  0
LINE
  8
_0-7_ビス
  6
CONTINUOUS
 62
    4
 10
998.03527467668118
 20
491.39322569330432
 11
1005.0352746766805
 21
493.26893147339149
  0
LINE
  8
_0-7_ビス
  6
CONTINUOUS
 62
    4
 10
998.03527467668118
 20
493.39322569330363
 11
1005.0352746766805
 21
495.26893147339194
  0
LINE
  8
_0-7_ビス
  6
CONTINUOUS
 62
    4
 10
998.03527467668118
 20
495.39322569330295
 11
1005.0352746766805
 21
497.2689314733924
  0
LINE
  8
_0-7_ビス
  6
CONTINUOUS
 62
    4
 10
998.03527467668118
 20
497.39322569330341
 11
1005.0352746766805
 21
499.26893147339285
  0
LINE
  8
_0-7_ビス
  6
CONTINUOUS
 62
    4
 10
998.03527467668118
 20
485.08700516392707
 11
1005.0352746766805
 21
486.96271094401652
  0
LINE
  8
_0-7_ビス
  6
CONTINUOUS
 62
    4
 10
998.89699939977277
 20
483.31791117020487
 11
1005.0352746766805
 21
484.96271094401607
  0
LINE
  8
_0-5_金属
  6
CONTINUOUS
 62
    7
 10
859.53527467667755
 20
563.66676238327898
 11
859.53527467667755
 21
385.06763162026971
  0
LINE
  8
_0-5_金属
  6
CONTINUOUS
 62
    7
 10
959.53527467667982
 20
563.66676238327898
 11
959.53527467667982
 21
385.06763162026971
  0
LINE
  8
_0-5_金属
  6
CONTINUOUS
 62
    7
 10
879.53527467667755
 20
559.36676238327834
 11
879.53527467667755
 21
385.06763162026971
  0
LINE
  8
_0-5_金属
  6
CONTINUOUS
 62
    7
 10
939.53527467667755
 20
559.36676238327834
 11
939.53527467667755
 21
385.06763162026971
  0
LINE
  8
_0-2_線色２__白__
  6
CONTINUOUS
 62
    7
 10
859.53527467667755
 20
385.06763162026971
 11
859.53527467667755
 21
909.36676238327834
  0
LINE
  8
_0-3_線色３__緑__
  6
CONTINUOUS
 62
    3
 10
824.53527467667755
 20
385.06763162026971
 11
824.53527467667755
 21
909.36676238327834
  0
LINE
  8
_0-d_断熱__ハッチ
  6
CONTINUOUS
 62
    4
 10
833.28527467667755
 20
907.36676238328016
 11
833.28527467667755
 21
385.06763162026971
  0
LINE
  8
_0-d_断熱__ハッチ
  6
CONTINUOUS
 62
    4
 10
850.78527467667755
 20
907.36676238328016
 11
850.78527467667755
 21
385.06763162026971
  0
LINE
  8
_0-d_断熱__ハッチ
  6
CONTINUOUS
 62
    4
 10
842.03527467667755
 20
907.36676238328016
 11
842.03527467667755
 21
385.06763162026971
  0
TEXT
  8
_0-a_文字
 62
    7
 10
1037.535274676685
 20
746.86676238327948
 40
14.999999999999858
 41
1.0000000000000095
 50
0
  1
硬質木片セメント板（別途工事）
  0
LINE
  8
_0-a_文字
  6
CONTINUOUS
 62
    7
 10
1100.6909897750097
 20
526.86676238327948
 11
1159.8693923669452
 21
629.36676238327948
  0
ARC
  8
_0-1_線色１__水色__
  6
CONTINUOUS
 62
    4
 10
1137.8872948169658
 20
547.82509572237814
 40
1.2083333333333581
 50
307.52351320333912
 51
232.47648680464988
  0
ARC
  8
_0-1_線色１__水色__
  6
CONTINUOUS
 62
    4
 10
1139.3592549614414
 20
545.90842905577858
 40
1.2083333333333177
 50
127.52351320610693
 51
52.47648680188081
  0
ARC
  8
_0-1_線色１__水色__
  6
CONTINUOUS
 62
    4
 10
1134.9433745282829
 20
547.82509572217293
 40
1.2083333333333581
 50
307.52351320333912
 51
232.47648680464988
  0
ARC
  8
_0-1_線色１__水色__
  6
CONTINUOUS
 62
    4
 10
1136.4153346727574
 20
545.90842905557338
 40
1.2083333333333177
 50
127.52351320610693
 51
52.47648680188081
  0
ARC
  8
_0-1_線色１__水色__
  6
CONTINUOUS
 62
    4
 10
1131.9994542395989
 20
547.82509572196773
 40
1.2083333333333581
 50
307.52351320333912
 51
232.47648680464988
  0
ARC
  8
_0-1_線色１__水色__
  6
CONTINUOUS
 62
    4
 10
1133.4714143840745
 20
545.90842905536817
 40
1.2083333333333177
 50
127.52351320610693
 51
52.47648680188081
  0
ARC
  8
_0-1_線色１__水色__
  6
CONTINUOUS
 62
    4
 10
1129.055533950916
 20
547.82509572176252
 40
1.2083333333333581
 50
307.52351320333912
 51
232.47648680464988
  0
ARC
  8
_0-1_線色１__水色__
  6
CONTINUOUS
 62
    4
 10
1130.5274940953916
 20
545.90842905516297
 40
1.2083333333333177
 50
127.52351320610693
 51
52.47648680188081
  0
ARC
  8
_0-1_線色１__水色__
  6
CONTINUOUS
 62
    4
 10
1164.3825774151162
 20
547.82509572237814
 40
1.2083333333333581
 50
307.52351320333912
 51
232.47648680464988
  0
ARC
  8
_0-1_線色１__水色__
  6
CONTINUOUS
 62
    4
 10
1165.8545375595918
 20
545.90842905577858
 40
1.2083333333333177
 50
127.52351320610693
 51
52.47648680188081
  0
ARC
  8
_0-1_線色１__水色__
  6
CONTINUOUS
 62
    4
 10
1161.4386571264326
 20
547.82509572217293
 40
1.2083333333333581
 50
307.52351320333912
 51
232.47648680464988
  0
ARC
  8
_0-1_線色１__水色__
  6
CONTINUOUS
 62
    4
 10
1162.9106172709078
 20
545.90842905557338
 40
1.2083333333333177
 50
127.52351320610693
 51
52.47648680188081
  0
ARC
  8
_0-1_線色１__水色__
  6
CONTINUOUS
 62
    4
 10
1158.4947368377493
 20
547.82509572196773
 40
1.2083333333333581
 50
307.52351320333912
 51
232.47648680464988
  0
ARC
  8
_0-1_線色１__水色__
  6
CONTINUOUS
 62
    4
 10
1159.9666969822249
 20
545.90842905536817
 40
1.2083333333333177
 50
127.52351320610693
 51
52.47648680188081
  0
ARC
  8
_0-1_線色１__水色__
  6
CONTINUOUS
 62
    4
 10
1155.5508165490664
 20
547.82509572176252
 40
1.2083333333333581
 50
307.52351320333912
 51
232.47648680464988
  0
ARC
  8
_0-1_線色１__水色__
  6
CONTINUOUS
 62
    4
 10
1157.0227766935413
 20
545.90842905516297
 40
1.2083333333333177
 50
127.52351320610693
 51
52.47648680188081
  0
ARC
  8
_0-1_線色１__水色__
  6
CONTINUOUS
 62
    4
 10
1152.6068962603824
 20
547.82509572155732
 40
1.2083333333333581
 50
307.52351320333912
 51
232.47648680464988
  0
ARC
  8
_0-1_線色１__水色__
  6
CONTINUOUS
 62
    4
 10
1154.078856404858
 20
545.90842905495776
 40
1.2083333333333177
 50
127.52351320610693
 51
52.47648680188081
  0
ARC
  8
_0-1_線色１__水色__
  6
CONTINUOUS
 62
    4
 10
1149.6629759716996
 20
547.82509572135211
 40
1.2083333333333581
 50
307.52351320333912
 51
232.47648680464988
  0
ARC
  8
_0-1_線色１__水色__
  6
CONTINUOUS
 62
    4
 10
1151.1349361161747
 20
545.90842905475256
 40
1.2083333333333177
 50
127.52351320610693
 51
52.47648680188081
  0
ARC
  8
_0-1_線色１__水色__
  6
CONTINUOUS
 62
    4
 10
1143.7751353943327
 20
547.8250957209417
 40
1.2083333333333581
 50
307.52351320333912
 51
232.47648680464988
  0
ARC
  8
_0-1_線色１__水色__
  6
CONTINUOUS
 62
    4
 10
1146.719055683016
 20
547.82509572114691
 40
1.2083333333333581
 50
307.52351320333912
 51
232.47648680464988
  0
ARC
  8
_0-1_線色１__水色__
  6
CONTINUOUS
 62
    4
 10
1145.2470955388083
 20
545.90842905434215
 40
1.2083333333333177
 50
127.52351320610693
 51
52.47648680188081
  0
ARC
  8
_0-1_線色１__水色__
  6
CONTINUOUS
 62
    4
 10
1148.1910158274911
 20
545.90842905454736
 40
1.2083333333333177
 50
127.52351320610693
 51
52.47648680188081
  0
ARC
  8
_0-1_線色１__水色__
  6
CONTINUOUS
 62
    4
 10
1142.3031752501242
 20
545.90842905413695
 40
1.2083333333333177
 50
127.52351320610693
 51
52.47648680188081
  0
ARC
  8
_0-1_線色１__水色__
  6
CONTINUOUS
 62
    4
 10
1140.8312151056493
 20
547.8250957207365
 40
1.2083333333333581
 50
307.52351320333912
 51
232.47648680464988
  0
ARC
  8
_0-1_線色１__水色__
  6
CONTINUOUS
 62
    4
 10
1182.0460991472157
 20
547.82509572237814
 40
1.2083333333333581
 50
307.52351320333912
 51
232.47648680464988
  0
ARC
  8
_0-1_線色１__水色__
  6
CONTINUOUS
 62
    4
 10
1183.5180592916913
 20
545.90842905577858
 40
1.2083333333333177
 50
127.52351320610693
 51
52.47648680188081
  0
ARC
  8
_0-1_線色１__水色__
  6
CONTINUOUS
 62
    4
 10
1179.1021788585329
 20
547.82509572217293
 40
1.2083333333333581
 50
307.52351320333912
 51
232.47648680464988
  0
ARC
  8
_0-1_線色１__水色__
  6
CONTINUOUS
 62
    4
 10
1180.5741390030084
 20
545.90842905557338
 40
1.2083333333333177
 50
127.52351320610693
 51
52.47648680188081
  0
ARC
  8
_0-1_線色１__水色__
  6
CONTINUOUS
 62
    4
 10
1176.15825856985
 20
547.82509572196773
 40
1.2083333333333581
 50
307.52351320333912
 51
232.47648680464988
  0
ARC
  8
_0-1_線色１__水色__
  6
CONTINUOUS
 62
    4
 10
1177.6302187143244
 20
545.90842905536817
 40
1.2083333333333177
 50
127.52351320610693
 51
52.47648680188081
  0
ARC
  8
_0-1_線色１__水色__
  6
CONTINUOUS
 62
    4
 10
1173.214338281166
 20
547.82509572176252
 40
1.2083333333333581
 50
307.52351320333912
 51
232.47648680464988
  0
ARC
  8
_0-1_線色１__水色__
  6
CONTINUOUS
 62
    4
 10
1174.6862984256416
 20
545.90842905516297
 40
1.2083333333333177
 50
127.52351320610693
 51
52.47648680188081
  0
ARC
  8
_0-1_線色１__水色__
  6
CONTINUOUS
 62
    4
 10
1170.2704179924831
 20
547.82509572155732
 40
1.2083333333333581
 50
307.52351320333912
 51
232.47648680464988
  0
ARC
  8
_0-1_線色１__水色__
  6
CONTINUOUS
 62
    4
 10
1171.7423781369575
 20
545.90842905495776
 40
1.2083333333333177
 50
127.52351320610693
 51
52.47648680188081
  0
ARC
  8
_0-1_線色１__水色__
  6
CONTINUOUS
 62
    4
 10
1167.3264977037991
 20
547.82509572135211
 40
1.2083333333333581
 50
307.52351320333912
 51
232.47648680464988
  0
ARC
  8
_0-1_線色１__水色__
  6
CONTINUOUS
 62
    4
 10
1168.7984578482747
 20
545.90842905475256
 40
1.2083333333333177
 50
127.52351320610693
 51
52.47648680188081
  0
ARC
  8
_0-1_線色１__水色__
  6
CONTINUOUS
 62
    4
 10
1208.5413817453662
 20
547.82509572237814
 40
1.2083333333333581
 50
307.52351320333912
 51
232.47648680464988
  0
ARC
  8
_0-1_線色１__水色__
  6
CONTINUOUS
 62
    4
 10
1210.0133418898417
 20
545.90842905577858
 40
1.2083333333333177
 50
127.52351320610693
 51
52.47648680188081
  0
ARC
  8
_0-1_線色１__水色__
  6
CONTINUOUS
 62
    4
 10
1205.5974614566833
 20
547.82509572217293
 40
1.2083333333333581
 50
307.52351320333912
 51
232.47648680464988
  0
ARC
  8
_0-1_線色１__水色__
  6
CONTINUOUS
 62
    4
 10
1207.0694216011577
 20
545.90842905557338
 40
1.2083333333333177
 50
127.52351320610693
 51
52.47648680188081
  0
ARC
  8
_0-1_線色１__水色__
  6
CONTINUOUS
 62
    4
 10
1202.6535411679993
 20
547.82509572196773
 40
1.2083333333333581
 50
307.52351320333912
 51
232.47648680464988
  0
ARC
  8
_0-1_線色１__水色__
  6
CONTINUOUS
 62
    4
 10
1204.1255013124749
 20
545.90842905536817
 40
1.2083333333333177
 50
127.52351320610693
 51
52.47648680188081
  0
ARC
  8
_0-1_線色１__水色__
  6
CONTINUOUS
 62
    4
 10
1199.7096208793164
 20
547.82509572176252
 40
1.2083333333333581
 50
307.52351320333912
 51
232.47648680464988
  0
ARC
  8
_0-1_線色１__水色__
  6
CONTINUOUS
 62
    4
 10
1201.181581023792
 20
545.90842905516297
 40
1.2083333333333177
 50
127.52351320610693
 51
52.47648680188081
  0
ARC
  8
_0-1_線色１__水色__
  6
CONTINUOUS
 62
    4
 10
1196.7657005906324
 20
547.82509572155732
 40
1.2083333333333581
 50
307.52351320333912
 51
232.47648680464988
  0
ARC
  8
_0-1_線色１__水色__
  6
CONTINUOUS
 62
    4
 10
1198.237660735108
 20
545.90842905495776
 40
1.2083333333333177
 50
127.52351320610693
 51
52.47648680188081
  0
ARC
  8
_0-1_線色１__水色__
  6
CONTINUOUS
 62
    4
 10
1193.8217803019495
 20
547.82509572135211
 40
1.2083333333333581
 50
307.52351320333912
 51
232.47648680464988
  0
ARC
  8
_0-1_線色１__水色__
  6
CONTINUOUS
 62
    4
 10
1195.2937404464251
 20
545.90842905475256
 40
1.2083333333333177
 50
127.52351320610693
 51
52.47648680188081
  0
ARC
  8
_0-1_線色１__水色__
  6
CONTINUOUS
 62
    4
 10
1187.9339397245826
 20
547.8250957209417
 40
1.2083333333333581
 50
307.52351320333912
 51
232.47648680464988
  0
ARC
  8
_0-1_線色１__水色__
  6
CONTINUOUS
 62
    4
 10
1190.8778600132666
 20
547.82509572114691
 40
1.2083333333333581
 50
307.52351320333912
 51
232.47648680464988
  0
ARC
  8
_0-1_線色１__水色__
  6
CONTINUOUS
 62
    4
 10
1189.4058998690582
 20
545.90842905434215
 40
1.2083333333333177
 50
127.52351320610693
 51
52.47648680188081
  0
ARC
  8
_0-1_線色１__水色__
  6
CONTINUOUS
 62
    4
 10
1192.3498201577411
 20
545.90842905454736
 40
1.2083333333333177
 50
127.52351320610693
 51
52.47648680188081
  0
ARC
  8
_0-1_線色１__水色__
  6
CONTINUOUS
 62
    4
 10
1186.4619795803746
 20
545.90842905413695
 40
1.2083333333333177
 50
127.52351320610693
 51
52.47648680188081
  0
ARC
  8
_0-1_線色１__水色__
  6
CONTINUOUS
 62
    4
 10
1184.9900194358997
 20
547.8250957207365
 40
1.2083333333333581
 50
307.52351320333912
 51
232.47648680464988
  0
ARC
  8
_0-1_線色１__水色__
  6
CONTINUOUS
 62
    4
 10
1235.0366643435166
 20
547.82509572237814
 40
1.2083333333333581
 50
307.52351320333912
 51
232.47648680464988
  0
ARC
  8
_0-1_線色１__水色__
  6
CONTINUOUS
 62
    4
 10
1236.5086244879922
 20
545.90842905577858
 40
1.2083333333333177
 50
127.52351320610693
 51
52.47648680188081
  0
ARC
  8
_0-1_線色１__水色__
  6
CONTINUOUS
 62
    4
 10
1232.092744054833
 20
547.82509572217293
 40
1.2083333333333581
 50
307.52351320333912
 51
232.47648680464988
  0
ARC
  8
_0-1_線色１__水色__
  6
CONTINUOUS
 62
    4
 10
1233.5647041993082
 20
545.90842905557338
 40
1.2083333333333177
 50
127.52351320610693
 51
52.47648680188081
  0
ARC
  8
_0-1_線色１__水色__
  6
CONTINUOUS
 62
    4
 10
1229.1488237661497
 20
547.82509572196773
 40
1.2083333333333581
 50
307.52351320333912
 51
232.47648680464988
  0
ARC
  8
_0-1_線色１__水色__
  6
CONTINUOUS
 62
    4
 10
1230.6207839106253
 20
545.90842905536817
 40
1.2083333333333177
 50
127.52351320610693
 51
52.47648680188081
  0
ARC
  8
_0-1_線色１__水色__
  6
CONTINUOUS
 62
    4
 10
1226.2049034774668
 20
547.82509572176252
 40
1.2083333333333581
 50
307.52351320333912
 51
232.47648680464988
  0
ARC
  8
_0-1_線色１__水色__
  6
CONTINUOUS
 62
    4
 10
1227.6768636219417
 20
545.90842905516297
 40
1.2083333333333177
 50
127.52351320610693
 51
52.47648680188081
  0
ARC
  8
_0-1_線色１__水色__
  6
CONTINUOUS
 62
    4
 10
1223.2609831887828
 20
547.82509572155732
 40
1.2083333333333581
 50
307.52351320333912
 51
232.47648680464988
  0
ARC
  8
_0-1_線色１__水色__
  6
CONTINUOUS
 62
    4
 10
1224.7329433332584
 20
545.90842905495776
 40
1.2083333333333177
 50
127.52351320610693
 51
52.47648680188081
  0
ARC
  8
_0-1_線色１__水色__
  6
CONTINUOUS
 62
    4
 10
1220.3170629000999
 20
547.82509572135211
 40
1.2083333333333581
 50
307.52351320333912
 51
232.47648680464988
  0
ARC
  8
_0-1_線色１__水色__
  6
CONTINUOUS
 62
    4
 10
1221.7890230445751
 20
545.90842905475256
 40
1.2083333333333177
 50
127.52351320610693
 51
52.47648680188081
  0
ARC
  8
_0-1_線色１__水色__
  6
CONTINUOUS
 62
    4
 10
1214.429222322733
 20
547.8250957209417
 40
1.2083333333333581
 50
307.52351320333912
 51
232.47648680464988
  0
ARC
  8
_0-1_線色１__水色__
  6
CONTINUOUS
 62
    4
 10
1217.3731426114164
 20
547.82509572114691
 40
1.2083333333333581
 50
307.52351320333912
 51
232.47648680464988
  0
ARC
  8
_0-1_線色１__水色__
  6
CONTINUOUS
 62
    4
 10
1215.9011824672086
 20
545.90842905434215
 40
1.2083333333333177
 50
127.52351320610693
 51
52.47648680188081
  0
ARC
  8
_0-1_線色１__水色__
  6
CONTINUOUS
 62
    4
 10
1218.8451027558915
 20
545.90842905454736
 40
1.2083333333333177
 50
127.52351320610693
 51
52.47648680188081
  0
ARC
  8
_0-1_線色１__水色__
  6
CONTINUOUS
 62
    4
 10
1212.9572621785246
 20
545.90842905413695
 40
1.2083333333333177
 50
127.52351320610693
 51
52.47648680188081
  0
ARC
  8
_0-1_線色１__水色__
  6
CONTINUOUS
 62
    4
 10
1211.4853020340497
 20
547.8250957207365
 40
1.2083333333333581
 50
307.52351320333912
 51
232.47648680464988
  0
ARC
  8
_0-1_線色１__水色__
  6
CONTINUOUS
 62
    4
 10
1237.9805846321995
 20
547.82509572196773
 40
1.2083333333333581
 50
307.52351320333912
 51
232.47648680464988
  0
ARC
  8
_0-1_線色１__水色__
  6
CONTINUOUS
 62
    4
 10
1239.452544776675
 20
545.90842905536817
 40
1.2083333333333177
 50
127.5235132061069
 51
270
  0
ARC
  8
_0-1_線色１__水色__
  6
CONTINUOUS
 62
    4
 10
1108.4480919301552
 20
547.82509572215531
 40
1.2083333333333581
 50
307.52351320333912
 51
232.47648680464988
  0
ARC
  8
_0-1_線色１__水色__
  6
CONTINUOUS
 62
    4
 10
1109.9200520746303
 20
545.90842905555576
 40
1.2083333333333177
 50
127.52351320610693
 51
52.47648680188081
  0
ARC
  8
_0-1_線色１__水色__
  6
CONTINUOUS
 62
    4
 10
1105.5041716414717
 20
547.82509572195011
 40
1.2083333333333581
 50
307.52351320333912
 51
232.47648680464988
  0
ARC
  8
_0-1_線色１__水色__
  6
CONTINUOUS
 62
    4
 10
1106.9761317859468
 20
545.90842905535055
 40
1.2083333333333177
 50
127.52351320610693
 51
52.47648680188081
  0
ARC
  8
_0-1_線色１__水色__
  6
CONTINUOUS
 62
    4
 10
1102.5602513527883
 20
547.8250957217449
 40
1.2083333333333581
 50
307.52351320333912
 51
232.47648680464988
  0
ARC
  8
_0-1_線色１__水色__
  6
CONTINUOUS
 62
    4
 10
1104.0322114972639
 20
545.90842905514535
 40
1.2083333333333177
 50
127.52351320610693
 51
52.47648680188081
  0
ARC
  8
_0-1_線色１__水色__
  6
CONTINUOUS
 62
    4
 10
1099.616331064105
 20
547.8250957215397
 40
1.2083333333333581
 50
307.52351320333912
 51
232.47648680464988
  0
ARC
  8
_0-1_線色１__水色__
  6
CONTINUOUS
 62
    4
 10
1101.0882912085804
 20
545.90842905494014
 40
1.2083333333333177
 50
127.52351320610693
 51
52.47648680188081
  0
ARC
  8
_0-1_線色１__水色__
  6
CONTINUOUS
 62
    4
 10
1126.1116136622554
 20
547.8250957215397
 40
1.2083333333333581
 50
307.52351320333912
 51
232.47648680464988
  0
ARC
  8
_0-1_線色１__水色__
  6
CONTINUOUS
 62
    4
 10
1127.5835738067308
 20
545.90842905494014
 40
1.2083333333333177
 50
127.52351320610693
 51
52.47648680188081
  0
ARC
  8
_0-1_線色１__水色__
  6
CONTINUOUS
 62
    4
 10
1123.1676933735719
 20
547.82509572133449
 40
1.2083333333333581
 50
307.52351320333912
 51
232.47648680464988
  0
ARC
  8
_0-1_線色１__水色__
  6
CONTINUOUS
 62
    4
 10
1124.6396535180475
 20
545.90842905473494
 40
1.2083333333333177
 50
127.52351320610693
 51
52.47648680188081
  0
ARC
  8
_0-1_線色１__水色__
  6
CONTINUOUS
 62
    4
 10
1120.2237730848883
 20
547.82509572112929
 40
1.2083333333333581
 50
307.52351320333912
 51
232.47648680464988
  0
ARC
  8
_0-1_線色１__水色__
  6
CONTINUOUS
 62
    4
 10
1121.6957332293641
 20
545.90842905452973
 40
1.2083333333333177
 50
127.52351320610693
 51
52.47648680188081
  0
ARC
  8
_0-1_線色１__水色__
  6
CONTINUOUS
 62
    4
 10
1114.3359325075221
 20
547.82509572071888
 40
1.2083333333333581
 50
307.52351320333912
 51
232.47648680464988
  0
ARC
  8
_0-1_線色１__水色__
  6
CONTINUOUS
 62
    4
 10
1117.2798527962054
 20
547.82509572092408
 40
1.2083333333333581
 50
307.52351320333912
 51
232.47648680464988
  0
ARC
  8
_0-1_線色１__水色__
  6
CONTINUOUS
 62
    4
 10
1115.807892651997
 20
545.90842905411932
 40
1.2083333333333177
 50
127.52351320610693
 51
52.47648680188081
  0
ARC
  8
_0-1_線色１__水色__
  6
CONTINUOUS
 62
    4
 10
1118.7518129406806
 20
545.90842905432453
 40
1.2083333333333177
 50
127.52351320610693
 51
52.47648680188081
  0
ARC
  8
_0-1_線色１__水色__
  6
CONTINUOUS
 62
    4
 10
1112.8639723633137
 20
545.90842905391412
 40
1.2083333333333177
 50
127.52351320610693
 51
52.47648680188081
  0
ARC
  8
_0-1_線色１__水色__
  6
CONTINUOUS
 62
    4
 10
1111.3920122188388
 20
547.82509572051367
 40
1.2083333333333581
 50
307.52351320333912
 51
232.47648680464988
  0
ARC
  8
_0-1_線色１__水色__
  6
CONTINUOUS
 62
    4
 10
1079.0088890433447
 20
547.82509572193192
 40
1.2083333333333581
 50
307.52351320333912
 51
232.47648680464988
  0
ARC
  8
_0-1_線色１__水色__
  6
CONTINUOUS
 62
    4
 10
1080.4808491878198
 20
545.90842905533236
 40
1.2083333333333177
 50
127.52351320610693
 51
52.47648680188081
  0
ARC
  8
_0-1_線色１__水色__
  6
CONTINUOUS
 62
    4
 10
1076.0649687546611
 20
547.82509572172671
 40
1.2083333333333581
 50
307.52351320333912
 51
232.47648680464988
  0
ARC
  8
_0-1_線色１__水色__
  6
CONTINUOUS
 62
    4
 10
1077.5369288991362
 20
545.90842905512716
 40
1.2083333333333177
 50
127.52351320610693
 51
52.47648680188081
  0
ARC
  8
_0-1_線色１__水色__
  6
CONTINUOUS
 62
    4
 10
1073.1210484659778
 20
547.82509572152151
 40
1.2083333333333581
 50
307.52351320333912
 51
232.47648680464988
  0
ARC
  8
_0-1_線色１__水色__
  6
CONTINUOUS
 62
    4
 10
1074.5930086104534
 20
545.90842905492195
 40
1.2083333333333177
 50
127.52351320610693
 51
52.47648680188081
  0
ARC
  8
_0-1_線色１__水色__
  6
CONTINUOUS
 62
    4
 10
1070.1771281772944
 20
547.8250957213163
 40
1.2083333333333581
 50
307.52351320333912
 51
232.47648680464988
  0
ARC
  8
_0-1_線色１__水色__
  6
CONTINUOUS
 62
    4
 10
1071.6490883217698
 20
545.90842905471675
 40
1.2083333333333177
 50
127.52351320610693
 51
52.47648680188081
  0
ARC
  8
_0-1_線色１__水色__
  6
CONTINUOUS
 62
    4
 10
1096.6724107754449
 20
547.8250957213163
 40
1.2083333333333581
 50
307.52351320333912
 51
232.47648680464988
  0
ARC
  8
_0-1_線色１__水色__
  6
CONTINUOUS
 62
    4
 10
1098.1443709199198
 20
545.90842905471675
 40
1.2083333333333177
 50
127.52351320610693
 51
52.47648680188081
  0
ARC
  8
_0-1_線色１__水色__
  6
CONTINUOUS
 62
    4
 10
1093.7284904867613
 20
547.8250957211111
 40
1.2083333333333581
 50
307.52351320333912
 51
232.47648680464988
  0
ARC
  8
_0-1_線色１__水色__
  6
CONTINUOUS
 62
    4
 10
1095.2004506312369
 20
545.90842905451154
 40
1.2083333333333177
 50
127.52351320610693
 51
52.47648680188081
  0
ARC
  8
_0-1_線色１__水色__
  6
CONTINUOUS
 62
    4
 10
1090.7845701980777
 20
547.82509572090589
 40
1.2083333333333581
 50
307.52351320333912
 51
232.47648680464988
  0
ARC
  8
_0-1_線色１__水色__
  6
CONTINUOUS
 62
    4
 10
1092.2565303425529
 20
545.90842905430634
 40
1.2083333333333177
 50
127.52351320610693
 51
52.47648680188081
  0
ARC
  8
_0-1_線色１__水色__
  6
CONTINUOUS
 62
    4
 10
1084.8967296207115
 20
547.82509572049548
 40
1.2083333333333581
 50
307.52351320333912
 51
232.47648680464988
  0
ARC
  8
_0-1_線色１__水色__
  6
CONTINUOUS
 62
    4
 10
1087.8406499093944
 20
547.82509572070069
 40
1.2083333333333581
 50
307.52351320333912
 51
232.47648680464988
  0
ARC
  8
_0-1_線色１__水色__
  6
CONTINUOUS
 62
    4
 10
1086.3686897651864
 20
545.90842905389593
 40
1.2083333333333177
 50
127.52351320610693
 51
52.47648680188081
  0
ARC
  8
_0-1_線色１__水色__
  6
CONTINUOUS
 62
    4
 10
1089.31261005387
 20
545.90842905410113
 40
1.2083333333333177
 50
127.52351320610693
 51
52.47648680188081
  0
ARC
  8
_0-1_線色１__水色__
  6
CONTINUOUS
 62
    4
 10
1083.4247694765031
 20
545.90842905369072
 40
1.2083333333333177
 50
127.52351320610693
 51
52.47648680188081
  0
ARC
  8
_0-1_線色１__水色__
  6
CONTINUOUS
 62
    4
 10
1081.9528093320275
 20
547.82509572029028
 40
1.2083333333333581
 50
307.52351320333912
 51
232.47648680464988
  0
ARC
  8
_0-1_線色１__水色__
  6
CONTINUOUS
 62
    4
 10
1049.5696861565334
 20
547.82509572170909
 40
1.2083333333333581
 50
307.52351320333912
 51
232.47648680464988
  0
ARC
  8
_0-1_線色１__水色__
  6
CONTINUOUS
 62
    4
 10
1051.0416463010092
 20
545.90842905510954
 40
1.2083333333333177
 50
127.52351320610693
 51
52.47648680188081
  0
ARC
  8
_0-1_線色１__水色__
  6
CONTINUOUS
 62
    4
 10
1046.6257658678505
 20
547.82509572150389
 40
1.2083333333333581
 50
307.52351320333912
 51
232.47648680464988
  0
ARC
  8
_0-1_線色１__水色__
  6
CONTINUOUS
 62
    4
 10
1048.0977260123257
 20
545.90842905490433
 40
1.2083333333333177
 50
127.52351320610693
 51
52.47648680188081
  0
ARC
  8
_0-1_線色１__水色__
  6
CONTINUOUS
 62
    4
 10
1043.6818455791672
 20
547.82509572129868
 40
1.2083333333333581
 50
307.52351320333912
 51
232.47648680464988
  0
ARC
  8
_0-1_線色１__水色__
  6
CONTINUOUS
 62
    4
 10
1045.1538057236421
 20
545.90842905469913
 40
1.2083333333333177
 50
127.52351320610693
 51
52.47648680188081
  0
ARC
  8
_0-1_線色１__水色__
  6
CONTINUOUS
 62
    4
 10
1040.7379252904839
 20
547.82509572109348
 40
1.2083333333333581
 50
307.52351320333912
 51
232.47648680464988
  0
ARC
  8
_0-1_線色１__水色__
  6
CONTINUOUS
 62
    4
 10
1042.2098854349592
 20
545.90842905449392
 40
1.2083333333333177
 50
127.52351320610693
 51
52.47648680188081
  0
ARC
  8
_0-1_線色１__水色__
  6
CONTINUOUS
 62
    4
 10
1067.2332078886343
 20
547.82509572109348
 40
1.2083333333333581
 50
307.52351320333912
 51
232.47648680464988
  0
ARC
  8
_0-1_線色１__水色__
  6
CONTINUOUS
 62
    4
 10
1068.7051680331092
 20
545.90842905449392
 40
1.2083333333333177
 50
127.52351320610693
 51
52.47648680188081
  0
ARC
  8
_0-1_線色１__水色__
  6
CONTINUOUS
 62
    4
 10
1064.2892875999507
 20
547.82509572088827
 40
1.2083333333333581
 50
307.52351320333912
 51
232.47648680464988
  0
ARC
  8
_0-1_線色１__水色__
  6
CONTINUOUS
 62
    4
 10
1065.7612477444259
 20
545.90842905428872
 40
1.2083333333333177
 50
127.52351320610693
 51
52.47648680188081
  0
ARC
  8
_0-1_線色１__水色__
  6
CONTINUOUS
 62
    4
 10
1061.3453673112672
 20
547.82509572068307
 40
1.2083333333333581
 50
307.52351320333912
 51
232.47648680464988
  0
ARC
  8
_0-1_線色１__水色__
  6
CONTINUOUS
 62
    4
 10
1062.8173274557423
 20
545.90842905408351
 40
1.2083333333333177
 50
127.52351320610693
 51
52.47648680188081
  0
ARC
  8
_0-1_線色１__水色__
  6
CONTINUOUS
 62
    4
 10
1055.4575267339005
 20
547.82509572027266
 40
1.2083333333333581
 50
307.52351320333912
 51
232.47648680464988
  0
ARC
  8
_0-1_線色１__水色__
  6
CONTINUOUS
 62
    4
 10
1058.4014470225839
 20
547.82509572047786
 40
1.2083333333333581
 50
307.52351320333912
 51
232.47648680464988
  0
ARC
  8
_0-1_線色１__水色__
  6
CONTINUOUS
 62
    4
 10
1056.9294868783759
 20
545.9084290536731
 40
1.2083333333333177
 50
127.52351320610693
 51
52.47648680188081
  0
ARC
  8
_0-1_線色１__水色__
  6
CONTINUOUS
 62
    4
 10
1059.8734071670594
 20
545.90842905387831
 40
1.2083333333333177
 50
127.52351320610693
 51
52.47648680188081
  0
ARC
  8
_0-1_線色１__水色__
  6
CONTINUOUS
 62
    4
 10
1053.9855665896926
 20
545.9084290534679
 40
1.2083333333333177
 50
127.52351320610693
 51
52.47648680188081
  0
ARC
  8
_0-1_線色１__水色__
  6
CONTINUOUS
 62
    4
 10
1052.513606445217
 20
547.82509572006745
 40
1.2083333333333581
 50
307.52351320333912
 51
232.47648680464988
  0
ARC
  8
_0-1_線色１__水色__
  6
CONTINUOUS
 62
    4
 10
1020.130483269723
 20
547.8250957214857
 40
1.2083333333333581
 50
307.52351320333912
 51
232.47648680464988
  0
ARC
  8
_0-1_線色１__水色__
  6
CONTINUOUS
 62
    4
 10
1021.602443414198
 20
545.90842905488614
 40
1.2083333333333177
 50
127.52351320610693
 51
52.47648680188081
  0
ARC
  8
_0-1_線色１__水色__
  6
CONTINUOUS
 62
    4
 10
1017.1865629810395
 20
547.82509572128049
 40
1.2083333333333581
 50
307.52351320333912
 51
232.47648680464988
  0
ARC
  8
_0-1_線色１__水色__
  6
CONTINUOUS
 62
    4
 10
1018.6585231255151
 20
545.90842905468094
 40
1.2083333333333177
 50
127.52351320610693
 51
52.47648680188081
  0
ARC
  8
_0-1_線色１__水色__
  6
CONTINUOUS
 62
    4
 10
1014.2426426923566
 20
547.82509572107529
 40
1.2083333333333581
 50
307.52351320333912
 51
232.47648680464988
  0
ARC
  8
_0-1_線色１__水色__
  6
CONTINUOUS
 62
    4
 10
1015.7146028368317
 20
545.90842905447573
 40
1.2083333333333177
 50
127.52351320610693
 51
52.47648680188081
  0
ARC
  8
_0-1_線色１__水色__
  6
CONTINUOUS
 62
    4
 10
1011.2987224036726
 20
547.82509572087008
 40
1.2083333333333581
 50
307.52351320333912
 51
232.47648680464988
  0
ARC
  8
_0-1_線色１__水色__
  6
CONTINUOUS
 62
    4
 10
1012.7706825481482
 20
545.90842905427053
 40
1.2083333333333177
 50
127.52351320610693
 51
52.47648680188081
  0
ARC
  8
_0-1_線色１__水色__
  6
CONTINUOUS
 62
    4
 10
1037.7940050018231
 20
547.82509572087008
 40
1.2083333333333581
 50
307.52351320333912
 51
232.47648680464988
  0
ARC
  8
_0-1_線色１__水色__
  6
CONTINUOUS
 62
    4
 10
1039.2659651462986
 20
545.90842905427053
 40
1.2083333333333177
 50
127.52351320610693
 51
52.47648680188081
  0
ARC
  8
_0-1_線色１__水色__
  6
CONTINUOUS
 62
    4
 10
1034.8500847131402
 20
547.82509572066488
 40
1.2083333333333581
 50
307.52351320333912
 51
232.47648680464988
  0
ARC
  8
_0-1_線色１__水色__
  6
CONTINUOUS
 62
    4
 10
1036.3220448576153
 20
545.90842905406532
 40
1.2083333333333177
 50
127.52351320610693
 51
52.47648680188081
  0
ARC
  8
_0-1_線色１__水色__
  6
CONTINUOUS
 62
    4
 10
1031.9061644244562
 20
547.82509572045967
 40
1.2083333333333581
 50
307.52351320333912
 51
232.47648680464988
  0
ARC
  8
_0-1_線色１__水色__
  6
CONTINUOUS
 62
    4
 10
1033.3781245689318
 20
545.90842905386012
 40
1.2083333333333177
 50
127.52351320610693
 51
52.47648680188081
  0
ARC
  8
_0-1_線色１__水色__
  6
CONTINUOUS
 62
    4
 10
1026.01832384709
 20
547.82509572004926
 40
1.2083333333333581
 50
307.52351320333912
 51
232.47648680464988
  0
ARC
  8
_0-1_線色１__水色__
  6
CONTINUOUS
 62
    4
 10
1028.9622441357733
 20
547.82509572025447
 40
1.2083333333333581
 50
307.52351320333912
 51
232.47648680464988
  0
ARC
  8
_0-1_線色１__水色__
  6
CONTINUOUS
 62
    4
 10
1027.4902839915649
 20
545.90842905344971
 40
1.2083333333333177
 50
127.52351320610693
 51
52.47648680188081
  0
ARC
  8
_0-1_線色１__水色__
  6
CONTINUOUS
 62
    4
 10
1030.4342042802489
 20
545.90842905365491
 40
1.2083333333333177
 50
127.52351320610693
 51
52.47648680188081
  0
ARC
  8
_0-1_線色１__水色__
  6
CONTINUOUS
 62
    4
 10
1024.546363702882
 20
545.9084290532445
 40
1.2083333333333177
 50
127.52351320610693
 51
52.47648680188081
  0
ARC
  8
_0-1_線色１__水色__
  6
CONTINUOUS
 62
    4
 10
1023.0744035584064
 20
547.82509571984406
 40
1.2083333333333581
 50
307.52351320333912
 51
232.47648680464988
  0
ARC
  8
_0-1_線色１__水色__
  6
CONTINUOUS
 62
    4
 10
990.6912803829124
 20
547.82509572126287
 40
1.2083333333333581
 50
307.52351320333912
 51
232.47648680464988
  0
ARC
  8
_0-1_線色１__水色__
  6
CONTINUOUS
 62
    4
 10
992.16324052738742
 20
545.90842905466332
 40
1.2083333333333177
 50
127.52351320610693
 51
52.47648680188081
  0
ARC
  8
_0-1_線色１__水色__
  6
CONTINUOUS
 62
    4
 10
987.74736009422895
 20
547.82509572105766
 40
1.2083333333333581
 50
307.52351320333912
 51
232.47648680464988
  0
ARC
  8
_0-1_線色１__水色__
  6
CONTINUOUS
 62
    4
 10
989.21932023870397
 20
545.90842905445811
 40
1.2083333333333177
 50
127.52351320610693
 51
52.47648680188081
  0
ARC
  8
_0-1_線色１__水色__
  6
CONTINUOUS
 62
    4
 10
984.80343980554551
 20
547.82509572085246
 40
1.2083333333333581
 50
307.52351320333912
 51
232.47648680464988
  0
ARC
  8
_0-1_線色１__水色__
  6
CONTINUOUS
 62
    4
 10
986.2753999500211
 20
545.90842905425291
 40
1.2083333333333177
 50
127.52351320610693
 51
52.47648680188081
  0
ARC
  8
_0-1_線色１__水色__
  6
CONTINUOUS
 62
    4
 10
981.85951951686206
 20
547.82509572064725
 40
1.2083333333333581
 50
307.52351320333912
 51
232.47648680464988
  0
ARC
  8
_0-1_線色１__水色__
  6
CONTINUOUS
 62
    4
 10
983.33147966133765
 20
545.9084290540477
 40
1.2083333333333177
 50
127.52351320610693
 51
52.47648680188081
  0
ARC
  8
_0-1_線色１__水色__
  6
CONTINUOUS
 62
    4
 10
1008.3548021150125
 20
547.82509572064725
 40
1.2083333333333581
 50
307.52351320333912
 51
232.47648680464988
  0
ARC
  8
_0-1_線色１__水色__
  6
CONTINUOUS
 62
    4
 10
1009.8267622594881
 20
545.9084290540477
 40
1.2083333333333177
 50
127.52351320610693
 51
52.47648680188081
  0
ARC
  8
_0-1_線色１__水色__
  6
CONTINUOUS
 62
    4
 10
1005.410881826329
 20
547.82509572044205
 40
1.2083333333333581
 50
307.52351320333912
 51
232.47648680464988
  0
ARC
  8
_0-1_線色１__水色__
  6
CONTINUOUS
 62
    4
 10
1006.8828419708046
 20
545.9084290538425
 40
1.2083333333333177
 50
127.52351320610693
 51
52.47648680188081
  0
ARC
  8
_0-1_線色１__水色__
  6
CONTINUOUS
 62
    4
 10
1002.4669615376456
 20
547.82509572023685
 40
1.2083333333333581
 50
307.52351320333912
 51
232.47648680464988
  0
ARC
  8
_0-1_線色１__水色__
  6
CONTINUOUS
 62
    4
 10
1003.9389216821212
 20
545.90842905363729
 40
1.2083333333333177
 50
127.52351320610693
 51
52.47648680188081
  0
ARC
  8
_0-1_線色１__水色__
  6
CONTINUOUS
 62
    4
 10
996.57912096027928
 20
547.82509571982644
 40
1.2083333333333581
 50
307.52351320333912
 51
232.47648680464988
  0
ARC
  8
_0-1_線色１__水色__
  6
CONTINUOUS
 62
    4
 10
999.52304124896273
 20
547.82509572003164
 40
1.2083333333333581
 50
307.52351320333912
 51
232.47648680464988
  0
ARC
  8
_0-1_線色１__水色__
  6
CONTINUOUS
 62
    4
 10
998.0510811047543
 20
545.90842905322688
 40
1.2083333333333177
 50
127.52351320610693
 51
52.47648680188081
  0
ARC
  8
_0-1_線色１__水色__
  6
CONTINUOUS
 62
    4
 10
1000.9950013934377
 20
545.90842905343209
 40
1.2083333333333177
 50
127.52351320610693
 51
52.47648680188081
  0
ARC
  8
_0-1_線色１__水色__
  6
CONTINUOUS
 62
    4
 10
995.10716081607086
 20
545.90842905302168
 40
1.2083333333333177
 50
127.52351320610693
 51
52.47648680188081
  0
ARC
  8
_0-1_線色１__水色__
  6
CONTINUOUS
 62
    4
 10
993.63520067159584
 20
547.82509571962123
 40
1.2083333333333581
 50
307.52351320333912
 51
232.47648680464988
  0
ARC
  8
_0-1_線色１__水色__
  6
CONTINUOUS
 62
    4
 10
978.91559922820193
 20
547.82509572042386
 40
1.2083333333333581
 50
307.52351320333912
 51
82.570446798685794
  0
ARC
  8
_0-1_線色１__水色__
  6
CONTINUOUS
 62
    4
 10
980.38755937267752
 20
545.90842905382431
 40
1.2083333333333177
 50
127.52351320610693
 51
154.32245408297459
  0
ARC
  8
_0-1_線色１__水色__
  6
CONTINUOUS
 62
    4
 10
980.38755937267752
 20
545.90842905382431
 40
1.2083333333333177
 50
215.67754591704434
 51
52.47648680188081
  0
LINE
  8
_0-5_金属
  6
CONTINUOUS
 62
    7
 10
1045.5352746766794
 20
450.36676138501036
 11
1109.5352746766798
 21
450.36676138501036
  0
LINE
  8
_0-5_金属
  6
CONTINUOUS
 62
    7
 10
1109.5352746766798
 20
450.36676138501036
 11
1109.5352746766798
 21
459.36676138501014
  0
LINE
  8
_0-5_金属
  6
CONTINUOUS
 62
    7
 10
959.53527467667982
 20
450.36676138501036
 11
1023.5352746766796
 21
450.36676138501036
  0
ARC
  8
_0-5_金属
  6
CONTINUOUS
 62
    7
 10
1023.5352746766796
 20
442.36676138501025
 40
8
 50
0
 51
90
  0
ARC
  8
_0-5_金属
  6
CONTINUOUS
 62
    7
 10
1045.5352746766794
 20
442.36676138501025
 40
8
 50
90
 51
180
  0
LINE
  8
_0-5_金属
  6
CONTINUOUS
 62
    7
 10
1031.5352746766798
 20
442.36676138501025
 11
1031.5352746766798
 21
385.06763162026971
  0
LINE
  8
_0-5_金属
  6
CONTINUOUS
 62
    7
 10
1037.5352746766798
 20
385.06763162026971
 11
1037.5352746766798
 21
442.36676138501025
  0
LINE
  8
_0-a_文字
  6
CONTINUOUS
 62
    7
 10
1025.2761636593004
 20
509.36676238327948
 11
1094.5581965384058
 21
389.36676138501014
  0
LINE
  8
_0-a_文字
  6
CONTINUOUS
 62
    7
 10
1094.5581965384058
 20
389.36676138501014
 11
1114.5581965384058
 21
389.36676138501014
  0
TEXT
  8
_0-a_文字
 62
    7
 10
1187.3299927216101
 20
426.86676138501014
 40
15.000000000000036
 41
0.9999999999999956
 50
0
  1
耐火デッキプレート t=1.2以上
  0
TEXT
  8
_0-a_文字
 62
    7
 10
1187.3299927216101
 20
406.86676138501014
 40
15.000000000000036
 41
0.9999999999999956
 50
0
  1
（別途工事）
  0
TEXT
  8
_0-a_文字
 62
    7
 10
1119.5581965384058
 20
381.86676138501014
 40
15.000000000000036
 41
0.9999999999999981
 50
0
  1
亜鉛めっき鋼板 t=1.2以上
  0
TEXT
  8
_0-a_文字
 62
    7
 10
1119.5581965384058
 20
361.86676138501014
 40
15.000000000000036
 41
0.9999999999999981
 50
0
  1
（別途工事）
  0
TEXT
  8
_0-a_文字
 62
    7
 10
931.78458293623066
 20
988.22508660290566
 40
15.000000000000036
 41
0.9999999999999977
 50
0
  1
亜鉛めっき鋼板 t=1.2以上（別途工事）
  0
LINE
  8
_0-a_文字
  6
CONTINUOUS
 62
    7
 10
1074.5982879901874
 20
679.36676238327948
 11
1094.5982879901874
 21
679.36676238327948
  0
TEXT
  8
_0-a_文字
 62
    7
 10
1099.5982879901885
 20
671.86676238327948
 40
14.999999999999947
 41
1.0000000000000056
 50
0
  1
ＢＰ－Ｈ１５
  0
LINE
  8
_0-a_文字
  6
CONTINUOUS
 62
    7
 10
1001.5352746766814
 20
552.81791117020305
 11
1074.5982879901874
 21
679.36676238327948
  0
TEXT
  8
_f-0_
 62
    7
 10
405.30228976001922
 20
1163.75
 40
17.5
 41
1
 50
0
  1
パラペット 立上り接着工法（笠木あり）
  0
LINE
  8
_0-6_鋼板__アングル
  6
CONTINUOUS
 62
    2
 10
824.53527467667755
 20
910.56676238327952
 11
824.53527467667755
 21
909.36676238327834
  0
LINE
  8
_0-6_鋼板__アングル
  6
CONTINUOUS
 62
    2
 10
977.5352746766805
 20
909.36676238327834
 11
824.53527467667755
 21
909.36676238327834
  0
LINE
  8
_0-6_鋼板__アングル
  6
CONTINUOUS
 62
    2
 10
978.73527467668055
 20
910.56676238327952
 11
824.53527467667755
 21
910.56676238327952
  0
LINE
  8
_0-6_鋼板__アングル
  6
CONTINUOUS
 62
    2
 10
978.73527467668055
 20
880.56676238327952
 11
977.5352746766805
 21
880.56676238327952
  0
LINE
  8
_0-6_鋼板__アングル
  6
CONTINUOUS
 62
    2
 10
977.5352746766805
 20
909.36676238327834
 11
977.5352746766805
 21
880.56676238327952
  0
LINE
  8
_0-6_鋼板__アングル
  6
CONTINUOUS
 62
    2
 10
978.73527467668055
 20
910.56676238327952
 11
978.73527467668055
 21
880.56676238327952
  0
LINE
  8
_0-6_鋼板__アングル
  6
CONTINUOUS
 62
    2
 10
959.53527467667982
 20
509.36676238327948
 11
1160.7352746766799
 21
509.36676238327948
  0
LINE
  8
_0-6_鋼板__アングル
  6
CONTINUOUS
 62
    2
 10
960.73527467667986
 20
510.56676238327952
 11
1160.7352746766799
 21
510.56676238327952
  0
LINE
  8
_0-6_鋼板__アングル
  6
CONTINUOUS
 62
    2
 10
1160.7352746766799
 20
509.36676238327948
 11
1160.7352746766799
 21
510.56676238327952
  0
LINE
  8
_0-6_鋼板__アングル
  6
CONTINUOUS
 62
    2
 10
959.53527467667982
 20
509.36676238327948
 11
959.53527467667982
 21
610.56676238327839
  0
LINE
  8
_0-6_鋼板__アングル
  6
CONTINUOUS
 62
    2
 10
959.53527467667982
 20
610.56676238327839
 11
960.73527467667986
 21
610.56676238327839
  0
LINE
  8
_0-6_鋼板__アングル
  6
CONTINUOUS
 62
    2
 10
960.73527467667986
 20
510.56676238327952
 11
960.73527467667986
 21
610.56676238327839
  0
LINE
  8
_0-6_鋼板__アングル
  6
CONTINUOUS
 62
    2
 10
977.5352746766805
 20
552.81791117020532
 11
978.86435332739325
 21
537.62647267832278
  0
LINE
  8
_0-6_鋼板__アングル
  6
CONTINUOUS
 62
    2
 10
978.84484487795248
 20
551.61791117019391
 11
980.06893713241311
 21
537.62647267832278
  0
LINE
  8
_0-6_鋼板__アングル
  6
CONTINUOUS
 62
    2
 10
978.86435332739325
 20
537.62647267832278
 11
980.06893713241311
 21
537.62647267832278
  0
LINE
  8
_0-6_鋼板__アングル
  6
CONTINUOUS
 62
    2
 10
978.84484487795248
 20
551.61791117019391
 11
994.53821840184105
 21
551.61791117019391
  0
LINE
  8
_0-6_鋼板__アングル
  6
CONTINUOUS
 62
    2
 10
1007.3882615226887
 20
552.32020874405578
 11
1004.7852746766819
 21
550.31791117020532
  0
ARC
  8
_0-6_鋼板__アングル
  6
CONTINUOUS
 62
    2
 10
1008.8515673487279
 20
550.41791117020523
 40
2.3999999999999999
 50
90
 51
127.56859202882603
  0
LINE
  8
_0-6_鋼板__アングル
  6
CONTINUOUS
 62
    2
 10
995.68228783067411
 20
552.32020874405578
 11
998.28527467668096
 21
550.31791117020532
  0
ARC
  8
_0-6_鋼板__アングル
  6
CONTINUOUS
 62
    2
 10
994.21898200463488
 20
550.41791117020523
 40
2.3999999999999999
 50
52.431407971173961
 51
90
  0
LINE
  8
_0-6_鋼板__アングル
  6
CONTINUOUS
 62
    4
 10
1008.8515673487279
 20
552.81791117020532
 11
994.21898200463488
 21
552.81791117020532
  0
LINE
  8
_0-6_鋼板__アングル
  6
CONTINUOUS
 62
    4
 10
998.28527467668096
 20
550.31791117020532
 11
1004.7852746766819
 21
550.31791117020532
  0
LINE
  8
_0-6_鋼板__アングル
  6
CONTINUOUS
 62
    2
 10
1004.7852746766819
 20
550.31791117020532
 11
1005.5169275897003
 21
549.36676238327948
  0
LINE
  8
_0-6_鋼板__アングル
  6
CONTINUOUS
 62
    2
 10
998.28527467668096
 20
550.31791117020532
 11
997.55362176366248
 21
549.36676238327948
  0
LINE
  8
_0-6_鋼板__アングル
  6
CONTINUOUS
 62
    4
 10
997.55362176366248
 20
549.36676238327948
 11
1005.5169275897003
 21
549.36676238327948
  0
LINE
  8
_0-6_鋼板__アングル
  6
CONTINUOUS
 62
    2
 10
1008.1199144357072
 20
551.36905995712993
 11
1005.5169275897003
 21
549.36676238327948
  0
ARC
  8
_0-6_鋼板__アングル
  6
CONTINUOUS
 62
    2
 10
1008.8515673487279
 20
550.41791117020523
 40
1.2
 50
90
 51
127.56859202882507
  0
LINE
  8
_0-6_鋼板__アングル
  6
CONTINUOUS
 62
    2
 10
994.95063491765563
 20
551.36905995712993
 11
997.55362176366248
 21
549.36676238327948
  0
ARC
  8
_0-6_鋼板__アングル
  6
CONTINUOUS
 62
    2
 10
994.21898200463488
 20
550.41791117020523
 40
1.2
 50
52.431407971171978
 51
90.000000000000057
  0
LINE
  8
_0-6_鋼板__アングル
  6
CONTINUOUS
 62
    2
 10
977.5352746766805
 20
552.81791117020532
 11
994.21898200463488
 21
552.81791117020532
  0
LINE
  8
_0-6_鋼板__アングル
  6
CONTINUOUS
 62
    2
 10
1022.4775344588863
 20
551.25977601593547
 11
1024.7571149299608
 21
549.31791117020509
  0
ARC
  8
_0-6_鋼板__アングル
  6
CONTINUOUS
 62
    2
 10
1021.5048347754885
 20
550.1179111702055
 40
2.7000000000000002
 50
49.573921259901446
 51
90
  0
ARC
  8
_0-6_鋼板__アングル
  6
CONTINUOUS
 62
    2
 10
1021.5048347754885
 20
550.11791117020437
 40
1.5000000000000002
 50
49.573921259901446
 51
90
  0
LINE
  8
_0-6_鋼板__アングル
  6
CONTINUOUS
 62
    2
 10
1023.2556942056078
 20
552.17326789251899
 11
1025.5352746766823
 21
550.23140304678861
  0
LINE
  8
_0-6_鋼板__アングル
  6
CONTINUOUS
 62
    2
 10
1025.5352746766823
 20
550.23140304678861
 11
1024.7571149299608
 21
549.31791117020509
  0
LINE
  8
_0-6_鋼板__アングル
  6
CONTINUOUS
 62
    2
 10
1008.8515673487279
 20
552.81791117020532
 11
1021.5048347754885
 21
552.81791117020532
  0
LINE
  8
_0-6_鋼板__アングル
  6
CONTINUOUS
 62
    2
 10
1008.5323309515513
 20
551.61791117019391
 11
1021.5048347754885
 21
551.61791117019391
  0
LINE
  8
ADD_LINE
  6
DOT
 62
    4
 10
1001.5352746766814
 20
564.37069987105303
 11
1001.5352746766814
 21
530.18634368098958
  0
LINE
  8
_0-5_金属
  6
CONTINUOUS
 62
    7
 10
989.73501028208204
 20
459.36696063502438
 11
1037.4991645406885
 21
459.36696063502438
  0
LINE
  8
_0-8_笠木他
  6
CONTINUOUS
 62
    4
 10
940.42120780038431
 20
919.5667623832793
 11
867.84902116036164
 21
919.5667623832793
  0
LINE
  8
_0-8_笠木他
  6
CONTINUOUS
 62
    4
 10
941.22767224202846
 20
915.56676238327952
 11
867.0430934907472
 21
915.56676238327952
  0
LINE
  8
_0-8_笠木他
  6
CONTINUOUS
 62
    4
 10
867.0430934907472
 20
915.56676238327952
 11
867.04655911779355
 21
944.12162128438467
  0
LINE
  8
_0-8_笠木他
  6
CONTINUOUS
 62
    4
 10
867.84902116036164
 20
919.5667623832793
 11
867.83890627873006
 21
945.47190580127165
  0
LINE
  8
_0-8_笠木他
  6
CONTINUOUS
 62
    4
 10
941.22767224202846
 20
915.56676238327952
 11
941.22369027191951
 21
939.17647909798745
  0
LINE
  8
_0-8_笠木他
  6
CONTINUOUS
 62
    4
 10
940.42120780038431
 20
919.5667623832793
 11
940.43266554772003
 21
940.63232174288714
  0
LINE
  8
ADD_LINE
  6
DOT
 62
    4
 10
904.13527467667905
 20
972.04908367221208
 11
904.13527467667905
 21
864.6970212828154
  0
LINE
  8
ADD_LINE
  6
DOT
 62
    4
 10
875.13527467667927
 20
919.5667623832793
 11
875.13527467667927
 21
885.56676238327952
  0
LINE
  8
ADD_LINE
  6
DOT
 62
    4
 10
933.13527467667882
 20
919.5667623832793
 11
933.13527467667882
 21
885.56676238327952
  0
LINE
  8
_0-8_笠木他
  6
CONTINUOUS
 62
    4
 10
1000.7352746766793
 20
884.81001079215559
 11
1000.7352746766793
 21
889.12893527897438
  0
LINE
  8
_0-8_笠木他
  6
CONTINUOUS
 62
    4
 10
806.13527467667893
 20
884.75328569047804
 11
806.13527467667893
 21
949.78592528418915
  0
LINE
  8
_0-8_笠木他
  6
CONTINUOUS
 62
    4
 10
867.83890627873006
 20
945.47190580127165
 11
812.65289155715891
 21
949.15097353080853
  0
LINE
  8
_0-8_笠木他
  6
CONTINUOUS
 62
    4
 10
867.04655911779355
 20
944.12162128438467
 11
814.00238372882313
 21
947.65789972192067
  0
LINE
  8
_0-8_笠木他
  6
CONTINUOUS
 62
    4
 10
806.13527467667893
 20
884.75328569047804
 11
808.12727167667958
 21
884.7526071575561
  0
LINE
  8
_0-8_笠木他
  6
CONTINUOUS
 62
    4
 10
808.12727167667958
 20
884.7526071575561
 11
808.1262640110748
 21
882.75703115755675
  0
LINE
  8
_0-8_笠木他
  6
CONTINUOUS
 62
    4
 10
804.13527467667905
 20
882.75703115755675
 11
808.1262640110748
 21
882.75703115755675
  0
LINE
  8
_0-8_笠木他
  6
CONTINUOUS
 62
    4
 10
804.13527467667905
 20
882.75703115755675
 11
804.13527467667905
 21
951.92369813778669
  0
LINE
  8
_0-8_笠木他
  6
CONTINUOUS
 62
    4
 10
807.54200544859145
 20
888.52744811133562
 11
814.00238372882313
 21
947.65789972192067
  0
LINE
  8
_0-8_笠木他
  6
CONTINUOUS
 62
    4
 10
807.54240070857577
 20
884.75280638185552
 11
807.54200544859145
 21
888.52744811133562
  0
LINE
  8
_0-8_笠木他
  6
CONTINUOUS
 62
    4
 10
806.13527467667893
 20
889.26690878157615
 11
812.65289155715891
 21
949.15097353080853
  0
LINE
  8
_0-8_笠木他
  6
CONTINUOUS
 62
    4
 10
1004.135274676679
 20
938.59036450933502
 11
804.13527467667905
 21
951.92369813778669
  0
LINE
  8
_0-8_笠木他
  6
CONTINUOUS
 62
    4
 10
1002.1352746766797
 20
936.71925832830652
 11
806.13527467667893
 21
949.78592528418915
  0
LINE
  8
_0-8_笠木他
  6
CONTINUOUS
 62
    4
 10
995.37470840746096
 20
936.96951880449888
 11
940.43266554772003
 21
940.63232174288714
  0
LINE
  8
_0-8_笠木他
  6
CONTINUOUS
 62
    4
 10
1002.1352746766797
 20
889.61576801149761
 11
995.37470840746096
 21
936.96951880449888
  0
LINE
  8
_0-8_笠木他
  6
CONTINUOUS
 62
    4
 10
994.10551462408193
 20
935.65102406314452
 11
941.22369027191951
 21
939.17647909798745
  0
LINE
  8
_0-8_笠木他
  6
CONTINUOUS
 62
    4
 10
1000.7352746766793
 20
889.12893527897438
 11
994.10551462408193
 21
935.65102406314452
  0
LINE
  8
_0-8_笠木他
  6
CONTINUOUS
 62
    4
 10
1000.15445067668
 20
884.8001671575571
 11
1000.1554823576942
 21
882.75703115755675
  0
LINE
  8
_0-8_笠木他
  6
CONTINUOUS
 62
    4
 10
1002.1352746766797
 20
884.7997726512574
 11
1000.15445067668
 21
884.8001671575571
  0
LINE
  8
_0-8_笠木他
  6
CONTINUOUS
 62
    4
 10
1002.1352746766797
 20
884.7997726512574
 11
1002.1352746766797
 21
936.71925832830652
  0
LINE
  8
_0-8_笠木他
  6
CONTINUOUS
 62
    4
 10
1000.1554823576942
 20
882.75703115755675
 11
1004.135274676679
 21
882.75703115755675
  0
LINE
  8
_0-8_笠木他
  6
CONTINUOUS
 62
    4
 10
1004.135274676679
 20
882.75703115755675
 11
1004.135274676679
 21
938.59036450933502
  0
LINE
  8
_0-a_文字
  6
CONTINUOUS
 62
    7
 10
824.26530969104022
 20
950.5816957737926
 11
879.19637199784347
 21
1045.7250866029058
  0
TEXT
  8
_0-a_文字
 62
    7
 10
1067.4999999999952
 20
327.50000000000341
 40
15.000000000000213
 41
0.9999999999999907
 50
0
  1
※ 断熱材の種類が硬質ウレタンフォームの場合、ラジアルシートＬ６００の敷設は不要
  0
TEXT
  8
_0-a_文字
 62
    7
 10
1067.4999999999952
 20
287.50000000000341
 40
15.000000000000213
 41
0.9999999999999905
 50
0
  1
※ 本図面は防水納まりの参考図であり、下地等の構造を保証するものではありません
  0
TEXT
  8
_0-a_文字
 62
    7
 10
1067.4999999999952
 20
307.50000000000341
 40
15.000000000000213
 41
0.9999999999999905
 50
0
  1
※ デッキ端部などの開口部には、必要に応じ遮炎性を満たす処理をお願いします（別途工事）
  0
ENDSEC
  0
EOF
