  0
SECTION
  2
HEADER
  9
$ACADVER
  1
AC1009
  9
$INSBASE
 10
0
 20
0
 30
0
  9
$EXTMIN
 10
0
 20
0
  9
$EXTMAX
 10
2100
 20
1485
  9
$LIMMIN
 10
0
 20
0
  9
$LIMMAX
 10
2100
 20
1485
  9
$LTSCALE
 40
5
  0
ENDSEC
  0
SECTION
  2
TABLES
  0
TABLE
  2
LTYPE
 70
     9
  0
LTYPE
  2
CONTINUOUS
 70
    64
  3
実線
 72
    65
 73
     0
 40
0.0
  0
LTYPE
  2
DASHED1
 70
    64
  3
--  --  --  --  --  --  --  --  
 72
    65
 73
     2
 40
2.5
 49
1.25
 49
-1.25
  0
LTYPE
  2
DASHED2
 70
    64
  3
----    ----    ----    ----    
 72
    65
 73
     2
 40
5.0
 49
2.5
 49
-2.5
  0
LTYPE
  2
DASHED3
 70
    64
  3
------  ------  ------  ------  
 72
    65
 73
     2
 40
5.0
 49
3.75
 49
-1.25
  0
LTYPE
  2
CENTER1
 70
    64
  3
----- - ----- - ----- - ----- - 
 72
    65
 73
     4
 40
10.0
 49
6.25
 49
-1.25
 49
1.25
 49
-1.25
  0
LTYPE
  2
CENTER2
 70
    64
  3
----------  --  ----------  --  
 72
    65
 73
     4
 40
20.0
 49
12.5
 49
-2.5
 49
2.5
 49
-2.5
  0
LTYPE
  2
PHANTOM1
 70
    64
  3
--- - - --- - - --- - - --- - - 
 72
    65
 73
     6
 40
10.0
 49
3.25
 49
-1.25
 49
1.25
 49
-1.25
 49
1.25
 49
-1.25
  0
LTYPE
  2
PHANTOM2
 70
    64
  3
--------  -  -  --------  -  -  
 72
    65
 73
     6
 40
20.0
 49
10.0
 49
-2.5
 49
1.25
 49
-2.5
 49
1.25
 49
-2.5
  0
LTYPE
  2
DOT
 70
    64
  3
-   -   -   -   -   -   -   -   
 72
    65
 73
     2
 40
2.5
 49
0.625
 49
-1.875
  0
LTYPE
  2
DUMMY
 70
    64
  3
ダミー
 72
    65
 73
     0
 40
0.0
  0
LTYPE
  2
RAND1
 70
    64
  3
ランダム線1
 72
    65
 73
     4
 40
10.0
 49
1.0
 49
-2.0
 49
3.0
 49
-4.0
  0
LTYPE
  2
RAND2
 70
    64
  3
ランダム線2
 72
    65
 73
     4
 40
14.0
 49
2.0
 49
-3.0
 49
4.0
 49
-5.0
  0
LTYPE
  2
RAND3
 70
    64
  3
ランダム線3
 72
    65
 73
     4
 40
18.0
 49
3.0
 49
-4.0
 49
5.0
 49
-6.0
  0
LTYPE
  2
RAND4
 70
    64
  3
ランダム線4
 72
    65
 73
     4
 40
22.0
 49
4.0
 49
-5.0
 49
6.0
 49
-7.0
  0
LTYPE
  2
RAND5
 70
    64
  3
ランダム線5
 72
    65
 73
     4
 40
26.0
 49
5.0
 49
-6.0
 49
7.0
 49
-8.0
  0
LTYPE
  2
LONG1
 70
    64
  3
----------  --  ----------  --  
 72
    65
 73
     4
 40
40.0
 49
32.5
 49
-2.5
 49
2.5
 49
-2.5
  0
LTYPE
  2
LONG2
 70
    64
  3
--------  -  -  --------  -  -  
 72
    65
 73
     6
 40
40.0
 49
30.0
 49
-2.5
 49
1.25
 49
-2.5
 49
1.25
 49
-2.5
  0
LTYPE
  2
LONG3
 70
    64
  3
+++++++++++++++..+++++++++++++++
 72
    65
 73
     2
 40
40.0
 49
37.5
 49
-2.5
  0
LTYPE
  2
LONG4
 70
    64
  3
+++++++++++++++..+++++++++++++++
 72
    65
 73
     2
 40
80.0
 49
75.0
 49
-5.0
  0
LTYPE
  2
LONG5
 70
    64
  3
----------  --  ----------  --  
 72
    65
 73
     4
 40
60.0
 49
37.5
 49
-7.5
 49
7.5
 49
-7.5
  0
LTYPE
  2
dashed
 70
   64
  3
-------   -------------   ------
 72
   65
 73
    2
 40
7.5
 49
6
 49
-1.5
  0
LTYPE
  2
dashed_spaced
 70
   64
  3
----        --------        ----
 72
   65
 73
    2
 40
12
 49
6
 49
-6
  0
LTYPE
  2
long_dashed_dotted
 70
   64
  3
------------- --- --------------
 72
   65
 73
    4
 40
15.25
 49
12
 49
-1.5
 49
0.25
 49
-1.5
  0
LTYPE
  2
long_dashed_double-dotted
 70
   64
  3
----------- --- --- ------------
 72
   65
 73
    6
 40
17
 49
12
 49
-1.5
 49
0.25
 49
-1.5
 49
0.25
 49
-1.5
  0
LTYPE
  2
long_dashed_triplicate-dotted
 70
   64
  3
--------- --- --- --- ----------
 72
   65
 73
    8
 40
18.75
 49
12
 49
-1.5
 49
0.25
 49
-1.5
 49
0.25
 49
-1.5
 49
0.25
 49
-1.5
  0
LTYPE
  2
dotted
 70
   64
  3
   -       -       -       -    
 72
   65
 73
    2
 40
1.75
 49
0.25
 49
-1.5
  0
LTYPE
  2
chain
 70
   64
  3
-------------- -- --------------
 72
   65
 73
    4
 40
18.5
 49
12
 49
-1.5
 49
3.5
 49
-1.5
  0
LTYPE
  2
chain_double_dash
 70
   64
  3
------------ -- -- -------------
 72
   65
 73
    6
 40
23.5
 49
12
 49
-1.5
 49
3.5
 49
-1.5
 49
3.5
 49
-1.5
  0
LTYPE
  2
dashed_dotted
 70
   64
  3
-----------     -     ----------
 72
   65
 73
    4
 40
9.25
 49
6
 49
-1.5
 49
0.25
 49
-1.5
  0
LTYPE
  2
double-dashed_dotted
 70
   64
  3
------   -----------   -   -----
 72
   65
 73
    6
 40
16.75
 49
6
 49
-1.5
 49
6
 49
-1.5
 49
0.25
 49
-1.5
  0
LTYPE
  2
dashed_double-dotted
 70
   64
  3
---------    -    -    ---------
 72
   65
 73
    6
 40
11
 49
6
 49
-1.5
 49
0.25
 49
-1.5
 49
0.25
 49
-1.5
  0
LTYPE
  2
double-dashed_double-dotted
 70
   64
  3
-----   ---------   -   -   ----
 72
   65
 73
    8
 40
18.5
 49
6
 49
-1.5
 49
6
 49
-1.5
 49
0.25
 49
-1.5
 49
0.25
 49
-1.5
  0
LTYPE
  2
dashed_triplicate-dotted
 70
   64
  3
-------    -    -    -    ------
 72
   65
 73
    8
 40
12.75
 49
6
 49
-1.5
 49
0.25
 49
-1.5
 49
0.25
 49
-1.5
 49
0.25
 49
-1.5
  0
LTYPE
  2
double-dashed_triplicate-dotted
 70
   64
  3
-----  ---------  -  -  -  -----
 72
   65
 73
   10
 40
20.25
 49
6
 49
-1.5
 49
6
 49
-1.5
 49
0.25
 49
-1.5
 49
0.25
 49
-1.5
 49
0.25
 49
-1.5
  0
LTYPE
  2
undefined
 70
   64
  3
--------------------------------
 72
   65
 73
    0
 40
0
  0
ENDTAB
  0
TABLE
  2
STYLE
  5
3
100
AcDbSymbolTable
 70
     1
  0
STYLE
  5
10
100
AcDbSymbolTableRecord
100
AcDbTextStyleTableRecord
  2
STANDARD
 70
     0
 40
0.0
 41
1.0
 50
0.0
 71
     0
 42
0.2
  3
txt
  4
bigfont.shx
  0
STYLE
  5
26
100
AcDbSymbolTableRecord
100
AcDbTextStyleTableRecord
  2
TATEGAKI
 70
    68
 40
0.0
 41
1.0
 50
0.0
 71
     0
 42
1.0
  3
txt
  4
bigfont.shx
  0
ENDTAB
  0
TABLE
  2
LAYER
 70
   14
  0
LAYER
  2
_0-1_線色１__水色__
 70
   64
 62
    7
  6
CONTINUOUS
  0
LAYER
  2
_0-2_線色２__白__
 70
   64
 62
    7
  6
CONTINUOUS
  0
LAYER
  2
_0-3_線色３__緑__
 70
   64
 62
    7
  6
CONTINUOUS
  0
LAYER
  2
_0-4_線色４__黄__
 70
   64
 62
    7
  6
CONTINUOUS
  0
LAYER
  2
_0-5_金属
 70
   64
 62
    7
  6
CONTINUOUS
  0
LAYER
  2
_0-6_鋼板__アングル
 70
   64
 62
    7
  6
CONTINUOUS
  0
LAYER
  2
_0-7_ビス
 70
   64
 62
    7
  6
CONTINUOUS
  0
LAYER
  2
_0-8_笠木他
 70
   64
 62
    7
  6
CONTINUOUS
  0
LAYER
  2
_0-a_文字
 70
   64
 62
    7
  6
CONTINUOUS
  0
LAYER
  2
_0-b_寸法
 70
   64
 62
    7
  6
CONTINUOUS
  0
LAYER
  2
_0-d_断熱__ハッチ
 70
   64
 62
    7
  6
CONTINUOUS
  0
LAYER
  2
_f-0_
 70
   64
 62
    7
  6
CONTINUOUS
  0
LAYER
  2
_f-f_
 70
   64
 62
    7
  6
CONTINUOUS
  0
LAYER
  2
ADD_LINE
 70
   64
 62
    7
  6
CONTINUOUS
  0
ENDTAB
  0
ENDSEC
  0
SECTION
  2
BLOCKS
  0
ENDSEC
  0
SECTION
  2
ENTITIES
  0
LINE
  8
_f-0_
  6
CONTINUOUS
 62
  136
 10
1714.9999999999989
 20
1192.5
 11
385
 21
1192.5
  0
LINE
  8
_f-0_
  6
CONTINUOUS
 62
  136
 10
385
 20
277.50000000000341
 11
1714.9999999999989
 21
277.50000000000341
  0
LINE
  8
_f-0_
  6
CONTINUOUS
 62
  136
 10
385
 20
1192.5
 11
385
 21
277.50000000000341
  0
LINE
  8
_f-0_
  6
CONTINUOUS
 62
  136
 10
1714.9999999999989
 20
1192.5
 11
1714.9999999999989
 21
277.50000000000341
  0
LINE
  8
_f-0_
  6
CONTINUOUS
 62
    6
 10
1714.9999999999989
 20
1152.5
 11
385
 21
1152.5
  0
LINE
  8
_f-f_
  6
CONTINUOUS
 62
    9
 10
310
 20
217.5
 11
310
 21
1267.5
  0
LINE
  8
_f-f_
  6
CONTINUOUS
 62
    9
 10
1790
 20
217.5
 11
310
 21
217.5
  0
LINE
  8
_f-f_
  6
CONTINUOUS
 62
    9
 10
1790
 20
1267.5
 11
310
 21
1267.5
  0
LINE
  8
_f-f_
  6
CONTINUOUS
 62
    9
 10
1790
 20
1267.5
 11
1790
 21
217.5
  0
LINE
  8
ADD_LINE
  6
DOT
 62
  136
 10
1764.9999999999989
 20
1242.5
 11
335
 21
1242.5
  0
LINE
  8
ADD_LINE
  6
DOT
 62
  136
 10
335
 20
242.50000000000227
 11
335
 21
1242.5
  0
LINE
  8
ADD_LINE
  6
DOT
 62
  136
 10
1765
 20
1242.5
 11
1765
 21
242.5
  0
LINE
  8
ADD_LINE
  6
DOT
 62
  136
 10
1765
 20
242.5
 11
335.00000000000114
 21
242.5
  0
TEXT
  8
_0-a_文字
 62
    7
 10
395
 20
1107.5000000000023
 40
14.999999999997726
 41
1.000000000000171
 50
0
  1
　  横方向は@900mm程度
  0
TEXT
  8
_0-a_文字
 62
    7
 10
395
 20
1127.5000000000023
 40
14.999999999997726
 41
1.000000000000171
 50
0
  1
注）立上り高さが500mm以上で機械的固定工法の場合、中間をディスク板で固定する
  0
LINE
  8
_0-5_金属
  6
CONTINUOUS
 62
    7
 10
957.23527467667736
 20
563.66676238327898
 11
957.23527467667736
 21
605.06676238327884
  0
LINE
  8
_0-5_金属
  6
CONTINUOUS
 62
    7
 10
959.53527467667982
 20
563.66676238327898
 11
959.53527467667982
 21
605.06676238327884
  0
ARC
  8
_0-5_金属
  6
CONTINUOUS
 62
    7
 10
863.83527467667818
 20
563.66676238327898
 40
4.2999999999999989
 50
180
 51
270
  0
LINE
  8
_0-5_金属
  6
CONTINUOUS
 62
    7
 10
863.83527467667818
 20
559.36676238327834
 11
879.53527467667755
 21
559.36676238327834
  0
LINE
  8
_0-5_金属
  6
CONTINUOUS
 62
    7
 10
859.53527467667755
 20
563.66676238327898
 11
859.53527467667755
 21
605.06676238327884
  0
ARC
  8
_0-5_金属
  6
CONTINUOUS
 62
    7
 10
863.83527467667818
 20
605.06676238327884
 40
4.2999999999999989
 50
90
 51
180
  0
LINE
  8
_0-5_金属
  6
CONTINUOUS
 62
    7
 10
863.83527467667818
 20
609.36676238327948
 11
955.23527467667918
 21
609.36676238327948
  0
ARC
  8
_0-5_金属
  6
CONTINUOUS
 62
    7
 10
955.23527467667918
 20
605.06676238327884
 40
4.2999999999999989
 50
0
 51
90
  0
ARC
  8
_0-5_金属
  6
CONTINUOUS
 62
    7
 10
955.23527467667918
 20
563.66676238327898
 40
4.2999999999999989
 50
270
 51
0
  0
LINE
  8
_0-5_金属
  6
CONTINUOUS
 62
    7
 10
955.23527467667918
 20
559.36676238327834
 11
939.53527467667755
 21
559.36676238327834
  0
ARC
  8
_0-5_金属
  6
CONTINUOUS
 62
    7
 10
955.23527467667918
 20
563.66676238327898
 40
2
 50
270
 51
0
  0
LINE
  8
_0-5_金属
  6
CONTINUOUS
 62
    7
 10
955.23527467667918
 20
561.66676238327852
 11
939.53527467667755
 21
561.66676238327852
  0
ARC
  8
_0-5_金属
  6
CONTINUOUS
 62
    7
 10
955.23527467667918
 20
605.06676238327884
 40
2
 50
0
 51
90.000000000000014
  0
LINE
  8
_0-5_金属
  6
CONTINUOUS
 62
    7
 10
955.23527467667918
 20
607.06676238327816
 11
863.83527467667818
 21
607.06676238327816
  0
ARC
  8
_0-5_金属
  6
CONTINUOUS
 62
    7
 10
863.83527467667818
 20
605.06676238327884
 40
2
 50
90
 51
180
  0
LINE
  8
_0-5_金属
  6
CONTINUOUS
 62
    7
 10
861.83527467668
 20
605.06676238327884
 11
861.83527467668
 21
563.66676238327898
  0
ARC
  8
_0-5_金属
  6
CONTINUOUS
 62
    7
 10
863.83527467667818
 20
563.66676238327898
 40
2
 50
180
 51
270
  0
LINE
  8
_0-5_金属
  6
CONTINUOUS
 62
    7
 10
863.83527467667818
 20
561.66676238327852
 11
879.53527467667755
 21
561.66676238327852
  0
LINE
  8
_0-5_金属
  6
CONTINUOUS
 62
    7
 10
957.23527467667736
 20
863.66676238327898
 11
957.23527467667736
 21
905.06676238327998
  0
ARC
  8
_0-5_金属
  6
CONTINUOUS
 62
    7
 10
863.83527467667818
 20
863.66676238327898
 40
4.2999999999999989
 50
180
 51
270
  0
LINE
  8
_0-5_金属
  6
CONTINUOUS
 62
    7
 10
863.83527467667818
 20
859.36676238327834
 11
879.53527467667755
 21
859.36676238327834
  0
LINE
  8
_0-5_金属
  6
CONTINUOUS
 62
    7
 10
859.53527467667755
 20
863.66676238327898
 11
859.53527467667755
 21
905.06676238327998
  0
ARC
  8
_0-5_金属
  6
CONTINUOUS
 62
    7
 10
863.83527467667818
 20
905.06676238327998
 40
4.2999999999999989
 50
90
 51
180
  0
ARC
  8
_0-5_金属
  6
CONTINUOUS
 62
    7
 10
955.23527467667918
 20
905.06676238327998
 40
4.2999999999999989
 50
0
 51
90
  0
ARC
  8
_0-5_金属
  6
CONTINUOUS
 62
    7
 10
955.23527467667918
 20
863.66676238327898
 40
4.2999999999999989
 50
270
 51
0
  0
LINE
  8
_0-5_金属
  6
CONTINUOUS
 62
    7
 10
955.23527467667918
 20
859.36676238327834
 11
939.53527467667755
 21
859.36676238327834
  0
ARC
  8
_0-5_金属
  6
CONTINUOUS
 62
    7
 10
955.23527467667918
 20
863.66676238327898
 40
2
 50
270
 51
0
  0
LINE
  8
_0-5_金属
  6
CONTINUOUS
 62
    7
 10
955.23527467667918
 20
861.66676238327852
 11
939.53527467667755
 21
861.66676238327852
  0
ARC
  8
_0-5_金属
  6
CONTINUOUS
 62
    7
 10
955.23527467667918
 20
905.06676238327998
 40
2
 50
0
 51
90.000000000000014
  0
ARC
  8
_0-5_金属
  6
CONTINUOUS
 62
    7
 10
863.83527467667818
 20
905.06676238327998
 40
2
 50
90
 51
180
  0
LINE
  8
_0-5_金属
  6
CONTINUOUS
 62
    7
 10
861.83527467668
 20
905.06676238327998
 11
861.83527467668
 21
863.66676238327898
  0
ARC
  8
_0-5_金属
  6
CONTINUOUS
 62
    7
 10
863.83527467667818
 20
863.66676238327898
 40
2
 50
180
 51
270
  0
LINE
  8
_0-5_金属
  6
CONTINUOUS
 62
    7
 10
863.83527467667818
 20
861.66676238327852
 11
879.53527467667755
 21
861.66676238327852
  0
LINE
  8
_0-5_金属
  6
CONTINUOUS
 62
    7
 10
939.53527467667755
 20
861.66676238327852
 11
939.53527467667755
 21
859.36676238327834
  0
LINE
  8
_0-5_金属
  6
CONTINUOUS
 62
    7
 10
879.53527467667755
 20
861.66676238327852
 11
879.53527467667755
 21
859.36676238327834
  0
LINE
  8
_0-5_金属
  6
CONTINUOUS
 62
    7
 10
939.53527467667755
 20
859.36676238327834
 11
939.53527467667755
 21
609.36676238327948
  0
LINE
  8
_0-5_金属
  6
CONTINUOUS
 62
    7
 10
879.53527467667755
 20
859.36676238327834
 11
879.53527467667755
 21
609.36676238327948
  0
LINE
  8
_0-5_金属
  6
CONTINUOUS
 62
    7
 10
955.23527467667918
 20
907.06676238327816
 11
863.83527467667818
 21
907.06676238327816
  0
LINE
  8
_0-5_金属
  6
CONTINUOUS
 62
    7
 10
863.83527467667818
 20
909.36676238327834
 11
955.23527467667918
 21
909.36676238327834
  0
LINE
  8
_0-5_金属
  6
CONTINUOUS
 62
    7
 10
859.53527467667755
 20
863.66676238327898
 11
859.53527467667755
 21
605.06676238327884
  0
LINE
  8
_0-2_線色２__白__
  6
CONTINUOUS
 62
    7
 10
959.53527467667982
 20
605.06676238327884
 11
959.53527467667982
 21
909.36676238327834
  0
LINE
  8
_0-5_金属
  6
CONTINUOUS
 62
    7
 10
959.53527467667755
 20
863.66676238327898
 11
959.53527467667755
 21
905.06676238327998
  0
LINE
  8
_0-5_金属
  6
CONTINUOUS
 62
    7
 10
879.53527467667755
 20
561.66676238327852
 11
879.53527467667755
 21
559.36676238327834
  0
LINE
  8
_0-5_金属
  6
CONTINUOUS
 62
    7
 10
939.53527467667755
 20
561.66676238327852
 11
939.53527467667755
 21
559.36676238327834
  0
LINE
  8
_0-2_線色２__白__
  6
CONTINUOUS
 62
    7
 10
824.53527467667755
 20
907.36676238328016
 11
859.53527467667755
 21
907.36676238328016
  0
LINE
  8
_0-d_断熱__ハッチ
  6
CONTINUOUS
 62
    4
 10
857.79175665220237
 20
907.36676238328016
 11
859.53527467667755
 21
909.1102804077542
  0
LINE
  8
_0-d_断熱__ハッチ
  6
CONTINUOUS
 62
    4
 10
854.25622274627131
 20
907.36676238328016
 11
856.25622274626949
 21
909.36676238327948
  0
LINE
  8
_0-d_断熱__ハッチ
  6
CONTINUOUS
 62
    4
 10
850.7206888403357
 20
907.36676238328016
 11
852.72068884033615
 21
909.36676238327948
  0
LINE
  8
_0-d_断熱__ハッチ
  6
CONTINUOUS
 62
    4
 10
847.18515493440464
 20
907.3667623832813
 11
849.18515493440509
 21
909.36676238328062
  0
LINE
  8
_0-d_断熱__ハッチ
  6
CONTINUOUS
 62
    4
 10
843.6496210284713
 20
907.3667623832813
 11
845.64962102847176
 21
909.36676238328062
  0
LINE
  8
_0-d_断熱__ハッチ
  6
CONTINUOUS
 62
    4
 10
840.11408712253797
 20
907.36676238328016
 11
842.11408712253615
 21
909.36676238328062
  0
LINE
  8
_0-d_断熱__ハッチ
  6
CONTINUOUS
 62
    4
 10
836.57855321660463
 20
907.36676238328016
 11
838.57855321660281
 21
909.36676238328062
  0
LINE
  8
_0-d_断熱__ハッチ
  6
CONTINUOUS
 62
    4
 10
833.04301931068039
 20
907.36676238328016
 11
835.04301931067857
 21
909.36676238328062
  0
LINE
  8
_0-d_断熱__ハッチ
  6
CONTINUOUS
 62
    4
 10
829.50748540474706
 20
907.36676238328016
 11
831.50748540474297
 21
909.36676238327721
  0
LINE
  8
_0-d_断熱__ハッチ
  6
CONTINUOUS
 62
    4
 10
825.97195149881372
 20
907.3667623832813
 11
827.9719514988119
 21
909.36676238327834
  0
LINE
  8
_0-2_線色２__白__
  6
CONTINUOUS
 62
    7
 10
822.02751077041512
 20
914.12821480186551
 11
822.00161222094493
 21
914.01791117020423
  0
LINE
  8
_0-2_線色２__白__
  6
CONTINUOUS
 62
    7
 10
822.07334766609165
 20
914.31788974896847
 11
822.02751077041512
 21
914.12821480186551
  0
LINE
  8
_0-2_線色２__白__
  6
CONTINUOUS
 62
    7
 10
822.12247407337827
 20
914.50616545114428
 11
822.07334766609165
 21
914.31788974896847
  0
LINE
  8
_0-2_線色２__白__
  6
CONTINUOUS
 62
    7
 10
822.17697196164863
 20
914.69215631033364
 11
822.12247407337827
 21
914.50616545114428
  0
LINE
  8
_0-2_線色２__白__
  6
CONTINUOUS
 62
    7
 10
822.23892330027184
 20
914.87497672848178
 11
822.17697196164863
 21
914.69215631033364
  0
LINE
  8
_0-2_線色２__白__
  6
CONTINUOUS
 62
    7
 10
822.31041005862153
 20
915.0537411075328
 11
822.23892330027184
 21
914.87497672848178
  0
LINE
  8
_0-2_線色２__白__
  6
CONTINUOUS
 62
    7
 10
822.35706191198005
 20
915.15521699858311
 11
822.31041005862153
 21
915.0537411075328
  0
LINE
  8
_0-2_線色２__白__
  6
CONTINUOUS
 62
    7
 10
822.39310182306781
 20
915.22686865642584
 11
822.35706191198005
 21
915.15521699858311
  0
LINE
  8
_0-2_線色２__白__
  6
CONTINUOUS
 62
    7
 10
822.46012232139492
 20
915.34816241012948
 11
822.39310182306781
 21
915.22686865642584
  0
LINE
  8
_0-2_線色２__白__
  6
CONTINUOUS
 62
    7
 10
822.53282988754108
 20
915.46657417482209
 11
822.46012232139492
 21
915.34816241012948
  0
LINE
  8
_0-2_線色２__白__
  6
CONTINUOUS
 62
    7
 10
822.61065057828546
 20
915.58205510753339
 11
822.53282988754108
 21
915.46657417482209
  0
LINE
  8
_0-2_線色２__白__
  6
CONTINUOUS
 62
    7
 10
822.69301045041857
 20
915.69455636529312
 11
822.61065057828546
 21
915.58205510753339
  0
LINE
  8
_0-2_線色２__白__
  6
CONTINUOUS
 62
    7
 10
822.77933556072412
 20
915.80402910512987
 11
822.69301045041857
 21
915.69455636529312
  0
LINE
  8
_0-2_線色２__白__
  6
CONTINUOUS
 62
    7
 10
822.83099483335945
 20
915.86611638065335
 11
822.77933556072412
 21
915.80402910512987
  0
LINE
  8
_0-2_線色２__白__
  6
CONTINUOUS
 62
    7
 10
822.92206341529891
 20
915.97031768886325
 11
822.83099483335945
 21
915.86611638065335
  0
LINE
  8
_0-2_線色２__白__
  6
CONTINUOUS
 62
    7
 10
823.08537728657711
 20
916.14359469187377
 11
822.92206341529891
 21
915.97031768886325
  0
LINE
  8
_0-2_線色２__白__
  6
CONTINUOUS
 62
    7
 10
823.25542248568809
 20
916.31008083472295
 11
823.08537728657711
 21
916.14359469187377
  0
LINE
  8
_0-2_線色２__白__
  6
CONTINUOUS
 62
    7
 10
823.4307546119112
 20
916.47127103264836
 11
823.25542248568809
 21
916.31008083472295
  0
LINE
  8
_0-2_線色２__白__
  6
CONTINUOUS
 62
    7
 10
823.60992926453719
 20
916.62866020088984
 11
823.4307546119112
 21
916.47127103264836
  0
LINE
  8
_0-2_線色２__白__
  6
CONTINUOUS
 62
    7
 10
823.7915020428477
 20
916.78374325468496
 11
823.60992926453719
 21
916.62866020088984
  0
LINE
  8
_0-2_線色２__白__
  6
CONTINUOUS
 62
    7
 10
823.89734390646481
 20
916.87322383858543
 11
823.7915020428477
 21
916.78374325468496
  0
LINE
  8
_0-2_線色２__白__
  6
CONTINUOUS
 62
    7
 10
823.98179707586905
 20
916.94448101767819
 11
823.89734390646481
 21
916.87322383858543
  0
LINE
  8
_0-2_線色２__白__
  6
CONTINUOUS
 62
    7
 10
824.12790467696368
 20
917.06668109760415
 11
823.98179707586905
 21
916.94448101767819
  0
LINE
  8
_0-2_線色２__白__
  6
CONTINUOUS
 62
    7
 10
824.2753095186572
 20
917.18701344665135
 11
824.12790467696368
 21
917.06668109760415
  0
LINE
  8
_0-2_線色２__白__
  6
CONTINUOUS
 62
    7
 10
824.42478600739378
 20
917.30427349904687
 11
824.2753095186572
 21
917.18701344665135
  0
LINE
  8
_0-2_線色２__白__
  6
CONTINUOUS
 62
    7
 10
824.57710854961533
 20
917.41725668901552
 11
824.42478600739378
 21
917.30427349904687
  0
LINE
  8
_0-2_線色２__白__
  6
CONTINUOUS
 62
    7
 10
824.73305155176831
 20
917.52475845078436
 11
824.57710854961533
 21
917.41725668901552
  0
LINE
  8
_0-2_線色２__白__
  6
CONTINUOUS
 62
    7
 10
824.82546254416775
 20
917.58412322065567
 11
824.73305155176831
 21
917.52475845078436
  0
LINE
  8
_0-2_線色２__白__
  6
CONTINUOUS
 62
    7
 10
824.91717755249283
 20
917.63981016216746
 11
824.82546254416775
 21
917.58412322065567
  0
LINE
  8
_0-2_線色２__白__
  6
CONTINUOUS
 62
    7
 10
825.07798127850492
 20
917.73176693289258
 11
824.91717755249283
 21
917.63981016216746
  0
LINE
  8
_0-2_線色２__白__
  6
CONTINUOUS
 62
    7
 10
825.24069870645917
 20
917.82086709522844
 11
825.07798127850492
 21
917.73176693289258
  0
LINE
  8
_0-2_線色２__白__
  6
CONTINUOUS
 62
    7
 10
825.40361865475234
 20
917.90975780368001
 11
825.24069870645917
 21
917.82086709522844
  0
LINE
  8
_0-2_線色２__白__
  6
CONTINUOUS
 62
    7
 10
825.56502994178345
 20
918.00108621275001
 11
825.40361865475234
 21
917.90975780368001
  0
LINE
  8
_0-2_線色２__白__
  6
CONTINUOUS
 62
    7
 10
825.72322138595382
 20
918.0974994769457
 11
825.56502994178345
 21
918.00108621275001
  0
LINE
  8
_0-2_線色２__白__
  6
CONTINUOUS
 62
    7
 10
825.81282279704283
 20
918.15679216732349
 11
825.72322138595382
 21
918.0974994769457
  0
LINE
  8
_0-2_線色２__白__
  6
CONTINUOUS
 62
    7
 10
825.8668500219369
 20
918.19465946371281
 11
825.81282279704283
 21
918.15679216732349
  0
LINE
  8
_0-2_線色２__白__
  6
CONTINUOUS
 62
    7
 10
825.95820452088901
 20
918.26258729324366
 11
825.8668500219369
 21
918.19465946371281
  0
LINE
  8
_0-2_線色２__白__
  6
CONTINUOUS
 62
    7
 10
826.04723453192491
 20
918.33367876993236
 11
825.95820452088901
 21
918.26258729324366
  0
LINE
  8
_0-2_線色２__白__
  6
CONTINUOUS
 62
    7
 10
826.1338805074206
 20
918.40772767325859
 11
826.04723453192491
 21
918.33367876993236
  0
LINE
  8
_0-2_線色２__白__
  6
CONTINUOUS
 62
    7
 10
826.21808289974979
 20
918.48452778270087
 11
826.1338805074206
 21
918.40772767325859
  0
LINE
  8
_0-2_線色２__白__
  6
CONTINUOUS
 62
    7
 10
826.29978216129075
 20
918.56387287773543
 11
826.21808289974979
 21
918.48452778270087
  0
LINE
  8
_0-2_線色２__白__
  6
CONTINUOUS
 62
    7
 10
826.34599733359437
 20
918.61097788364589
 11
826.29978216129075
 21
918.56387287773543
  0
LINE
  8
_0-2_線色２__白__
  6
CONTINUOUS
 62
    7
 10
826.47387934142216
 20
918.75023078342622
 11
826.34599733359437
 21
918.61097788364589
  0
LINE
  8
_0-2_線色２__白__
  6
CONTINUOUS
 62
    7
 10
826.67916496769749
 20
919.00307323918412
 11
826.47387934142216
 21
918.75023078342622
  0
LINE
  8
_0-2_線色２__白__
  6
CONTINUOUS
 62
    7
 10
826.86777696609624
 20
919.26950476037007
 11
826.67916496769749
 21
919.00307323918412
  0
LINE
  8
_0-2_線色２__白__
  6
CONTINUOUS
 62
    7
 10
827.04270095348193
 20
919.5465581883883
 11
826.86777696609624
 21
919.26950476037007
  0
LINE
  8
_0-2_線色２__白__
  6
CONTINUOUS
 62
    7
 10
827.20692254670894
 20
919.83126636463965
 11
827.04270095348193
 21
919.5465581883883
  0
LINE
  8
_0-2_線色２__白__
  6
CONTINUOUS
 62
    7
 10
827.36342736264078
 20
920.12066213052719
 11
827.20692254670894
 21
919.83126636463965
  0
LINE
  8
_0-2_線色２__白__
  6
CONTINUOUS
 62
    7
 10
827.451840816816
 20
920.2894903135342
 11
827.36342736264078
 21
920.12066213052719
  0
LINE
  8
_0-2_線色２__白__
  6
CONTINUOUS
 62
    7
 10
827.51679881144582
 20
920.41493006303369
 11
827.451840816816
 21
920.2894903135342
  0
LINE
  8
_0-2_線色２__白__
  6
CONTINUOUS
 62
    7
 10
827.62792580364476
 20
920.6310699022896
 11
827.51679881144582
 21
920.41493006303369
  0
LINE
  8
_0-2_線色２__白__
  6
CONTINUOUS
 62
    7
 10
827.73861322750236
 20
920.84683344327061
 11
827.62792580364476
 21
920.6310699022896
  0
LINE
  8
_0-2_線色２__白__
  6
CONTINUOUS
 62
    7
 10
827.84962983674859
 20
921.06198270434504
 11
827.73861322750236
 21
920.84683344327061
  0
LINE
  8
_0-2_線色２__白__
  6
CONTINUOUS
 62
    7
 10
827.96174438511343
 20
921.27627970388232
 11
827.84962983674859
 21
921.06198270434504
  0
LINE
  8
_0-2_線色２__白__
  6
CONTINUOUS
 62
    7
 10
828.07572562632231
 20
921.48948646024962
 11
827.96174438511343
 21
921.27627970388232
  0
LINE
  8
_0-2_線色２__白__
  6
CONTINUOUS
 62
    7
 10
828.1429929938281
 20
921.61255305238626
 11
828.07572562632231
 21
921.48948646024962
  0
LINE
  8
_0-2_線色２__白__
  6
CONTINUOUS
 62
    7
 10
828.20688332068812
 20
921.72723184941503
 11
828.1429929938281
 21
921.61255305238626
  0
LINE
  8
_0-2_線色２__白__
  6
CONTINUOUS
 62
    7
 10
828.31983617425522
 20
921.92348584819854
 11
828.20688332068812
 21
921.72723184941503
  0
LINE
  8
_0-2_線色２__白__
  6
CONTINUOUS
 62
    7
 10
828.43733693842523
 20
922.11719501734194
 11
828.31983617425522
 21
921.92348584819854
  0
LINE
  8
_0-2_線色２__白__
  6
CONTINUOUS
 62
    7
 10
828.56055684041166
 20
922.30756107843092
 11
828.43733693842523
 21
922.11719501734194
  0
LINE
  8
_0-2_線色２__白__
  6
CONTINUOUS
 62
    7
 10
828.69066710743027
 20
922.49378575305116
 11
828.56055684041166
 21
922.30756107843092
  0
LINE
  8
_0-2_線色２__白__
  6
CONTINUOUS
 62
    7
 10
828.8288389666991
 20
922.67507076278719
 11
828.69066710743027
 21
922.49378575305116
  0
LINE
  8
_0-2_線色２__白__
  6
CONTINUOUS
 62
    7
 10
828.91313399107048
 20
922.7776381507789
 11
828.8288389666991
 21
922.67507076278719
  0
LINE
  8
_0-2_線色２__白__
  6
CONTINUOUS
 62
    7
 10
828.98857607105583
 20
922.86449185477579
 11
828.91313399107048
 21
922.7776381507789
  0
LINE
  8
_0-2_線色２__白__
  6
CONTINUOUS
 62
    7
 10
829.12448552426213
 20
923.00951368410495
 11
828.98857607105583
 21
922.86449185477579
  0
LINE
  8
_0-2_線色２__白__
  6
CONTINUOUS
 62
    7
 10
829.26777986462639
 20
923.146931089953
 11
829.12448552426213
 21
923.00951368410495
  0
LINE
  8
_0-2_線色２__白__
  6
CONTINUOUS
 62
    7
 10
829.41845491104459
 20
923.27485776326682
 11
829.26777986462639
 21
923.146931089953
  0
LINE
  8
_0-2_線色２__白__
  6
CONTINUOUS
 62
    7
 10
829.5765064824036
 20
923.39140739499896
 11
829.41845491104459
 21
923.27485776326682
  0
LINE
  8
_0-2_線色２__白__
  6
CONTINUOUS
 62
    7
 10
829.74193039759484
 20
923.49469367609743
 11
829.5765064824036
 21
923.39140739499896
  0
LINE
  8
_0-2_線色２__白__
  6
CONTINUOUS
 62
    7
 10
829.84125262877342
 20
923.54777914802128
 11
829.74193039759484
 21
923.49469367609743
  0
LINE
  8
_0-2_線色２__白__
  6
CONTINUOUS
 62
    7
 10
829.95179045489294
 20
923.59938908867832
 11
829.84125262877342
 21
923.54777914802128
  0
LINE
  8
_0-2_線色２__白__
  6
CONTINUOUS
 62
    7
 10
830.14828443049282
 20
923.67528862241159
 11
829.95179045489294
 21
923.59938908867832
  0
LINE
  8
_0-2_線色２__白__
  6
CONTINUOUS
 62
    7
 10
830.35083763034891
 20
923.73769678931069
 11
830.14828443049282
 21
923.67528862241159
  0
LINE
  8
_0-2_線色２__白__
  6
CONTINUOUS
 62
    7
 10
830.55779457961535
 20
923.79018283101402
 11
830.35083763034891
 21
923.73769678931069
  0
LINE
  8
_0-2_線色２__白__
  6
CONTINUOUS
 62
    7
 10
830.76749980345312
 20
923.83631598916338
 11
830.55779457961535
 21
923.79018283101402
  0
LINE
  8
_0-2_線色２__白__
  6
CONTINUOUS
 62
    7
 10
830.97829782701638
 20
923.87966550539829
 11
830.76749980345312
 21
923.83631598916338
  0
LINE
  8
_0-2_線色２__白__
  6
CONTINUOUS
 62
    7
 10
831.10040905834467
 20
923.90493922689586
 11
830.97829782701638
 21
923.87966550539829
  0
LINE
  8
_0-2_線色２__白__
  6
CONTINUOUS
 62
    7
 10
831.20797128388176
 20
923.92792101378348
 11
831.10040905834467
 21
923.90493922689586
  0
LINE
  8
_0-2_線色２__白__
  6
CONTINUOUS
 62
    7
 10
831.39269082180817
 20
923.96836501135851
 11
831.20797128388176
 21
923.92792101378348
  0
LINE
  8
_0-2_線色２__白__
  6
CONTINUOUS
 62
    7
 10
831.57679641783034
 20
924.00842267606492
 11
831.39269082180817
 21
923.96836501135851
  0
LINE
  8
_0-2_線色２__白__
  6
CONTINUOUS
 62
    7
 10
831.76065245368818
 20
924.04643750209232
 11
831.57679641783034
 21
924.00842267606492
  0
LINE
  8
_0-2_線色２__白__
  6
CONTINUOUS
 62
    7
 10
831.94462331112845
 20
924.08075298363144
 11
831.76065245368818
 21
924.04643750209232
  0
LINE
  8
_0-2_線色２__白__
  6
CONTINUOUS
 62
    7
 10
832.1290733718979
 20
924.10971261487191
 11
831.94462331112845
 21
924.08075298363144
  0
LINE
  8
_0-2_線色２__白__
  6
CONTINUOUS
 62
    7
 10
832.23641756346524
 20
924.12340240095716
 11
832.1290733718979
 21
924.10971261487191
  0
LINE
  8
_0-2_線色２__白__
  6
CONTINUOUS
 62
    7
 10
832.38296903969967
 20
924.13783900973783
 11
832.23641756346524
 21
924.12340240095716
  0
LINE
  8
_0-2_線色２__白__
  6
CONTINUOUS
 62
    7
 10
832.63693422669121
 20
924.15190815773997
 11
832.38296903969967
 21
924.13783900973783
  0
LINE
  8
_0-2_線色２__白__
  6
CONTINUOUS
 62
    7
 10
832.89215201612478
 20
924.1535378649877
 11
832.63693422669121
 21
924.15190815773997
  0
LINE
  8
_0-2_線色２__白__
  6
CONTINUOUS
 62
    7
 10
833.14817985275567
 20
924.14419177380012
 11
832.89215201612478
 21
924.1535378649877
  0
LINE
  8
_0-2_線色２__白__
  6
CONTINUOUS
 62
    7
 10
833.4045751813369
 20
924.12533352650087
 11
833.14817985275567
 21
924.14419177380012
  0
LINE
  8
_0-2_線色２__白__
  6
CONTINUOUS
 62
    7
 10
833.66089544662373
 20
924.09842676541246
 11
833.4045751813369
 21
924.12533352650087
  0
LINE
  8
_0-2_線色２__白__
  6
CONTINUOUS
 62
    7
 10
833.80935241670613
 20
924.07970976614536
 11
833.66089544662373
 21
924.09842676541246
  0
LINE
  8
_0-2_線色２__白__
  6
CONTINUOUS
 62
    7
 10
833.932121264736
 20
924.06265640010986
 11
833.80935241670613
 21
924.07970976614536
  0
LINE
  8
_0-2_線色２__白__
  6
CONTINUOUS
 62
    7
 10
834.14296430829154
 20
924.02930368447471
 11
833.932121264736
 21
924.06265640010986
  0
LINE
  8
_0-2_線色２__白__
  6
CONTINUOUS
 62
    7
 10
834.3521437000004
 20
923.98967908936527
 11
834.14296430829154
 21
924.02930368447471
  0
LINE
  8
_0-2_線色２__白__
  6
CONTINUOUS
 62
    7
 10
834.55894277680954
 20
923.94230421563464
 11
834.3521437000004
 21
923.98967908936527
  0
LINE
  8
_0-2_線色２__白__
  6
CONTINUOUS
 62
    7
 10
834.76264487566823
 20
923.88570066413706
 11
834.55894277680954
 21
923.94230421563464
  0
LINE
  8
_0-2_線色２__白__
  6
CONTINUOUS
 62
    7
 10
834.96253333352115
 20
923.81839003572338
 11
834.76264487566823
 21
923.88570066413706
  0
LINE
  8
_0-2_線色２__白__
  6
CONTINUOUS
 62
    7
 10
835.07643882626098
 20
923.77386132245931
 11
834.96253333352115
 21
923.81839003572338
  0
LINE
  8
_0-2_線色２__白__
  6
CONTINUOUS
 62
    7
 10
835.17783508742923
 20
923.72997905153909
 11
835.07643882626098
 21
923.77386132245931
  0
LINE
  8
_0-2_線色２__白__
  6
CONTINUOUS
 62
    7
 10
835.34943318503338
 20
923.6464708710281
 11
835.17783508742923
 21
923.72997905153909
  0
LINE
  8
_0-2_線色２__白__
  6
CONTINUOUS
 62
    7
 10
835.51689082706389
 20
923.55385047574089
 11
835.34943318503338
 21
923.6464708710281
  0
LINE
  8
_0-2_線色２__白__
  6
CONTINUOUS
 62
    7
 10
835.68013748429166
 20
923.45307524431462
 11
835.51689082706389
 21
923.55385047574089
  0
LINE
  8
_0-2_線色２__白__
  6
CONTINUOUS
 62
    7
 10
835.83910262748077
 20
923.34510255538419
 11
835.68013748429166
 21
923.45307524431462
  0
LINE
  8
_0-2_線色２__白__
  6
CONTINUOUS
 62
    7
 10
835.9937157274021
 20
923.23088978758335
 11
835.83910262748077
 21
923.34510255538419
  0
LINE
  8
_0-2_線色２__白__
  6
CONTINUOUS
 62
    7
 10
836.08136942694273
 20
923.16216443508722
 11
835.9937157274021
 21
923.23088978758335
  0
LINE
  8
_0-2_線色２__白__
  6
CONTINUOUS
 62
    7
 10
836.1785968685308
 20
923.08261462780649
 11
836.08136942694273
 21
923.16216443508722
  0
LINE
  8
_0-2_線色２__白__
  6
CONTINUOUS
 62
    7
 10
836.34212171191166
 20
922.9411513749784
 11
836.1785968685308
 21
923.08261462780649
  0
LINE
  8
_0-2_線色２__白__
  6
CONTINUOUS
 62
    7
 10
836.50103566801818
 20
922.79492464458201
 11
836.34212171191166
 21
922.9411513749784
  0
LINE
  8
_0-2_線色２__白__
  6
CONTINUOUS
 62
    7
 10
836.65602474752177
 20
922.64473700566157
 11
836.50103566801818
 21
922.79492464458201
  0
LINE
  8
_0-2_線色２__白__
  6
CONTINUOUS
 62
    7
 10
836.80777496109158
 20
922.49139102726133
 11
836.65602474752177
 21
922.64473700566157
  0
LINE
  8
_0-2_線色２__白__
  6
CONTINUOUS
 62
    7
 10
836.95697231939903
 20
922.33568927842896
 11
836.80777496109158
 21
922.49139102726133
  0
LINE
  8
_0-2_線色２__白__
  6
CONTINUOUS
 62
    7
 10
837.04260739281381
 20
922.24461910403022
 11
836.95697231939903
 21
922.33568927842896
  0
LINE
  8
_0-2_線色２__白__
  6
CONTINUOUS
 62
    7
 10
837.1239632907259
 20
922.15719601102307
 11
837.04260739281381
 21
922.24461910403022
  0
LINE
  8
_0-2_線色２__白__
  6
CONTINUOUS
 62
    7
 10
837.26301238603355
 20
922.00545076776791
 11
837.1239632907259
 21
922.15719601102307
  0
LINE
  8
_0-2_線色２__白__
  6
CONTINUOUS
 62
    7
 10
837.40027628285816
 20
921.85207078068117
 11
837.26301238603355
 21
922.00545076776791
  0
LINE
  8
_0-2_線色２__白__
  6
CONTINUOUS
 62
    7
 10
837.53547442098579
 20
921.69665028721454
 11
837.40027628285816
 21
921.85207078068117
  0
LINE
  8
_0-2_線色２__白__
  6
CONTINUOUS
 62
    7
 10
837.66832624020708
 20
921.53878352482423
 11
837.53547442098579
 21
921.69665028721454
  0
LINE
  8
_0-2_線色２__白__
  6
CONTINUOUS
 62
    7
 10
837.79855118031037
 20
921.37806473096191
 11
837.66832624020708
 21
921.53878352482423
  0
LINE
  8
_0-2_線色２__白__
  6
CONTINUOUS
 62
    7
 10
837.87276745424606
 20
921.28338113816028
 11
837.79855118031037
 21
921.37806473096191
  0
LINE
  8
_0-2_線色２__白__
  6
CONTINUOUS
 62
    7
 10
837.93497503392473
 20
921.20201329095551
 11
837.87276745424606
 21
921.28338113816028
  0
LINE
  8
_0-2_線色２__白__
  6
CONTINUOUS
 62
    7
 10
838.03967437224173
 20
921.05958411015934
 11
837.93497503392473
 21
921.20201329095551
  0
LINE
  8
_0-2_線色２__白__
  6
CONTINUOUS
 62
    7
 10
838.13992346938676
 20
920.91422306838638
 11
838.03967437224173
 21
921.05958411015934
  0
LINE
  8
_0-2_線色２__白__
  6
CONTINUOUS
 62
    7
 10
838.23430845853409
 20
920.76567055258636
 11
838.13992346938676
 21
920.91422306838638
  0
LINE
  8
_0-2_線色２__白__
  6
CONTINUOUS
 62
    7
 10
838.32141547286028
 20
920.61366694970559
 11
838.23430845853409
 21
920.76567055258636
  0
LINE
  8
_0-2_線色２__白__
  6
CONTINUOUS
 62
    7
 10
838.3998306455419
 20
920.45795264669266
 11
838.32141547286028
 21
920.61366694970559
  0
LINE
  8
_0-2_線色２__白__
  6
CONTINUOUS
 62
    7
 10
838.44077170680521
 20
920.36583580710214
 11
838.3998306455419
 21
920.45795264669266
  0
LINE
  8
_0-2_線色２__白__
  6
CONTINUOUS
 62
    7
 10
838.48799540509845
 20
920.24587070410973
 11
838.44077170680521
 21
920.36583580710214
  0
LINE
  8
_0-2_線色２__白__
  6
CONTINUOUS
 62
    7
 10
838.55691054808858
 20
920.03431777229082
 11
838.48799540509845
 21
920.24587070410973
  0
LINE
  8
_0-2_線色２__白__
  6
CONTINUOUS
 62
    7
 10
838.61249894561752
 20
919.81773836363288
 11
838.55691054808858
 21
920.03431777229082
  0
LINE
  8
_0-2_線色２__白__
  6
CONTINUOUS
 62
    7
 10
838.65767036744273
 20
919.59722996216158
 11
838.61249894561752
 21
919.81773836363288
  0
LINE
  8
_0-2_線色２__白__
  6
CONTINUOUS
 62
    7
 10
838.69533458330807
 20
919.37389005190369
 11
838.65767036744273
 21
919.59722996216158
  0
LINE
  8
_0-2_線色２__白__
  6
CONTINUOUS
 62
    7
 10
838.72840136296873
 20
919.14881611688486
 11
838.69533458330807
 21
919.37389005190369
  0
LINE
  8
_0-2_線色２__白__
  6
CONTINUOUS
 62
    7
 10
838.74662015049125
 20
919.01791117020423
 11
838.72840136296873
 21
919.14881611688486
  0
LINE
  8
_0-4_線色４__黄__
  6
CONTINUOUS
 62
    2
 10
832.7494880835593
 20
919.01791117020423
 11
832.7494880835593
 21
914.01791117020423
  0
LINE
  8
_0-2_線色２__白__
  6
CONTINUOUS
 62
    7
 10
959.53527467667982
 20
909.36676238327834
 11
977.5352746766805
 21
909.36676238327834
  0
LINE
  8
_0-2_線色２__白__
  6
CONTINUOUS
 62
    7
 10
977.5352746766805
 20
510.56676238327952
 11
977.5352746766805
 21
909.36676238327834
  0
LINE
  8
_0-d_断熱__ハッチ
  6
CONTINUOUS
 62
    4
 10
969.53161091219044
 20
510.56676238327839
 11
977.53527467668164
 21
518.57042614776958
  0
LINE
  8
_0-d_断熱__ハッチ
  6
CONTINUOUS
 62
    4
 10
960.735274676681
 20
512.37702786556781
 11
977.53527467668164
 21
529.17702786556845
  0
LINE
  8
_0-d_断熱__ハッチ
  6
CONTINUOUS
 62
    4
 10
960.73527467667873
 20
522.98362958336327
 11
977.53527467667936
 21
539.78362958336277
  0
LINE
  8
_0-d_断熱__ハッチ
  6
CONTINUOUS
 62
    4
 10
960.73527467667873
 20
533.59023130115645
 11
977.53527467668164
 21
550.39023130115936
  0
LINE
  8
_0-d_断熱__ハッチ
  6
CONTINUOUS
 62
    4
 10
960.73527467667873
 20
544.19683301895645
 11
977.53527467667936
 21
560.99683301895936
  0
LINE
  8
_0-d_断熱__ハッチ
  6
CONTINUOUS
 62
    4
 10
960.73527467667873
 20
554.80343473675759
 11
977.53527467668164
 21
571.60343473676051
  0
LINE
  8
_0-d_断熱__ハッチ
  6
CONTINUOUS
 62
    4
 10
960.735274676681
 20
565.41003645455874
 11
977.53527467668164
 21
582.21003645455937
  0
LINE
  8
_0-d_断熱__ハッチ
  6
CONTINUOUS
 62
    4
 10
960.735274676681
 20
576.01663817235533
 11
977.53527467667936
 21
592.81663817235483
  0
LINE
  8
_0-d_断熱__ハッチ
  6
CONTINUOUS
 62
    4
 10
960.735274676681
 20
586.62323989014965
 11
977.53527467668164
 21
603.42323989015028
  0
LINE
  8
_0-d_断熱__ハッチ
  6
CONTINUOUS
 62
    4
 10
960.73527467667986
 20
597.22984160794965
 11
977.53527467668164
 21
614.02984160795029
  0
LINE
  8
_0-d_断熱__ハッチ
  6
CONTINUOUS
 62
    4
 10
960.73527467667873
 20
607.83644332574966
 11
977.53527467668164
 21
624.63644332575143
  0
LINE
  8
_0-d_断熱__ハッチ
  6
CONTINUOUS
 62
    4
 10
959.53527467668209
 20
617.24304504355075
 11
977.53527467668164
 21
635.2430450435503
  0
LINE
  8
_0-d_断熱__ハッチ
  6
CONTINUOUS
 62
    4
 10
959.53527467667982
 20
627.84964676134507
 11
977.5352746766805
 21
645.84964676134575
  0
LINE
  8
_0-d_断熱__ハッチ
  6
CONTINUOUS
 62
    4
 10
959.53527467668209
 20
638.45624847914166
 11
977.53527467668164
 21
656.45624847914235
  0
LINE
  8
_0-d_断熱__ハッチ
  6
CONTINUOUS
 62
    4
 10
959.53527467667982
 20
649.06285019694167
 11
977.53527467668164
 21
667.06285019694121
  0
LINE
  8
_0-d_断熱__ハッチ
  6
CONTINUOUS
 62
    4
 10
959.53527467667982
 20
659.6694519147394
 11
977.53527467668164
 21
677.66945191474235
  0
LINE
  8
_0-d_断熱__ハッチ
  6
CONTINUOUS
 62
    4
 10
959.53527467668209
 20
670.27605363254168
 11
977.5352746766805
 21
688.27605363254122
  0
LINE
  8
_0-d_断熱__ハッチ
  6
CONTINUOUS
 62
    4
 10
959.53527467667982
 20
680.88265535033713
 11
977.5352746766805
 21
698.88265535033668
  0
LINE
  8
_0-d_断熱__ハッチ
  6
CONTINUOUS
 62
    4
 10
959.53527467668209
 20
691.48925706813259
 11
977.53527467668164
 21
709.48925706813441
  0
LINE
  8
_0-d_断熱__ハッチ
  6
CONTINUOUS
 62
    4
 10
959.53527467667982
 20
702.09585878593259
 11
977.53527467668164
 21
720.09585878593214
  0
LINE
  8
_0-d_断熱__ハッチ
  6
CONTINUOUS
 62
    4
 10
959.53527467667982
 20
712.70246050373032
 11
977.53527467668164
 21
730.70246050373441
  0
LINE
  8
_0-d_断熱__ハッチ
  6
CONTINUOUS
 62
    4
 10
959.53527467668209
 20
723.3090622215326
 11
977.53527467668164
 21
741.30906222153214
  0
LINE
  8
_0-d_断熱__ハッチ
  6
CONTINUOUS
 62
    4
 10
959.53527467668096
 20
733.91566393932806
 11
977.53527467668164
 21
751.9156639393276
  0
LINE
  8
_0-d_断熱__ハッチ
  6
CONTINUOUS
 62
    4
 10
959.53527467668209
 20
744.52226565712351
 11
977.53527467668277
 21
762.52226565712533
  0
LINE
  8
_0-d_断熱__ハッチ
  6
CONTINUOUS
 62
    4
 10
959.53527467667982
 20
755.12886737492352
 11
977.53527467668164
 21
773.1288673749242
  0
LINE
  8
_0-d_断熱__ハッチ
  6
CONTINUOUS
 62
    4
 10
959.53527467667982
 20
765.73546909272125
 11
977.53527467668164
 21
783.7354690927242
  0
LINE
  8
_0-d_断熱__ハッチ
  6
CONTINUOUS
 62
    4
 10
959.53527467668209
 20
776.34207081052352
 11
977.53527467668164
 21
794.34207081052307
  0
LINE
  8
_0-d_断熱__ハッチ
  6
CONTINUOUS
 62
    4
 10
959.53527467668209
 20
786.94867252831898
 11
977.53527467668164
 21
804.94867252831966
  0
LINE
  8
_0-d_断熱__ハッチ
  6
CONTINUOUS
 62
    4
 10
959.53527467668209
 20
797.55527424611444
 11
977.5352746766805
 21
815.55527424611398
  0
LINE
  8
_0-d_断熱__ハッチ
  6
CONTINUOUS
 62
    4
 10
959.53527467667982
 20
808.16187596391444
 11
977.53527467668164
 21
826.16187596391626
  0
LINE
  8
_0-d_断熱__ハッチ
  6
CONTINUOUS
 62
    4
 10
959.53527467667982
 20
818.76847768171217
 11
977.53527467668164
 21
836.76847768171513
  0
LINE
  8
_0-d_断熱__ハッチ
  6
CONTINUOUS
 62
    4
 10
959.53527467668209
 20
829.37507939951445
 11
977.53527467668164
 21
847.37507939951399
  0
LINE
  8
_0-d_断熱__ハッチ
  6
CONTINUOUS
 62
    4
 10
959.53527467668209
 20
839.98168111731559
 11
977.53527467668164
 21
857.98168111731627
  0
LINE
  8
_0-d_断熱__ハッチ
  6
CONTINUOUS
 62
    4
 10
959.53527467668209
 20
850.58828283510536
 11
977.53527467668164
 21
868.58828283510491
  0
LINE
  8
_0-d_断熱__ハッチ
  6
CONTINUOUS
 62
    4
 10
959.53527467667982
 20
861.19488455290536
 11
977.53527467668277
 21
879.19488455290718
  0
LINE
  8
_0-d_断熱__ハッチ
  6
CONTINUOUS
 62
    4
 10
959.53527467667982
 20
871.80148627070309
 11
977.53527467668164
 21
889.80148627070605
  0
LINE
  8
_0-d_断熱__ハッチ
  6
CONTINUOUS
 62
    4
 10
959.53527467668209
 20
882.40808798850537
 11
977.53527467668164
 21
900.40808798850492
  0
LINE
  8
_0-d_断熱__ハッチ
  6
CONTINUOUS
 62
    4
 10
959.53527467667982
 20
893.01468970630538
 11
975.88734735365506
 21
909.36676238327834
  0
LINE
  8
_0-d_断熱__ハッチ
  6
CONTINUOUS
 62
    4
 10
959.53527467668209
 20
903.62129142409628
 11
965.28074563586188
 21
909.36676238327834
  0
LINE
  8
_0-5_金属
  6
CONTINUOUS
 62
    7
 10
1189.9331697766752
 20
508.1281113850099
 11
1197.8253197766753
 21
497.24546138501012
  0
LINE
  8
_0-5_金属
  6
CONTINUOUS
 62
    7
 10
1213.1367197766758
 20
460.61281138500988
 11
1193.0388197766752
 21
488.49581138500923
  0
LINE
  8
_0-5_金属
  6
CONTINUOUS
 62
    7
 10
1195.2873697766745
 20
493.45701138500942
 11
1195.4864697766743
 21
493.47291138501021
  0
LINE
  8
_0-5_金属
  6
CONTINUOUS
 62
    7
 10
1195.3830197766752
 20
492.26086138500989
 11
1195.5823197766745
 21
492.27681138501055
  0
LINE
  8
_0-5_金属
  6
CONTINUOUS
 62
    7
 10
1214.1102197766747
 20
461.31446138501076
 11
1194.0122697766753
 21
489.19751138500999
  0
LINE
  8
_0-5_金属
  6
CONTINUOUS
 62
    7
 10
1188.9617197766756
 20
507.42361138501053
 11
1196.8538697766746
 21
496.54101138501062
  0
LINE
  8
_0-5_金属
  6
CONTINUOUS
 62
    7
 10
1140.2814197766747
 20
509.36676138501014
 11
1187.5045697766745
 21
509.36676138501014
  0
LINE
  8
_0-5_金属
  6
CONTINUOUS
 62
    7
 10
1140.2816697766752
 20
508.16681138500996
 11
1187.5045697766745
 21
508.16681138500996
  0
LINE
  8
_0-5_金属
  6
CONTINUOUS
 62
    7
 10
976.53531977667512
 20
472.36676138500968
 11
990.33511977667558
 21
472.36676138500968
  0
LINE
  8
_0-5_金属
  6
CONTINUOUS
 62
    7
 10
991.42761977667533
 20
467.49186138500988
 11
987.98661977667507
 21
465.24716138500992
  0
LINE
  8
_0-5_金属
  6
CONTINUOUS
 62
    7
 10
992.08321977667538
 20
466.4868113850099
 11
988.64226977667499
 21
464.24216138500981
  0
LINE
  8
_0-5_金属
  6
CONTINUOUS
 62
    7
 10
976.53531977667512
 20
471.16681138500951
 11
990.33511977667558
 21
471.16681138500951
  0
LINE
  8
_0-5_金属
  6
CONTINUOUS
 62
    7
 10
959.53527467667982
 20
459.36676138501014
 11
1109.5352746766798
 21
459.36676138501014
  0
LINE
  8
_0-5_金属
  6
CONTINUOUS
 62
    7
 10
1055.2443197766752
 20
497.24556138500986
 11
1063.1364697766753
 21
508.1281113850099
  0
LINE
  8
_0-5_金属
  6
CONTINUOUS
 62
    7
 10
1060.0307697766755
 20
488.49581138500923
 11
1039.9327697766751
 21
460.61276138501
  0
LINE
  8
_0-5_金属
  6
CONTINUOUS
 62
    7
 10
1057.5831197766752
 20
493.47301138500995
 11
1057.782219776675
 21
493.45706138501043
  0
LINE
  8
_0-5_金属
  6
CONTINUOUS
 62
    7
 10
1057.4871197766754
 20
492.27671138500966
 11
1057.6863697766748
 21
492.26071138501027
  0
LINE
  8
_0-5_金属
  6
CONTINUOUS
 62
    7
 10
1059.0573197766753
 20
489.1974113850091
 11
1038.9593197766749
 21
461.31441138500975
  0
LINE
  8
_0-5_金属
  6
CONTINUOUS
 62
    7
 10
1056.2157697766747
 20
496.54111138501037
 11
1064.1078197766751
 21
507.42361138501053
  0
LINE
  8
_0-5_金属
  6
CONTINUOUS
 62
    7
 10
989.73526977667461
 20
460.56696138500968
 11
1037.4991697766745
 21
460.56696138500968
  0
LINE
  8
_0-5_金属
  6
CONTINUOUS
 62
    7
 10
1065.5651197766747
 20
509.36676138501014
 11
1112.788969776675
 21
509.36676138501014
  0
LINE
  8
_0-5_金属
  6
CONTINUOUS
 62
    7
 10
1065.5651197766747
 20
508.16681138500996
 11
1112.788969776675
 21
508.16681138500996
  0
LINE
  8
_0-5_金属
  6
CONTINUOUS
 62
    7
 10
962.73526977667416
 20
472.36676138500968
 11
976.53531977667512
 21
472.36676138500968
  0
LINE
  8
_0-5_金属
  6
CONTINUOUS
 62
    7
 10
962.73526977667416
 20
471.16681138500951
 11
976.53531977667512
 21
471.16681138500951
  0
LINE
  8
_0-5_金属
  6
CONTINUOUS
 62
    7
 10
960.73551977667535
 20
469.16681138501019
 11
960.73551977667535
 21
467.96686138501002
  0
LINE
  8
_0-5_金属
  6
CONTINUOUS
 62
    7
 10
959.53556977667404
 20
469.16681138501019
 11
959.53556977667404
 21
467.96686138501002
  0
LINE
  8
_0-5_金属
  6
CONTINUOUS
 62
    7
 10
960.38596977667567
 20
465.36726138501024
 11
961.35421977667534
 21
466.07646138500911
  0
LINE
  8
_0-5_金属
  6
CONTINUOUS
 62
    7
 10
959.53581977667454
 20
467.96691138500989
 11
963.93596977667585
 21
467.96691138500989
  0
LINE
  8
_0-5_金属
  6
CONTINUOUS
 62
    7
 10
963.93541977667496
 20
467.96691138500989
 11
960.38561977667541
 21
465.36686138501011
  0
LINE
  8
_0-5_金属
  6
CONTINUOUS
 62
    7
 10
1125.2595197766755
 20
498.09631138501061
 11
1114.9145197766757
 21
508.48356138500947
  0
LINE
  8
_0-5_金属
  6
CONTINUOUS
 62
    7
 10
1124.4092197766759
 20
497.24951138501012
 11
1114.0642697766748
 21
507.63671138500911
  0
LINE
  8
_0-5_金属
  6
CONTINUOUS
 62
    7
 10
1138.155519776675
 20
508.48381138500997
 11
1127.8101697766749
 21
498.0962613850096
  0
LINE
  8
_0-5_金属
  6
CONTINUOUS
 62
    7
 10
1139.0060197766752
 20
507.63701138501062
 11
1128.6605697766754
 21
497.24931138500949
  0
ARC
  8
_0-5_金属
  6
CONTINUOUS
 62
    7
 10
1195.2347697766754
 20
495.36676138500923
 40
3.1999969500000001
 50
0.000035
 51
35.949935000000004
  0
ARC
  8
_0-5_金属
  6
CONTINUOUS
 62
    7
 10
1195.2347697766754
 20
495.36676138500923
 40
1.9999961500000005
 50
0.000035
 51
35.949717000000007
  0
ARC
  8
_0-5_金属
  6
CONTINUOUS
 62
    7
 10
1195.6346697766753
 20
490.36676138500923
 40
2.0000114
 50
180.00009000000003
 51
216.07594000000003
  0
ARC
  8
_0-5_金属
  6
CONTINUOUS
 62
    7
 10
1195.534819776675
 20
490.36676138500923
 40
3.1000213500000005
 50
94.576591000000008
 51
179.99990000000003
  0
ARC
  8
_0-5_金属
  6
CONTINUOUS
 62
    7
 10
1195.3346197766746
 20
495.36676138500923
 40
3.0999907999999996
 50
274.58181000000002
 51
359.99996000000004
  0
ARC
  8
_0-5_金属
  6
CONTINUOUS
 62
    7
 10
1195.6346697766753
 20
490.36676138500923
 40
3.2000122000000002
 50
180.00009000000003
 51
215.78394000000003
  0
ARC
  8
_0-5_金属
  6
CONTINUOUS
 62
    7
 10
1195.3346197766746
 20
495.36676138500923
 40
1.8999938500000002
 50
274.57776999999999
 51
359.99995999999999
  0
ARC
  8
_0-5_金属
  6
CONTINUOUS
 62
    7
 10
1195.534819776675
 20
490.36676138500923
 40
1.9000091499999998
 50
94.580906999999996
 51
179.9999
  0
ARC
  8
_0-5_金属
  6
CONTINUOUS
 62
    7
 10
1215.5704697766748
 20
462.36701138501019
 40
1.7999992
 50
215.78405000000001
 51
270.00022999999999
  0
ARC
  8
_0-5_金属
  6
CONTINUOUS
 62
    7
 10
1215.5704697766748
 20
462.36701138501019
 40
2.9999989999999999
 50
215.78405000000001
 51
270.00022999999999
  0
ARC
  8
_0-5_金属
  6
CONTINUOUS
 62
    7
 10
1187.5045697766745
 20
506.36676138501059
 40
1.7999992
 50
35.949661999999996
 51
89.999489999999994
  0
ARC
  8
_0-5_金属
  6
CONTINUOUS
 62
    7
 10
1187.5045697766745
 20
506.36676138501059
 40
3.0000000000000004
 50
35.949770999999998
 51
89.999654000000007
  0
ARC
  8
_0-5_金属
  6
CONTINUOUS
 62
    7
 10
989.73501977667524
 20
462.56696138501013
 40
3.2000007500000005
 50
123.11782000000001
 51
269.99982999999997
  0
ARC
  8
_0-5_金属
  6
CONTINUOUS
 62
    7
 10
990.33486977667508
 20
469.16681138501019
 40
3.1999998000000001
 50
0.000035
 51
89.999927
  0
ARC
  8
_0-5_金属
  6
CONTINUOUS
 62
    7
 10
990.33486977667508
 20
469.16681138501019
 40
1.9999990000000001
 50
0.000035
 51
89.999927
  0
ARC
  8
_0-5_金属
  6
CONTINUOUS
 62
    7
 10
989.73501977667524
 20
462.56696138501013
 40
2
 50
123.11782000000001
 51
269.99982999999997
  0
ARC
  8
_0-5_金属
  6
CONTINUOUS
 62
    7
 10
990.33486977667508
 20
469.16681138501019
 40
1.9999990000000001
 50
303.11781999999999
 51
359.99995999999999
  0
ARC
  8
_0-5_金属
  6
CONTINUOUS
 62
    7
 10
990.33486977667508
 20
469.16681138501019
 40
3.1999998000000001
 50
303.11781999999999
 51
359.99995999999999
  0
ARC
  8
_0-5_金属
  6
CONTINUOUS
 62
    7
 10
1057.8348697766751
 20
495.36676138500923
 40
3.1999969500000001
 50
144.05005000000003
 51
179.99995999999999
  0
ARC
  8
_0-5_金属
  6
CONTINUOUS
 62
    7
 10
1057.8348697766751
 20
495.36676138500923
 40
1.9999961500000005
 50
144.05027000000001
 51
179.99995999999999
  0
ARC
  8
_0-5_金属
  6
CONTINUOUS
 62
    7
 10
1057.4347197766747
 20
490.36676138500923
 40
2.0000114
 50
323.92410000000001
 51
359.99995999999999
  0
ARC
  8
_0-5_金属
  6
CONTINUOUS
 62
    7
 10
1057.5348197766743
 20
490.36676138500923
 40
3.1000213500000005
 50
0.000035
 51
85.42326300000002
  0
ARC
  8
_0-5_金属
  6
CONTINUOUS
 62
    7
 10
1057.7347697766754
 20
495.36676138500923
 40
3.0999907999999996
 50
180.00009000000003
 51
265.41831999999999
  0
ARC
  8
_0-5_金属
  6
CONTINUOUS
 62
    7
 10
1057.4347197766747
 20
490.36676138500923
 40
3.2000122000000002
 50
324.21611000000001
 51
359.99995999999999
  0
ARC
  8
_0-5_金属
  6
CONTINUOUS
 62
    7
 10
1057.7347697766754
 20
495.36676138500923
 40
1.8999938500000002
 50
180.00009000000003
 51
265.42237
  0
ARC
  8
_0-5_金属
  6
CONTINUOUS
 62
    7
 10
1057.5348197766743
 20
490.36676138500923
 40
1.9000091499999998
 50
0.000035
 51
85.418946000000005
  0
ARC
  8
_0-5_金属
  6
CONTINUOUS
 62
    7
 10
1037.4991697766745
 20
462.36701138501019
 40
1.7999992
 50
269.99990000000003
 51
324.21600000000001
  0
ARC
  8
_0-5_金属
  6
CONTINUOUS
 62
    7
 10
1037.4991697766745
 20
462.36701138501019
 40
2.9999989999999999
 50
269.99990000000003
 51
324.21600000000001
  0
ARC
  8
_0-5_金属
  6
CONTINUOUS
 62
    7
 10
1065.5648697766742
 20
506.36676138501059
 40
1.7999992
 50
90.000364000000005
 51
144.05026999999998
  0
ARC
  8
_0-5_金属
  6
CONTINUOUS
 62
    7
 10
1065.5648697766742
 20
506.36676138501059
 40
3.0000000000000004
 50
90.000200000000021
 51
144.05016000000001
  0
ARC
  8
_0-5_金属
  6
CONTINUOUS
 62
    7
 10
962.73501977667593
 20
469.16681138501019
 40
3.1999998000000001
 50
89.999927
 51
179.99990000000003
  0
ARC
  8
_0-5_金属
  6
CONTINUOUS
 62
    7
 10
962.73501977667593
 20
469.16681138501019
 40
1.9999990000000001
 50
89.999927
 51
179.99990000000003
  0
ARC
  8
_0-5_金属
  6
CONTINUOUS
 62
    7
 10
963.93546977667484
 20
467.96686138501002
 40
3.2001952999999999
 50
180.00009000000003
 51
216.22260000000003
  0
ARC
  8
_0-5_金属
  6
CONTINUOUS
 62
    7
 10
963.93546977667484
 20
467.96686138501002
 40
4.4001951000000004
 50
180.00009000000003
 51
216.22041000000002
  0
ARC
  8
_0-5_金属
  6
CONTINUOUS
 62
    7
 10
1126.5348197766752
 20
499.36651138500963
 40
2.9999989999999999
 50
224.88328000000001
 51
315.11669999999998
  0
ARC
  8
_0-5_金属
  6
CONTINUOUS
 62
    7
 10
1126.5348197766752
 20
499.36651138500963
 40
1.79999825
 50
224.57187999999999
 51
315.11669999999998
  0
ARC
  8
_0-5_金属
  6
CONTINUOUS
 62
    7
 10
1112.7887197766745
 20
506.36676138501059
 40
1.7999992
 50
44.880642999999999
 51
89.996648000000008
  0
ARC
  8
_0-5_金属
  6
CONTINUOUS
 62
    7
 10
1112.7887197766745
 20
506.36676138501059
 40
3.0000000000000004
 50
44.881701999999997
 51
89.998013999999998
  0
ARC
  8
_0-5_金属
  6
CONTINUOUS
 62
    7
 10
1140.2811697766742
 20
506.36676138501059
 40
3.0000000000000004
 50
89.997741000000005
 51
135.11528999999999
  0
ARC
  8
_0-5_金属
  6
CONTINUOUS
 62
    7
 10
1140.2814197766747
 20
506.36676138501059
 40
1.7999992
 50
89.999435000000005
 51
135.11660000000001
  0
LINE
  8
ADD_LINE
  6
DOT
 62
    4
 10
976.53411977667474
 20
491.07881138501
 11
976.53411977667474
 21
414.97960274840523
  0
LINE
  8
ADD_LINE
  6
DOT
 62
    4
 10
1126.5344197766751
 20
525.46031138501064
 11
1126.5344197766751
 21
414.97960274840523
  0
LINE
  8
_0-5_金属
  6
CONTINUOUS
 62
    7
 10
1215.6007697766745
 20
459.36676138501014
 11
1239.452544776675
 21
459.36676138501014
  0
LINE
  8
_0-5_金属
  6
CONTINUOUS
 62
    7
 10
1215.5704697766748
 20
460.56696138500968
 11
1239.452544776675
 21
460.56696138500968
  0
LINE
  8
_0-a_文字
  6
CONTINUOUS
 62
    7
 10
1162.3299927216135
 20
434.36676138501014
 11
1182.3299927216135
 21
434.36676138501014
  0
LINE
  8
_0-a_文字
  6
CONTINUOUS
 62
    7
 10
1126.534519776676
 20
496.36633920659676
 11
1162.3299927216135
 21
434.36676138501014
  0
LINE
  8
_0-a_文字
  6
CONTINUOUS
 62
    7
 10
916.85650399171209
 20
1070.7250866029035
 11
936.85650399171209
 21
1070.7250866029035
  0
TEXT
  8
_0-a_文字
 62
    7
 10
941.85650399171209
 20
1063.2250866029035
 40
15.000000000000213
 41
0.9999999999999862
 50
0
  1
プルーフシーラー
  0
LINE
  8
_0-a_文字
  6
CONTINUOUS
 62
    7
 10
830.39488086115853
 20
920.96916243591124
 11
916.85650399171209
 21
1070.7250866029035
  0
LINE
  8
_0-2_線色２__白__
  6
CONTINUOUS
 62
    7
 10
1160.735274676681
 20
509.36676238327948
 11
1239.452544776675
 21
509.36676238327948
  0
LINE
  8
_0-d_断熱__ハッチ
  6
CONTINUOUS
 62
    4
 10
1226.0459203052915
 20
509.36676238327834
 11
1239.4525447766773
 21
522.77338685466418
  0
LINE
  8
_0-d_断熱__ハッチ
  6
CONTINUOUS
 62
    4
 10
977.53527467668164
 20
519.26760648203924
 11
986.23611877544022
 21
510.56676238327952
  0
LINE
  8
_0-5_金属
  6
CONTINUOUS
 62
    7
 10
959.53527467667982
 20
863.66676238327898
 11
959.53527467667982
 21
605.06676238327884
  0
LINE
  8
_0-2_線色２__白__
  6
CONTINUOUS
 62
    7
 10
977.5352746766805
 20
549.36676238327948
 11
1239.452544776675
 21
549.36676238327948
  0
LINE
  8
_0-2_線色２__白__
  6
CONTINUOUS
 62
    7
 10
977.5352746766805
 20
544.36676238327948
 11
1239.452544776675
 21
544.36676238327948
  0
LINE
  8
ADD_LINE
  6
DOT
 62
    4
 10
1010.0565063680165
 20
469.69854650825425
 11
1010.0565063680165
 21
559.31526625087088
  0
LINE
  8
_0-7_ビス
  6
CONTINUOUS
 62
    7
 10
1016.0565063680178
 20
552.43329578558985
 11
1016.0565063680178
 21
552.81791117020532
  0
LINE
  8
_0-7_ビス
  6
DASHED3
 62
    7
 10
1011.5239744842734
 20
550.26854163937685
 11
1012.6065222041666
 21
552.81791117020532
  0
LINE
  8
_0-7_ビス
  6
CONTINUOUS
 62
    7
 10
1004.0565063680174
 20
552.43329578558985
 11
1004.0565063680174
 21
552.81791117020532
  0
LINE
  8
_0-7_ビス
  6
DASHED3
 62
    7
 10
1008.5890382517618
 20
550.26854163937685
 11
1007.5064905318686
 21
552.81791117020532
  0
LINE
  8
_0-7_ビス
  6
CONTINUOUS
 62
    7
 10
1016.0565063680178
 20
552.43329578558985
 11
1004.0565063680174
 21
552.43329578558985
  0
LINE
  8
_0-7_ビス
  6
CONTINUOUS
 62
    7
 10
1016.0565063680178
 20
552.81791117020532
 11
1004.0565063680174
 21
552.81791117020532
  0
ARC
  8
_0-7_ビス
  6
DASHED3
 62
    7
 10
1010.0565063680165
 20
551.37908473764412
 40
1.8403175392666382
 50
217.11750793457031
 51
322.88247680664062
  0
LINE
  8
_0-7_ビス
  6
CONTINUOUS
 62
    7
 10
1014.1422928056431
 20
550.51908222321629
 11
1016.0565063680178
 21
552.43329578558985
  0
ARC
  8
_0-7_ビス
  6
CONTINUOUS
 62
    7
 10
1015.5565063680172
 20
549.10486866084341
 40
2
 50
135.00000000000153
 51
180.00000000000003
  0
LINE
  8
_0-7_ビス
  6
CONTINUOUS
 62
    7
 10
1005.9707199303898
 20
550.51908222321629
 11
1004.0565063680174
 21
552.43329578558985
  0
ARC
  8
_0-7_ビス
  6
CONTINUOUS
 62
    7
 10
1004.5565063680169
 20
549.10486866084341
 40
2
 50
0
 51
44.999999999998501
  0
LINE
  8
_0-7_ビス
  6
CONTINUOUS
 62
    7
 10
1013.5565063680178
 20
548.81791117020555
 11
1006.5565063680174
 21
548.81791117020555
  0
LINE
  8
_0-7_ビス
  6
CONTINUOUS
 62
    7
 10
1006.5565063680174
 20
479.83863711236779
 11
1010.0565063680165
 21
477.81791117020532
  0
LINE
  8
_0-7_ビス
  6
CONTINUOUS
 62
    7
 10
1006.5565063680174
 20
549.10486866084341
 11
1006.5565063680174
 21
479.83863711236779
  0
LINE
  8
_0-7_ビス
  6
CONTINUOUS
 62
    7
 10
1013.5565063680178
 20
483.31791117020487
 11
1006.5565063680174
 21
483.31791117020487
  0
LINE
  8
_0-7_ビス
  6
CONTINUOUS
 62
    7
 10
1013.5565063680178
 20
479.83863711236893
 11
1010.0565063680165
 21
477.81791117020532
  0
LINE
  8
_0-7_ビス
  6
CONTINUOUS
 62
    7
 10
1013.5565063680178
 20
549.10486866084341
 11
1013.5565063680178
 21
479.83863711236893
  0
LINE
  8
_0-7_ビス
  6
CONTINUOUS
 62
    7
 10
1013.5565063680178
 20
537.81791117020532
 11
1006.5565063680174
 21
537.81791117020532
  0
LINE
  8
_0-7_ビス
  6
CONTINUOUS
 62
    4
 10
1006.5565063680174
 20
536.61810781081101
 11
1011.034086809957
 21
537.81791117020532
  0
LINE
  8
_0-7_ビス
  6
CONTINUOUS
 62
    4
 10
1006.5565063680174
 20
524.31188728143354
 11
1013.5565063680178
 21
526.18759306152299
  0
LINE
  8
_0-7_ビス
  6
CONTINUOUS
 62
    4
 10
1006.5565063680174
 20
526.311887281434
 11
1013.5565063680178
 21
528.18759306152231
  0
LINE
  8
_0-7_ビス
  6
CONTINUOUS
 62
    4
 10
1006.5565063680174
 20
528.31188728143445
 11
1013.5565063680178
 21
530.18759306152276
  0
LINE
  8
_0-7_ビス
  6
CONTINUOUS
 62
    4
 10
1006.5565063680174
 20
530.31188728143377
 11
1013.5565063680178
 21
532.18759306152322
  0
LINE
  8
_0-7_ビス
  6
CONTINUOUS
 62
    4
 10
1006.5565063680174
 20
532.31188728143422
 11
1013.5565063680178
 21
534.18759306152253
  0
LINE
  8
_0-7_ビス
  6
CONTINUOUS
 62
    4
 10
1006.5565063680174
 20
534.31188728143468
 11
1013.5565063680178
 21
536.18759306152299
  0
LINE
  8
_0-7_ビス
  6
CONTINUOUS
 62
    4
 10
1006.5565063680174
 20
512.00566675205721
 11
1013.5565063680178
 21
513.88137253214552
  0
LINE
  8
_0-7_ビス
  6
CONTINUOUS
 62
    4
 10
1006.5565063680174
 20
514.00566675205766
 11
1013.5565063680178
 21
515.88137253214597
  0
LINE
  8
_0-7_ビス
  6
CONTINUOUS
 62
    4
 10
1006.5565063680174
 20
516.00566675205698
 11
1013.5565063680178
 21
517.88137253214529
  0
LINE
  8
_0-7_ビス
  6
CONTINUOUS
 62
    4
 10
1006.5565063680174
 20
518.00566675205744
 11
1013.5565063680178
 21
519.88137253214575
  0
LINE
  8
_0-7_ビス
  6
CONTINUOUS
 62
    4
 10
1006.5565063680174
 20
520.00566675205675
 11
1013.5565063680178
 21
521.88137253214506
  0
LINE
  8
_0-7_ビス
  6
CONTINUOUS
 62
    4
 10
1006.5565063680174
 20
522.00566675205721
 11
1013.5565063680178
 21
523.88137253214552
  0
LINE
  8
_0-7_ビス
  6
CONTINUOUS
 62
    4
 10
1006.5565063680174
 20
499.69944622267974
 11
1013.5565063680178
 21
501.57515200276919
  0
LINE
  8
_0-7_ビス
  6
CONTINUOUS
 62
    4
 10
1006.5565063680174
 20
501.69944622268019
 11
1013.5565063680178
 21
503.5751520027685
  0
LINE
  8
_0-7_ビス
  6
CONTINUOUS
 62
    4
 10
1006.5565063680174
 20
503.69944622268065
 11
1013.5565063680178
 21
505.57515200276896
  0
LINE
  8
_0-7_ビス
  6
CONTINUOUS
 62
    4
 10
1006.5565063680174
 20
505.69944622267997
 11
1013.5565063680178
 21
507.57515200276941
  0
LINE
  8
_0-7_ビス
  6
CONTINUOUS
 62
    4
 10
1006.5565063680174
 20
507.69944622268042
 11
1013.5565063680178
 21
509.57515200276873
  0
LINE
  8
_0-7_ビス
  6
CONTINUOUS
 62
    4
 10
1006.5565063680174
 20
509.69944622268088
 11
1013.5565063680178
 21
511.57515200276919
  0
LINE
  8
_0-7_ビス
  6
CONTINUOUS
 62
    4
 10
1006.5565063680174
 20
487.39322569330341
 11
1013.5565063680178
 21
489.26893147339172
  0
LINE
  8
_0-7_ビス
  6
CONTINUOUS
 62
    4
 10
1006.5565063680174
 20
489.39322569330386
 11
1013.5565063680178
 21
491.26893147339217
  0
LINE
  8
_0-7_ビス
  6
CONTINUOUS
 62
    4
 10
1006.5565063680174
 20
491.39322569330318
 11
1013.5565063680178
 21
493.26893147339149
  0
LINE
  8
_0-7_ビス
  6
CONTINUOUS
 62
    4
 10
1006.5565063680174
 20
493.39322569330363
 11
1013.5565063680178
 21
495.26893147339194
  0
LINE
  8
_0-7_ビス
  6
CONTINUOUS
 62
    4
 10
1006.5565063680174
 20
495.39322569330295
 11
1013.5565063680178
 21
497.2689314733924
  0
LINE
  8
_0-7_ビス
  6
CONTINUOUS
 62
    4
 10
1006.5565063680174
 20
497.39322569330341
 11
1013.5565063680178
 21
499.26893147339285
  0
LINE
  8
_0-7_ビス
  6
CONTINUOUS
 62
    4
 10
1006.5565063680174
 20
485.08700516392707
 11
1013.5565063680178
 21
486.96271094401538
  0
LINE
  8
_0-7_ビス
  6
CONTINUOUS
 62
    4
 10
1007.4182310911101
 20
483.31791117020487
 11
1013.5565063680178
 21
484.96271094401493
  0
LINE
  8
_0-2_線色２__白__
  6
CONTINUOUS
 62
    7
 10
1035.834666114738
 20
550.23140304678861
 11
1036.8496790675522
 21
549.36676238327948
  0
LINE
  8
_0-4_線色４__黄__
  6
CONTINUOUS
 62
    2
 10
1036.4801981880919
 20
562.81791117020532
 11
1040.5315467640469
 21
559.36676238327948
  0
LINE
  8
_0-4_線色４__黄__
  6
CONTINUOUS
 62
    2
 10
989.19458807130695
 20
562.81791117020532
 11
1036.4801981880919
 21
562.81791117020532
  0
LINE
  8
_0-4_線色４__黄__
  6
CONTINUOUS
 62
    2
 10
986.24016481226931
 20
565.29696663720358
 11
985.86717157561679
 21
567.41231639907426
  0
ARC
  8
_0-4_線色４__黄__
  6
CONTINUOUS
 62
    2
 10
989.19458807130695
 20
565.81791117020487
 40
3
 50
190.00000000000517
 51
270
  0
ARC
  8
_0-2_線色２__白__
  6
CONTINUOUS
 62
    7
 10
989.19458807130695
 20
565.81791117020487
 40
8
 50
190.00000000000517
 51
270
  0
LINE
  8
_0-2_線色２__白__
  6
CONTINUOUS
 62
    7
 10
1040.5315467640469
 20
559.36676238327948
 11
1040.5497655515705
 21
559.49766732996011
  0
LINE
  8
_0-2_線色２__白__
  6
CONTINUOUS
 62
    7
 10
1040.5497655515705
 20
559.49766732996011
 11
1040.5828323312312
 21
559.72274126497894
  0
LINE
  8
_0-2_線色２__白__
  6
CONTINUOUS
 62
    7
 10
1040.5828323312312
 20
559.72274126497894
 11
1040.6204965470965
 21
559.94608117523683
  0
LINE
  8
_0-2_線色２__白__
  6
CONTINUOUS
 62
    7
 10
1040.6204965470965
 20
559.94608117523683
 11
1040.6656679689206
 21
560.16658957670813
  0
LINE
  8
_0-2_線色２__白__
  6
CONTINUOUS
 62
    7
 10
1040.6656679689206
 20
560.16658957670813
 11
1040.7212563664507
 21
560.38316898536607
  0
LINE
  8
_0-2_線色２__白__
  6
CONTINUOUS
 62
    7
 10
1040.7212563664507
 20
560.38316898536607
 11
1040.7901715094408
 21
560.59472191718612
  0
LINE
  8
_0-2_線色２__白__
  6
CONTINUOUS
 62
    7
 10
1040.7901715094408
 20
560.59472191718612
 11
1040.8373952077329
 21
560.71468702017853
  0
LINE
  8
_0-2_線色２__白__
  6
CONTINUOUS
 62
    7
 10
1040.8373952077329
 20
560.71468702017853
 11
1040.8783362689962
 21
560.80680385976791
  0
LINE
  8
_0-2_線色２__白__
  6
CONTINUOUS
 62
    7
 10
1040.8783362689962
 20
560.80680385976791
 11
1040.9567514416779
 21
560.96251816278198
  0
LINE
  8
_0-2_線色２__白__
  6
CONTINUOUS
 62
    7
 10
1040.9567514416779
 20
560.96251816278198
 11
1041.0438584560052
 21
561.11452176566161
  0
LINE
  8
_0-2_線色２__白__
  6
CONTINUOUS
 62
    7
 10
1041.0438584560052
 20
561.11452176566161
 11
1041.1382434451525
 21
561.26307428146276
  0
LINE
  8
_0-2_線色２__白__
  6
CONTINUOUS
 62
    7
 10
1041.1382434451525
 20
561.26307428146276
 11
1041.2384925422975
 21
561.40843532323458
  0
LINE
  8
_0-2_線色２__白__
  6
CONTINUOUS
 62
    7
 10
1041.2384925422975
 20
561.40843532323458
 11
1041.3431918806145
 21
561.55086450403076
  0
LINE
  8
_0-2_線色２__白__
  6
CONTINUOUS
 62
    7
 10
1041.3431918806145
 20
561.55086450403076
 11
1041.4053994602932
 21
561.63223235123553
  0
LINE
  8
_0-2_線色２__白__
  6
CONTINUOUS
 62
    7
 10
1041.4053994602932
 20
561.63223235123553
 11
1041.4796157342289
 21
561.7269159440383
  0
LINE
  8
_0-2_線色２__白__
  6
CONTINUOUS
 62
    7
 10
1041.4796157342289
 20
561.7269159440383
 11
1041.6098406743322
 21
561.88763473789948
  0
LINE
  8
_0-2_線色２__白__
  6
CONTINUOUS
 62
    7
 10
1041.6098406743322
 20
561.88763473789948
 11
1041.7426924935535
 21
562.04550150028979
  0
LINE
  8
_0-2_線色２__白__
  6
CONTINUOUS
 62
    7
 10
1041.7426924935535
 20
562.04550150028979
 11
1041.8778906316811
 21
562.20092199375642
  0
LINE
  8
_0-2_線色２__白__
  6
CONTINUOUS
 62
    7
 10
1041.8778906316811
 20
562.20092199375642
 11
1042.0151545285046
 21
562.3543019808443
  0
LINE
  8
_0-2_線色２__白__
  6
CONTINUOUS
 62
    7
 10
1042.0151545285046
 20
562.3543019808443
 11
1042.1542036238134
 21
562.50604722409832
  0
LINE
  8
_0-2_線色２__白__
  6
CONTINUOUS
 62
    7
 10
1042.1542036238134
 20
562.50604722409832
 11
1042.2355595217255
 21
562.59347031710547
  0
LINE
  8
_0-2_線色２__白__
  6
CONTINUOUS
 62
    7
 10
1042.2355595217255
 20
562.59347031710547
 11
1042.3211945951402
 21
562.68454049150421
  0
LINE
  8
_0-2_線色２__白__
  6
CONTINUOUS
 62
    7
 10
1042.3211945951402
 20
562.68454049150421
 11
1042.4703919534477
 21
562.84024224033658
  0
LINE
  8
_0-2_線色２__白__
  6
CONTINUOUS
 62
    7
 10
1042.4703919534477
 20
562.84024224033658
 11
1042.6221421670175
 21
562.99358821873682
  0
LINE
  8
_0-2_線色２__白__
  6
CONTINUOUS
 62
    7
 10
1042.6221421670175
 20
562.99358821873682
 11
1042.7771312465211
 21
563.14377585765726
  0
LINE
  8
_0-2_線色２__白__
  6
CONTINUOUS
 62
    7
 10
1042.7771312465211
 20
563.14377585765726
 11
1042.9360452026276
 21
563.29000258805479
  0
LINE
  8
_0-2_線色２__白__
  6
CONTINUOUS
 62
    7
 10
1042.9360452026276
 20
563.29000258805479
 11
1043.0995700460085
 21
563.43146584088288
  0
LINE
  8
_0-2_線色２__白__
  6
CONTINUOUS
 62
    7
 10
1043.0995700460085
 20
563.43146584088288
 11
1043.1967974875954
 21
563.51101564816361
  0
LINE
  8
_0-2_線色２__白__
  6
CONTINUOUS
 62
    7
 10
1043.1967974875954
 20
563.51101564816361
 11
1043.2844511871372
 21
563.57974100065974
  0
LINE
  8
_0-2_線色２__白__
  6
CONTINUOUS
 62
    7
 10
1043.2844511871372
 20
563.57974100065974
 11
1043.4390642870585
 21
563.69395376845944
  0
LINE
  8
_0-2_線色２__白__
  6
CONTINUOUS
 62
    7
 10
1043.4390642870585
 20
563.69395376845944
 11
1043.5980294302476
 21
563.80192645738987
  0
LINE
  8
_0-2_線色２__白__
  6
CONTINUOUS
 62
    7
 10
1043.5980294302476
 20
563.80192645738987
 11
1043.7612760874742
 21
563.90270168881614
  0
LINE
  8
_0-2_線色２__白__
  6
CONTINUOUS
 62
    7
 10
1043.7612760874742
 20
563.90270168881614
 11
1043.9287337295059
 21
563.99532208410335
  0
LINE
  8
_0-2_線色２__白__
  6
CONTINUOUS
 62
    7
 10
1043.9287337295059
 20
563.99532208410335
 11
1044.1003318271089
 21
564.07883026461434
  0
LINE
  8
_0-2_線色２__白__
  6
CONTINUOUS
 62
    7
 10
1044.1003318271089
 20
564.07883026461434
 11
1044.2017280882783
 21
564.12271253553456
  0
LINE
  8
_0-2_線色２__白__
  6
CONTINUOUS
 62
    7
 10
1044.2017280882783
 20
564.12271253553456
 11
1044.315633581017
 21
564.16724124879863
  0
LINE
  8
_0-2_線色２__白__
  6
CONTINUOUS
 62
    7
 10
1044.315633581017
 20
564.16724124879863
 11
1044.515522038871
 21
564.23455187721231
  0
LINE
  8
_0-2_線色２__白__
  6
CONTINUOUS
 62
    7
 10
1044.515522038871
 20
564.23455187721231
 11
1044.7192241377297
 21
564.29115542871102
  0
LINE
  8
_0-2_線色２__白__
  6
CONTINUOUS
 62
    7
 10
1044.7192241377297
 20
564.29115542871102
 11
1044.9260232145389
 21
564.33853030244052
  0
LINE
  8
_0-2_線色２__白__
  6
CONTINUOUS
 62
    7
 10
1044.9260232145389
 20
564.33853030244052
 11
1045.1352026062477
 21
564.37815489754996
  0
LINE
  8
_0-2_線色２__白__
  6
CONTINUOUS
 62
    7
 10
1045.1352026062477
 20
564.37815489754996
 11
1045.3460456498033
 21
564.41150761318625
  0
LINE
  8
_0-2_線色２__白__
  6
CONTINUOUS
 62
    7
 10
1045.3460456498033
 20
564.41150761318625
 11
1045.4688144978331
 21
564.42856097922061
  0
LINE
  8
_0-2_線色２__白__
  6
CONTINUOUS
 62
    7
 10
1045.4688144978331
 20
564.42856097922061
 11
1045.6172714679167
 21
564.4472779784877
  0
LINE
  8
_0-2_線色２__白__
  6
CONTINUOUS
 62
    7
 10
1045.6172714679167
 20
564.4472779784877
 11
1045.8735917332012
 21
564.47418473957725
  0
LINE
  8
_0-2_線色２__白__
  6
CONTINUOUS
 62
    7
 10
1045.8735917332012
 20
564.47418473957725
 11
1046.1299870617825
 21
564.4930429868765
  0
LINE
  8
_0-2_線色２__白__
  6
CONTINUOUS
 62
    7
 10
1046.1299870617825
 20
564.4930429868765
 11
1046.3860148984134
 21
564.50238907806295
  0
LINE
  8
_0-2_線色２__白__
  6
CONTINUOUS
 62
    7
 10
1046.3860148984134
 20
564.50238907806295
 11
1046.6412326878481
 21
564.50075937081635
  0
LINE
  8
_0-2_線色２__白__
  6
CONTINUOUS
 62
    7
 10
1046.6412326878481
 20
564.50075937081635
 11
1046.8951978748396
 21
564.48669022281308
  0
LINE
  8
_0-2_線色２__白__
  6
CONTINUOUS
 62
    7
 10
1046.8951978748396
 20
564.48669022281308
 11
1047.0417493510752
 21
564.47225361403241
  0
LINE
  8
_0-2_線色２__白__
  6
CONTINUOUS
 62
    7
 10
1047.0417493510752
 20
564.47225361403241
 11
1047.1490935426414
 21
564.45856382794716
  0
LINE
  8
_0-2_線色２__白__
  6
CONTINUOUS
 62
    7
 10
1047.1490935426414
 20
564.45856382794716
 11
1047.3335436034108
 21
564.42960419670669
  0
LINE
  8
_0-2_線色２__白__
  6
CONTINUOUS
 62
    7
 10
1047.3335436034108
 20
564.42960419670669
 11
1047.5175144608511
 21
564.39528871516757
  0
LINE
  8
_0-2_線色２__白__
  6
CONTINUOUS
 62
    7
 10
1047.5175144608511
 20
564.39528871516757
 11
1047.7013704967089
 21
564.35727388914017
  0
LINE
  8
_0-2_線色２__白__
  6
CONTINUOUS
 62
    7
 10
1047.7013704967089
 20
564.35727388914017
 11
1047.88547609273
 21
564.3172162244349
  0
LINE
  8
_0-2_線色２__白__
  6
CONTINUOUS
 62
    7
 10
1047.88547609273
 20
564.3172162244349
 11
1048.0701956306575
 21
564.27677222685872
  0
LINE
  8
_0-2_線色２__白__
  6
CONTINUOUS
 62
    7
 10
1048.0701956306575
 20
564.27677222685872
 11
1048.1777578561946
 21
564.25379043997225
  0
LINE
  8
_0-2_線色２__白__
  6
CONTINUOUS
 62
    7
 10
1048.1777578561946
 20
564.25379043997225
 11
1048.2998690875229
 21
564.22851671847354
  0
LINE
  8
_0-2_線色２__白__
  6
CONTINUOUS
 62
    7
 10
1048.2998690875229
 20
564.22851671847354
 11
1048.5106671110861
 21
564.18516720223863
  0
LINE
  8
_0-2_線色２__白__
  6
CONTINUOUS
 62
    7
 10
1048.5106671110861
 20
564.18516720223863
 11
1048.7203723349239
 21
564.13903404408927
  0
LINE
  8
_0-2_線色２__白__
  6
CONTINUOUS
 62
    7
 10
1048.7203723349239
 20
564.13903404408927
 11
1048.9273292841904
 21
564.08654800238594
  0
LINE
  8
_0-2_線色２__白__
  6
CONTINUOUS
 62
    7
 10
1048.9273292841904
 20
564.08654800238594
 11
1049.1298824840464
 21
564.02413983548797
  0
LINE
  8
_0-2_線色２__白__
  6
CONTINUOUS
 62
    7
 10
1049.1298824840464
 20
564.02413983548797
 11
1049.3263764596452
 21
563.94824030175357
  0
LINE
  8
_0-2_線色２__白__
  6
CONTINUOUS
 62
    7
 10
1049.3263764596452
 20
563.94824030175357
 11
1049.4369142857659
 21
563.89663036109653
  0
LINE
  8
_0-2_線色２__白__
  6
CONTINUOUS
 62
    7
 10
1049.4369142857659
 20
563.89663036109653
 11
1049.5362365169444
 21
563.84354488917268
  0
LINE
  8
_0-2_線色２__白__
  6
CONTINUOUS
 62
    7
 10
1049.5362365169444
 20
563.84354488917268
 11
1049.7016604321357
 21
563.74025860807421
  0
LINE
  8
_0-2_線色２__白__
  6
CONTINUOUS
 62
    7
 10
1049.7016604321357
 20
563.74025860807421
 11
1049.8597120034947
 21
563.62370897634207
  0
LINE
  8
_0-2_線色２__白__
  6
CONTINUOUS
 62
    7
 10
1049.8597120034947
 20
563.62370897634207
 11
1050.0103870499129
 21
563.49578230302825
  0
LINE
  8
_0-2_線色２__白__
  6
CONTINUOUS
 62
    7
 10
1050.0103870499129
 20
563.49578230302825
 11
1050.1536813902771
 21
563.35836489718133
  0
LINE
  8
_0-2_線色２__白__
  6
CONTINUOUS
 62
    7
 10
1050.1536813902771
 20
563.35836489718133
 11
1050.2895908434823
 21
563.21334306785104
  0
LINE
  8
_0-2_線色２__白__
  6
CONTINUOUS
 62
    7
 10
1050.2895908434823
 20
563.21334306785104
 11
1050.3650329234688
 21
563.12648936385415
  0
LINE
  8
_0-2_線色２__白__
  6
CONTINUOUS
 62
    7
 10
1050.3650329234688
 20
563.12648936385415
 11
1050.4493279478402
 21
563.02392197586357
  0
LINE
  8
_0-2_線色２__白__
  6
CONTINUOUS
 62
    7
 10
1050.4493279478402
 20
563.02392197586357
 11
1050.5874998071079
 21
562.84263696612641
  0
LINE
  8
_0-2_線色２__白__
  6
CONTINUOUS
 62
    7
 10
1050.5874998071079
 20
562.84263696612641
 11
1050.7176100741276
 21
562.65641229150617
  0
LINE
  8
_0-2_線色２__白__
  6
CONTINUOUS
 62
    7
 10
1050.7176100741276
 20
562.65641229150617
 11
1050.840829976114
 21
562.46604623041719
  0
LINE
  8
_0-2_線色２__白__
  6
CONTINUOUS
 62
    7
 10
1050.840829976114
 20
562.46604623041719
 11
1050.9583307402829
 21
562.27233706127379
  0
LINE
  8
_0-2_線色２__白__
  6
CONTINUOUS
 62
    7
 10
1050.9583307402829
 20
562.27233706127379
 11
1051.0712835938511
 21
562.07608306249028
  0
LINE
  8
_0-2_線色２__白__
  6
CONTINUOUS
 62
    7
 10
1051.0712835938511
 20
562.07608306249028
 11
1051.1351739207112
 21
561.96140426546151
  0
LINE
  8
_0-2_線色２__白__
  6
CONTINUOUS
 62
    7
 10
1051.1351739207112
 20
561.96140426546151
 11
1051.202441288217
 21
561.83833767332601
  0
LINE
  8
_0-2_線色２__白__
  6
CONTINUOUS
 62
    7
 10
1051.202441288217
 20
561.83833767332601
 11
1051.3164225294258
 21
561.62513091695757
  0
LINE
  8
_0-2_線色２__白__
  6
CONTINUOUS
 62
    7
 10
1051.3164225294258
 20
561.62513091695757
 11
1051.4285370777895
 21
561.41083391742029
  0
LINE
  8
_0-2_線色２__白__
  6
CONTINUOUS
 62
    7
 10
1051.4285370777895
 20
561.41083391742029
 11
1051.5395536870369
 21
561.195684656347
  0
LINE
  8
_0-2_線色２__白__
  6
CONTINUOUS
 62
    7
 10
1051.5395536870369
 20
561.195684656347
 11
1051.6502411108956
 21
560.97992111536598
  0
LINE
  8
_0-2_線色２__白__
  6
CONTINUOUS
 62
    7
 10
1051.6502411108956
 20
560.97992111536598
 11
1051.7613681030934
 21
560.76378127611008
  0
LINE
  8
_0-2_線色２__白__
  6
CONTINUOUS
 62
    7
 10
1051.7613681030934
 20
560.76378127611008
 11
1051.8263260977233
 21
560.63834152660945
  0
LINE
  8
_0-2_線色２__白__
  6
CONTINUOUS
 62
    7
 10
1051.8263260977233
 20
560.63834152660945
 11
1051.9147395518996
 21
560.46951334360244
  0
LINE
  8
_0-2_線色２__白__
  6
CONTINUOUS
 62
    7
 10
1051.9147395518996
 20
560.46951334360244
 11
1052.0712443678292
 21
560.1801175777149
  0
LINE
  8
_0-2_線色２__白__
  6
CONTINUOUS
 62
    7
 10
1052.0712443678292
 20
560.1801175777149
 11
1052.2354659610573
 21
559.89540940146469
  0
LINE
  8
_0-2_線色２__白__
  6
CONTINUOUS
 62
    7
 10
1052.2354659610573
 20
559.89540940146469
 11
1052.4103899484419
 21
559.61835597344646
  0
LINE
  8
_0-2_線色２__白__
  6
CONTINUOUS
 62
    7
 10
1052.4103899484419
 20
559.61835597344646
 11
1052.5990019468418
 21
559.35192445225937
  0
LINE
  8
_0-2_線色２__白__
  6
CONTINUOUS
 62
    7
 10
1052.5990019468418
 20
559.35192445225937
 11
1052.8042875731171
 21
559.0990819965026
  0
LINE
  8
_0-2_線色２__白__
  6
CONTINUOUS
 62
    7
 10
1052.8042875731171
 20
559.0990819965026
 11
1052.9321695809438
 21
558.95982909672114
  0
LINE
  8
_0-2_線色２__白__
  6
CONTINUOUS
 62
    7
 10
1052.9321695809438
 20
558.95982909672114
 11
1052.9783847532485
 21
558.91272409081182
  0
LINE
  8
_0-2_線色２__白__
  6
CONTINUOUS
 62
    7
 10
1052.9783847532485
 20
558.91272409081182
 11
1053.0600840147895
 21
558.83337899577612
  0
LINE
  8
_0-2_線色２__白__
  6
CONTINUOUS
 62
    7
 10
1053.0600840147895
 20
558.83337899577612
 11
1053.1442864071187
 21
558.75657888633384
  0
LINE
  8
_0-2_線色２__白__
  6
CONTINUOUS
 62
    7
 10
1053.1442864071187
 20
558.75657888633384
 11
1053.2309323826144
 21
558.68252998300875
  0
LINE
  8
_0-2_線色２__白__
  6
CONTINUOUS
 62
    7
 10
1053.2309323826144
 20
558.68252998300875
 11
1053.3199623936503
 21
558.6114385063189
  0
LINE
  8
_0-2_線色２__白__
  6
CONTINUOUS
 62
    7
 10
1053.3199623936503
 20
558.6114385063189
 11
1053.4113168926024
 21
558.5435106767892
  0
LINE
  8
_0-2_線色２__白__
  6
CONTINUOUS
 62
    7
 10
1053.4113168926024
 20
558.5435106767892
 11
1053.4653441174964
 21
558.50564338039874
  0
LINE
  8
_0-2_線色２__白__
  6
CONTINUOUS
 62
    7
 10
1053.4653441174964
 20
558.50564338039874
 11
1053.5549455285843
 21
558.44635069002095
  0
LINE
  8
_0-2_線色２__白__
  6
CONTINUOUS
 62
    7
 10
1053.5549455285843
 20
558.44635069002095
 11
1053.7131369727558
 21
558.34993742582526
  0
LINE
  8
_0-2_線色２__白__
  6
CONTINUOUS
 62
    7
 10
1053.7131369727558
 20
558.34993742582526
 11
1053.8745482597869
 21
558.25860901675526
  0
LINE
  8
_0-2_線色２__白__
  6
CONTINUOUS
 62
    7
 10
1053.8745482597869
 20
558.25860901675526
 11
1054.0374682080801
 21
558.16971830830369
  0
LINE
  8
_0-2_線色２__白__
  6
CONTINUOUS
 62
    7
 10
1054.0374682080801
 20
558.16971830830369
 11
1054.2001856360343
 21
558.08061814596783
  0
LINE
  8
_0-2_線色２__白__
  6
CONTINUOUS
 62
    7
 10
1054.2001856360343
 20
558.08061814596783
 11
1054.3609893620464
 21
557.98866137524271
  0
LINE
  8
_0-2_線色２__白__
  6
CONTINUOUS
 62
    7
 10
1054.3609893620464
 20
557.98866137524271
 11
1054.4527043703715
 21
557.93297443373092
  0
LINE
  8
_0-2_線色２__白__
  6
CONTINUOUS
 62
    7
 10
1054.4527043703715
 20
557.93297443373092
 11
1054.545115362771
 21
557.87360966385961
  0
LINE
  8
_0-2_線色２__白__
  6
CONTINUOUS
 62
    7
 10
1054.545115362771
 20
557.87360966385961
 11
1054.7010583649239
 21
557.76610790209077
  0
LINE
  8
_0-2_線色２__白__
  6
CONTINUOUS
 62
    7
 10
1054.7010583649239
 20
557.76610790209077
 11
1054.8533809071455
 21
557.65312471212212
  0
LINE
  8
_0-2_線色２__白__
  6
CONTINUOUS
 62
    7
 10
1054.8533809071455
 20
557.65312471212212
 11
1055.0028573958809
 21
557.53586465972774
  0
LINE
  8
_0-2_線色２__白__
  6
CONTINUOUS
 62
    7
 10
1055.0028573958809
 20
557.53586465972774
 11
1055.1502622375745
 21
557.4155323106794
  0
LINE
  8
_0-2_線色２__白__
  6
CONTINUOUS
 62
    7
 10
1055.1502622375745
 20
557.4155323106794
 11
1055.2963698386702
 21
557.29333223075344
  0
LINE
  8
_0-2_線色２__白__
  6
CONTINUOUS
 62
    7
 10
1055.2963698386702
 20
557.29333223075344
 11
1055.3808230080745
 21
557.22207505166068
  0
LINE
  8
_0-2_線色２__白__
  6
CONTINUOUS
 62
    7
 10
1055.3808230080745
 20
557.22207505166068
 11
1055.4866648716916
 21
557.13259446776021
  0
LINE
  8
_0-2_線色２__白__
  6
CONTINUOUS
 62
    7
 10
1055.4866648716916
 20
557.13259446776021
 11
1055.6682376500021
 21
556.97751141396509
  0
LINE
  8
_0-2_線色２__白__
  6
CONTINUOUS
 62
    7
 10
1055.6682376500021
 20
556.97751141396509
 11
1055.8474123026269
 21
556.82012224572361
  0
LINE
  8
_0-2_線色２__白__
  6
CONTINUOUS
 62
    7
 10
1055.8474123026269
 20
556.82012224572361
 11
1056.0227444288512
 21
556.6589320477982
  0
LINE
  8
_0-2_線色２__白__
  6
CONTINUOUS
 62
    7
 10
1056.0227444288512
 20
556.6589320477982
 11
1056.1927896279622
 21
556.49244590494902
  0
LINE
  8
_0-2_線色２__白__
  6
CONTINUOUS
 62
    7
 10
1056.1927896279622
 20
556.49244590494902
 11
1056.3561034992404
 21
556.3191689019385
  0
LINE
  8
_0-2_線色２__白__
  6
CONTINUOUS
 62
    7
 10
1056.3561034992404
 20
556.3191689019385
 11
1056.4471720811798
 21
556.2149675937286
  0
LINE
  8
_0-2_線色２__白__
  6
CONTINUOUS
 62
    7
 10
1056.4471720811798
 20
556.2149675937286
 11
1056.4988313538163
 21
556.15288031820512
  0
LINE
  8
_0-2_線色２__白__
  6
CONTINUOUS
 62
    7
 10
1056.4988313538163
 20
556.15288031820512
 11
1056.5851564641207
 21
556.04340757836837
  0
LINE
  8
_0-2_線色２__白__
  6
CONTINUOUS
 62
    7
 10
1056.5851564641207
 20
556.04340757836837
 11
1056.6675163362538
 21
555.93090632060864
  0
LINE
  8
_0-2_線色２__白__
  6
CONTINUOUS
 62
    7
 10
1056.6675163362538
 20
555.93090632060864
 11
1056.7453370269982
 21
555.81542538789733
  0
LINE
  8
_0-2_線色２__白__
  6
CONTINUOUS
 62
    7
 10
1056.7453370269982
 20
555.81542538789733
 11
1056.8180445931432
 21
555.69701362320473
  0
LINE
  8
_0-2_線色２__白__
  6
CONTINUOUS
 62
    7
 10
1056.8180445931432
 20
555.69701362320473
 11
1056.8850650914726
 21
555.57571986950109
  0
LINE
  8
_0-2_線色２__白__
  6
CONTINUOUS
 62
    7
 10
1056.8850650914726
 20
555.57571986950109
 11
1056.9211050025592
 21
555.50406821165836
  0
LINE
  8
_0-2_線色２__白__
  6
CONTINUOUS
 62
    7
 10
1056.9211050025592
 20
555.50406821165836
 11
1056.9677568559177
 21
555.40259232060805
  0
LINE
  8
_0-2_線色２__白__
  6
CONTINUOUS
 62
    7
 10
1056.9677568559177
 20
555.40259232060805
 11
1057.0392436142674
 21
555.22382794155817
  0
LINE
  8
_0-2_線色２__白__
  6
CONTINUOUS
 62
    7
 10
1057.0392436142674
 20
555.22382794155817
 11
1057.1011949528906
 21
555.04100752340889
  0
LINE
  8
_0-2_線色２__白__
  6
CONTINUOUS
 62
    7
 10
1057.1011949528906
 20
555.04100752340889
 11
1057.1556928411599
 21
554.85501666421953
  0
LINE
  8
_0-2_線色２__白__
  6
CONTINUOUS
 62
    7
 10
1057.1556928411599
 20
554.85501666421953
 11
1057.2048192484476
 21
554.66674096204486
  0
LINE
  8
_0-2_線色２__白__
  6
CONTINUOUS
 62
    7
 10
1057.2048192484476
 20
554.66674096204486
 11
1057.2506561441242
 21
554.47706601494076
  0
LINE
  8
_0-2_線色２__白__
  6
CONTINUOUS
 62
    7
 10
1057.2506561441242
 20
554.47706601494076
 11
1057.2765546935943
 21
554.36676238327948
  0
LINE
  8
_0-4_線色４__黄__
  6
CONTINUOUS
 62
    2
 10
1040.5315467640469
 20
559.36676238327948
 11
1046.52867883098
 21
559.36676238327948
  0
LINE
  8
_0-2_線色２__白__
  6
CONTINUOUS
 62
    7
 10
990.91532260602662
 20
557.81791117020532
 11
990.91532260602662
 21
552.81791117020532
  0
LINE
  8
_0-2_線色２__白__
  6
CONTINUOUS
 62
    7
 10
989.19458807130695
 20
557.81791117020532
 11
1034.639264339844
 21
557.81791117020532
  0
LINE
  8
_0-2_線色２__白__
  6
CONTINUOUS
 62
    7
 10
1034.639264339844
 20
557.81791117020532
 11
1038.6906129158001
 21
554.36676238327948
  0
LINE
  8
_0-2_線色２__白__
  6
CONTINUOUS
 62
    7
 10
1038.6906129158001
 20
554.36676238327948
 11
1046.52867883098
 21
554.36676238327948
  0
LINE
  8
_0-4_線色４__黄__
  6
CONTINUOUS
 62
    2
 10
1046.52867883098
 20
559.36676238327948
 11
1046.52867883098
 21
554.36676238327948
  0
LINE
  8
_0-4_線色４__黄__
  6
CONTINUOUS
 62
    2
 10
1046.52867883098
 20
554.36676238327948
 11
1239.452544776675
 21
554.36676238327948
  0
LINE
  8
_0-d_断熱__ハッチ
  6
CONTINUOUS
 62
    4
 10
977.5352746766805
 20
543.6988292292898
 11
978.20320783067018
 21
544.36676238327948
  0
LINE
  8
_0-d_断熱__ハッチ
  6
CONTINUOUS
 62
    4
 10
1235.2788312500616
 20
544.36676238327948
 11
1239.4525447766773
 21
540.19304885666372
  0
LINE
  8
_0-d_断熱__ハッチ
  6
CONTINUOUS
 62
    4
 10
1197.7616490578362
 20
509.36676238328062
 11
1232.7616490578339
 21
544.36676238327948
  0
LINE
  8
_0-d_断熱__ハッチ
  6
CONTINUOUS
 62
    4
 10
1169.4773778103718
 20
509.36676238328289
 11
1204.4773778103672
 21
544.36676238327948
  0
LINE
  8
_0-d_断熱__ハッチ
  6
CONTINUOUS
 62
    4
 10
1142.3931065629108
 20
510.56676238327952
 11
1176.1931065629096
 21
544.36676238327948
  0
LINE
  8
_0-d_断熱__ハッチ
  6
CONTINUOUS
 62
    4
 10
1114.1088353154441
 20
510.56676238328066
 11
1147.908835315443
 21
544.36676238327948
  0
LINE
  8
_0-d_断熱__ハッチ
  6
CONTINUOUS
 62
    4
 10
1085.8245640679866
 20
510.56676238327952
 11
1119.6245640679854
 21
544.36676238327948
  0
LINE
  8
_0-d_断熱__ハッチ
  6
CONTINUOUS
 62
    4
 10
1057.5402928205199
 20
510.56676238328066
 11
1091.3402928205187
 21
544.36676238327948
  0
LINE
  8
_0-d_断熱__ハッチ
  6
CONTINUOUS
 62
    4
 10
1029.2560215730612
 20
510.56676238327952
 11
1063.0560215730611
 21
544.36676238327948
  0
LINE
  8
_0-d_断熱__ハッチ
  6
CONTINUOUS
 62
    4
 10
1000.9717503255968
 20
510.5667623832818
 11
1034.7717503255944
 21
544.36676238327948
  0
LINE
  8
_0-d_断熱__ハッチ
  6
CONTINUOUS
 62
    4
 10
977.5352746766805
 20
515.41455798182312
 11
1006.4874790781369
 21
544.36676238327948
  0
LINE
  8
_0-d_断熱__ハッチ
  6
CONTINUOUS
 62
    4
 10
1009.0046612703645
 20
544.36676238327948
 11
1042.8046612703656
 21
510.56676238327952
  0
LINE
  8
_0-d_断熱__ハッチ
  6
CONTINUOUS
 62
    4
 10
1037.2889325178312
 20
544.36676238327948
 11
1071.0889325178323
 21
510.56676238327952
  0
LINE
  8
_0-d_断熱__ハッチ
  6
CONTINUOUS
 62
    4
 10
1065.5732037652888
 20
544.36676238327948
 11
1099.3732037652899
 21
510.56676238327952
  0
LINE
  8
_0-d_断熱__ハッチ
  6
CONTINUOUS
 62
    4
 10
1093.8574750127509
 20
544.36676238327948
 11
1127.657475012752
 21
510.56676238327952
  0
LINE
  8
_0-d_断熱__ハッチ
  6
CONTINUOUS
 62
    4
 10
1122.141746260213
 20
544.36676238327948
 11
1155.9417462602141
 21
510.56676238327952
  0
LINE
  8
_0-d_断熱__ハッチ
  6
CONTINUOUS
 62
    4
 10
1150.4260175076706
 20
544.36676238327948
 11
1185.4260175076729
 21
509.36676238327721
  0
LINE
  8
_0-d_断熱__ハッチ
  6
CONTINUOUS
 62
    4
 10
1178.7102887551373
 20
544.36676238327948
 11
1213.7102887551396
 21
509.36676238327834
  0
LINE
  8
_0-d_断熱__ハッチ
  6
CONTINUOUS
 62
    4
 10
1206.9945600025949
 20
544.36676238327948
 11
1239.452544776675
 21
511.90877760919932
  0
LINE
  8
_0-d_断熱__ハッチ
  6
CONTINUOUS
 62
    4
 10
980.72039002290694
 20
544.36676238327948
 11
1014.5203900229046
 21
510.5667623832818
  0
ARC
  8
_0-4_線色４__黄__
  6
CONTINUOUS
 62
    2
 10
980.735274676681
 20
912.56676238327884
 40
3
 50
0
 51
90
  0
LINE
  8
_0-5_金属
  6
CONTINUOUS
 62
    7
 10
859.53527467667755
 20
563.66676238327898
 11
859.53527467667755
 21
385.06763162026971
  0
LINE
  8
_0-5_金属
  6
CONTINUOUS
 62
    7
 10
959.53527467667982
 20
563.66676238327898
 11
959.53527467667982
 21
385.06763162026971
  0
LINE
  8
_0-5_金属
  6
CONTINUOUS
 62
    7
 10
879.53527467667755
 20
559.36676238327834
 11
879.53527467667755
 21
385.06763162026971
  0
LINE
  8
_0-5_金属
  6
CONTINUOUS
 62
    7
 10
939.53527467667755
 20
559.36676238327834
 11
939.53527467667755
 21
385.06763162026971
  0
LINE
  8
_0-2_線色２__白__
  6
CONTINUOUS
 62
    7
 10
859.53527467667755
 20
385.06763162026971
 11
859.53527467667755
 21
909.36676238327834
  0
LINE
  8
_0-3_線色３__緑__
  6
CONTINUOUS
 62
    3
 10
824.53527467667755
 20
385.06763162026971
 11
824.53527467667755
 21
909.36676238327834
  0
LINE
  8
_0-d_断熱__ハッチ
  6
CONTINUOUS
 62
    4
 10
833.28527467667755
 20
907.36676238328016
 11
833.28527467667755
 21
385.06763162026971
  0
LINE
  8
_0-d_断熱__ハッチ
  6
CONTINUOUS
 62
    4
 10
850.78527467667755
 20
907.36676238328016
 11
850.78527467667755
 21
385.06763162026971
  0
LINE
  8
_0-d_断熱__ハッチ
  6
CONTINUOUS
 62
    4
 10
842.03527467667755
 20
907.36676238328016
 11
842.03527467667755
 21
385.06763162026971
  0
LINE
  8
_0-a_文字
  6
CONTINUOUS
 62
    7
 10
1170.1687838050009
 20
629.36676238327948
 11
1190.1687838050009
 21
629.36676238327948
  0
TEXT
  8
_0-a_文字
 62
    7
 10
1195.1687838050009
 20
596.86676238327948
 40
15.000000000000014
 41
1.0000000000000022
 50
0
  1
ラジアルシートＬ６００
  0
LINE
  8
_0-a_文字
  6
CONTINUOUS
 62
    7
 10
1141.3012703455195
 20
579.36676238327948
 11
1190.1687838050009
 21
579.36676238327948
  0
LINE
  8
_0-a_文字
  6
CONTINUOUS
 62
    7
 10
1155.7350270752602
 20
604.36676238327948
 11
1190.1687838050009
 21
604.36676238327948
  0
TEXT
  8
_0-a_文字
 62
    7
 10
1195.1687838050009
 20
571.86676238327948
 40
15.00000000000008
 41
0.9999999999999943
 50
0
  1
断熱材
  0
TEXT
  8
_0-a_文字
 62
    7
 10
1127.1334422288703
 20
646.86676238327948
 40
14.999999999999947
 41
1.0000000000000049
 50
0
  1
プルーフシーラー
  0
LINE
  8
_0-a_文字
  6
CONTINUOUS
 62
    7
 10
1102.1334422288703
 20
654.36676238327948
 11
1122.1334422288703
 21
654.36676238327948
  0
LINE
  8
_0-a_文字
  6
CONTINUOUS
 62
    7
 10
1048.4215923969953
 20
561.33510950596303
 11
1102.1334422288703
 21
654.36676238327948
  0
TEXT
  8
_0-a_文字
 62
    7
 10
1195.1687838050009
 20
621.86676238327834
 40
15.000000000000036
 41
0.9999999999999981
 50
0
  1
塩ビシート機械的固定工法
  0
LINE
  8
_0-a_文字
  6
CONTINUOUS
 62
    7
 10
1110.9903812130651
 20
526.86676238327948
 11
1170.1687838050009
 21
629.36676238327948
  0
POINT
  8
_0-b_寸法
 62
    1
 10
744.53527467667755
 20
544.36676238327948
  0
LINE
  8
_0-b_寸法
  6
CONTINUOUS
 62
    7
 10
744.53527467667755
 20
544.36676238327948
 11
814.53527467667755
 21
544.36676238327948
  0
POINT
  8
_0-b_寸法
 62
    1
 10
744.53527467667755
 20
909.36676238327834
  0
LINE
  8
_0-b_寸法
  6
CONTINUOUS
 62
    7
 10
744.53527467667755
 20
909.36676238327834
 11
744.53527467667755
 21
544.36676238327948
  0
LINE
  8
_0-b_寸法
  6
CONTINUOUS
 62
    7
 10
744.53527467667755
 20
909.36676238327834
 11
814.53527467667755
 21
909.36676238327834
  0
LINE
  8
_0-2_線色２__白__
  6
CONTINUOUS
 62
    7
 10
978.73527467668055
 20
880.56676238327952
 11
977.5352746766805
 21
878.48830141419683
  0
LINE
  8
_0-2_線色２__白__
  6
CONTINUOUS
 62
    7
 10
978.42320276475675
 20
570.6251185230002
 11
977.5352746766805
 21
571.6018394198835
  0
LINE
  8
_0-4_線色４__黄__
  6
CONTINUOUS
 62
    2
 10
983.24708740371989
 20
572.75187979380121
 11
982.5352746766805
 21
573.53487379354362
  0
ARC
  8
_0-4_線色４__黄__
  6
CONTINUOUS
 62
    2
 10
975.32972861838743
 20
565.55428089803684
 40
10.700000000000003
 50
10.000000000005956
 51
42.273689006123831
  0
LINE
  8
_0-4_線色４__黄__
  6
CONTINUOUS
 62
    2
 10
982.5352746766805
 20
573.53487379354362
 11
982.5352746766805
 21
877.14855545203989
  0
LINE
  8
_0-4_線色４__黄__
  6
CONTINUOUS
 62
    2
 10
983.73527467668055
 20
879.22701642112258
 11
982.5352746766805
 21
877.14855545203989
  0
LINE
  8
_0-4_線色４__黄__
  6
CONTINUOUS
 62
    2
 10
983.73527467668055
 20
912.56676238327884
 11
983.73527467668055
 21
879.22701642112258
  0
TEXT
  8
_0-b_寸法
 62
    7
 10
742.03527467667755
 20
689.36676238327891
 40
14.999999999999947
 41
1.0000000000000038
 50
90
  1
立上り高さ
  0
ARC
  8
_0-1_線色１__水色__
  6
CONTINUOUS
 62
    4
 10
977.44363908404216
 20
545.90842904435021
 40
1.2083333333333177
 50
274.34927864086188
 51
52.476486801880853
  0
ARC
  8
_0-1_線色１__水色__
  6
CONTINUOUS
 62
    4
 10
1137.8872948169658
 20
547.82509572237814
 40
1.2083333333333581
 50
307.52351320333912
 51
232.47648680464988
  0
ARC
  8
_0-1_線色１__水色__
  6
CONTINUOUS
 62
    4
 10
1139.3592549614411
 20
545.90842905577858
 40
1.2083333333333177
 50
127.52351320610693
 51
52.47648680188081
  0
ARC
  8
_0-1_線色１__水色__
  6
CONTINUOUS
 62
    4
 10
1134.9433745282827
 20
547.82509572217293
 40
1.2083333333333581
 50
307.52351320333912
 51
232.47648680464988
  0
ARC
  8
_0-1_線色１__水色__
  6
CONTINUOUS
 62
    4
 10
1136.4153346727576
 20
545.90842905557338
 40
1.2083333333333177
 50
127.52351320610693
 51
52.47648680188081
  0
ARC
  8
_0-1_線色１__水色__
  6
CONTINUOUS
 62
    4
 10
1131.9994542395991
 20
547.82509572196773
 40
1.2083333333333581
 50
307.52351320333912
 51
232.47648680464988
  0
ARC
  8
_0-1_線色１__水色__
  6
CONTINUOUS
 62
    4
 10
1133.4714143840745
 20
545.90842905536817
 40
1.2083333333333177
 50
127.52351320610693
 51
52.47648680188081
  0
ARC
  8
_0-1_線色１__水色__
  6
CONTINUOUS
 62
    4
 10
1129.0555339509158
 20
547.82509572176252
 40
1.2083333333333581
 50
307.52351320333912
 51
232.47648680464988
  0
ARC
  8
_0-1_線色１__水色__
  6
CONTINUOUS
 62
    4
 10
1130.5274940953914
 20
545.90842905516297
 40
1.2083333333333177
 50
127.52351320610693
 51
52.47648680188081
  0
ARC
  8
_0-1_線色１__水色__
  6
CONTINUOUS
 62
    4
 10
1164.382577415116
 20
547.82509572237814
 40
1.2083333333333581
 50
307.52351320333912
 51
232.47648680464988
  0
ARC
  8
_0-1_線色１__水色__
  6
CONTINUOUS
 62
    4
 10
1165.8545375595916
 20
545.90842905577858
 40
1.2083333333333177
 50
127.52351320610693
 51
52.47648680188081
  0
ARC
  8
_0-1_線色１__水色__
  6
CONTINUOUS
 62
    4
 10
1161.4386571264326
 20
547.82509572217293
 40
1.2083333333333581
 50
307.52351320333912
 51
232.47648680464988
  0
ARC
  8
_0-1_線色１__水色__
  6
CONTINUOUS
 62
    4
 10
1162.910617270908
 20
545.90842905557338
 40
1.2083333333333177
 50
127.52351320610693
 51
52.47648680188081
  0
ARC
  8
_0-1_線色１__水色__
  6
CONTINUOUS
 62
    4
 10
1158.4947368377495
 20
547.82509572196773
 40
1.2083333333333581
 50
307.52351320333912
 51
232.47648680464988
  0
ARC
  8
_0-1_線色１__水色__
  6
CONTINUOUS
 62
    4
 10
1159.9666969822247
 20
545.90842905536817
 40
1.2083333333333177
 50
127.52351320610693
 51
52.47648680188081
  0
ARC
  8
_0-1_線色１__水色__
  6
CONTINUOUS
 62
    4
 10
1155.5508165490662
 20
547.82509572176252
 40
1.2083333333333581
 50
307.52351320333912
 51
232.47648680464988
  0
ARC
  8
_0-1_線色１__水色__
  6
CONTINUOUS
 62
    4
 10
1157.0227766935413
 20
545.90842905516297
 40
1.2083333333333177
 50
127.52351320610693
 51
52.47648680188081
  0
ARC
  8
_0-1_線色１__水色__
  6
CONTINUOUS
 62
    4
 10
1152.6068962603827
 20
547.82509572155732
 40
1.2083333333333581
 50
307.52351320333912
 51
232.47648680464988
  0
ARC
  8
_0-1_線色１__水色__
  6
CONTINUOUS
 62
    4
 10
1154.078856404858
 20
545.90842905495776
 40
1.2083333333333177
 50
127.52351320610693
 51
52.47648680188081
  0
ARC
  8
_0-1_線色１__水色__
  6
CONTINUOUS
 62
    4
 10
1149.6629759716993
 20
547.82509572135211
 40
1.2083333333333581
 50
307.52351320333912
 51
232.47648680464988
  0
ARC
  8
_0-1_線色１__水色__
  6
CONTINUOUS
 62
    4
 10
1151.1349361161747
 20
545.90842905475256
 40
1.2083333333333177
 50
127.52351320610693
 51
52.47648680188081
  0
ARC
  8
_0-1_線色１__水色__
  6
CONTINUOUS
 62
    4
 10
1143.7751353943327
 20
547.8250957209417
 40
1.2083333333333581
 50
307.52351320333912
 51
232.47648680464988
  0
ARC
  8
_0-1_線色１__水色__
  6
CONTINUOUS
 62
    4
 10
1146.719055683016
 20
547.82509572114691
 40
1.2083333333333581
 50
307.52351320333912
 51
232.47648680464988
  0
ARC
  8
_0-1_線色１__水色__
  6
CONTINUOUS
 62
    4
 10
1145.247095538808
 20
545.90842905434215
 40
1.2083333333333177
 50
127.52351320610693
 51
52.47648680188081
  0
ARC
  8
_0-1_線色１__水色__
  6
CONTINUOUS
 62
    4
 10
1148.1910158274914
 20
545.90842905454736
 40
1.2083333333333177
 50
127.52351320610693
 51
52.47648680188081
  0
ARC
  8
_0-1_線色１__水色__
  6
CONTINUOUS
 62
    4
 10
1142.3031752501245
 20
545.90842905413695
 40
1.2083333333333177
 50
127.52351320610693
 51
52.47648680188081
  0
ARC
  8
_0-1_線色１__水色__
  6
CONTINUOUS
 62
    4
 10
1140.8312151056493
 20
547.8250957207365
 40
1.2083333333333581
 50
307.52351320333912
 51
232.47648680464988
  0
ARC
  8
_0-1_線色１__水色__
  6
CONTINUOUS
 62
    4
 10
1182.046099147216
 20
547.82509572237814
 40
1.2083333333333581
 50
307.52351320333912
 51
232.47648680464988
  0
ARC
  8
_0-1_線色１__水色__
  6
CONTINUOUS
 62
    4
 10
1183.5180592916915
 20
545.90842905577858
 40
1.2083333333333177
 50
127.52351320610693
 51
52.47648680188081
  0
ARC
  8
_0-1_線色１__水色__
  6
CONTINUOUS
 62
    4
 10
1179.1021788585326
 20
547.82509572217293
 40
1.2083333333333581
 50
307.52351320333912
 51
232.47648680464988
  0
ARC
  8
_0-1_線色１__水色__
  6
CONTINUOUS
 62
    4
 10
1180.5741390030082
 20
545.90842905557338
 40
1.2083333333333177
 50
127.52351320610693
 51
52.47648680188081
  0
ARC
  8
_0-1_線色１__水色__
  6
CONTINUOUS
 62
    4
 10
1176.1582585698497
 20
547.82509572196773
 40
1.2083333333333581
 50
307.52351320333912
 51
232.47648680464988
  0
ARC
  8
_0-1_線色１__水色__
  6
CONTINUOUS
 62
    4
 10
1177.6302187143247
 20
545.90842905536817
 40
1.2083333333333177
 50
127.52351320610693
 51
52.47648680188081
  0
ARC
  8
_0-1_線色１__水色__
  6
CONTINUOUS
 62
    4
 10
1173.2143382811662
 20
547.82509572176252
 40
1.2083333333333581
 50
307.52351320333912
 51
232.47648680464988
  0
ARC
  8
_0-1_線色１__水色__
  6
CONTINUOUS
 62
    4
 10
1174.6862984256413
 20
545.90842905516297
 40
1.2083333333333177
 50
127.52351320610693
 51
52.47648680188081
  0
ARC
  8
_0-1_線色１__水色__
  6
CONTINUOUS
 62
    4
 10
1170.2704179924829
 20
547.82509572155732
 40
1.2083333333333581
 50
307.52351320333912
 51
232.47648680464988
  0
ARC
  8
_0-1_線色１__水色__
  6
CONTINUOUS
 62
    4
 10
1171.7423781369578
 20
545.90842905495776
 40
1.2083333333333177
 50
127.52351320610693
 51
52.47648680188081
  0
ARC
  8
_0-1_線色１__水色__
  6
CONTINUOUS
 62
    4
 10
1167.3264977037993
 20
547.82509572135211
 40
1.2083333333333581
 50
307.52351320333912
 51
232.47648680464988
  0
ARC
  8
_0-1_線色１__水色__
  6
CONTINUOUS
 62
    4
 10
1168.7984578482744
 20
545.90842905475256
 40
1.2083333333333177
 50
127.52351320610693
 51
52.47648680188081
  0
ARC
  8
_0-1_線色１__水色__
  6
CONTINUOUS
 62
    4
 10
1208.5413817453662
 20
547.82509572237814
 40
1.2083333333333581
 50
307.52351320333912
 51
232.47648680464988
  0
ARC
  8
_0-1_線色１__水色__
  6
CONTINUOUS
 62
    4
 10
1210.0133418898415
 20
545.90842905577858
 40
1.2083333333333177
 50
127.52351320610693
 51
52.47648680188081
  0
ARC
  8
_0-1_線色１__水色__
  6
CONTINUOUS
 62
    4
 10
1205.597461456683
 20
547.82509572217293
 40
1.2083333333333581
 50
307.52351320333912
 51
232.47648680464988
  0
ARC
  8
_0-1_線色１__水色__
  6
CONTINUOUS
 62
    4
 10
1207.069421601158
 20
545.90842905557338
 40
1.2083333333333177
 50
127.52351320610693
 51
52.47648680188081
  0
ARC
  8
_0-1_線色１__水色__
  6
CONTINUOUS
 62
    4
 10
1202.6535411679995
 20
547.82509572196773
 40
1.2083333333333581
 50
307.52351320333912
 51
232.47648680464988
  0
ARC
  8
_0-1_線色１__水色__
  6
CONTINUOUS
 62
    4
 10
1204.1255013124749
 20
545.90842905536817
 40
1.2083333333333177
 50
127.52351320610693
 51
52.47648680188081
  0
ARC
  8
_0-1_線色１__水色__
  6
CONTINUOUS
 62
    4
 10
1199.7096208793162
 20
547.82509572176252
 40
1.2083333333333581
 50
307.52351320333912
 51
232.47648680464988
  0
ARC
  8
_0-1_線色１__水色__
  6
CONTINUOUS
 62
    4
 10
1201.1815810237918
 20
545.90842905516297
 40
1.2083333333333177
 50
127.52351320610693
 51
52.47648680188081
  0
ARC
  8
_0-1_線色１__水色__
  6
CONTINUOUS
 62
    4
 10
1196.7657005906326
 20
547.82509572155732
 40
1.2083333333333581
 50
307.52351320333912
 51
232.47648680464988
  0
ARC
  8
_0-1_線色１__水色__
  6
CONTINUOUS
 62
    4
 10
1198.2376607351082
 20
545.90842905495776
 40
1.2083333333333177
 50
127.52351320610693
 51
52.47648680188081
  0
ARC
  8
_0-1_線色１__水色__
  6
CONTINUOUS
 62
    4
 10
1193.8217803019495
 20
547.82509572135211
 40
1.2083333333333581
 50
307.52351320333912
 51
232.47648680464988
  0
ARC
  8
_0-1_線色１__水色__
  6
CONTINUOUS
 62
    4
 10
1195.2937404464249
 20
545.90842905475256
 40
1.2083333333333177
 50
127.52351320610693
 51
52.47648680188081
  0
ARC
  8
_0-1_線色１__水色__
  6
CONTINUOUS
 62
    4
 10
1187.9339397245828
 20
547.8250957209417
 40
1.2083333333333581
 50
307.52351320333912
 51
232.47648680464988
  0
ARC
  8
_0-1_線色１__水色__
  6
CONTINUOUS
 62
    4
 10
1190.8778600132664
 20
547.82509572114691
 40
1.2083333333333581
 50
307.52351320333912
 51
232.47648680464988
  0
ARC
  8
_0-1_線色１__水色__
  6
CONTINUOUS
 62
    4
 10
1189.4058998690582
 20
545.90842905434215
 40
1.2083333333333177
 50
127.52351320610693
 51
52.47648680188081
  0
ARC
  8
_0-1_線色１__水色__
  6
CONTINUOUS
 62
    4
 10
1192.3498201577413
 20
545.90842905454736
 40
1.2083333333333177
 50
127.52351320610693
 51
52.47648680188081
  0
ARC
  8
_0-1_線色１__水色__
  6
CONTINUOUS
 62
    4
 10
1186.4619795803746
 20
545.90842905413695
 40
1.2083333333333177
 50
127.52351320610693
 51
52.47648680188081
  0
ARC
  8
_0-1_線色１__水色__
  6
CONTINUOUS
 62
    4
 10
1184.9900194358995
 20
547.8250957207365
 40
1.2083333333333581
 50
307.52351320333912
 51
232.47648680464988
  0
ARC
  8
_0-1_線色１__水色__
  6
CONTINUOUS
 62
    4
 10
1235.0366643435163
 20
547.82509572237814
 40
1.2083333333333581
 50
307.52351320333912
 51
232.47648680464988
  0
ARC
  8
_0-1_線色１__水色__
  6
CONTINUOUS
 62
    4
 10
1236.5086244879919
 20
545.90842905577858
 40
1.2083333333333177
 50
127.52351320610693
 51
52.47648680188081
  0
ARC
  8
_0-1_線色１__水色__
  6
CONTINUOUS
 62
    4
 10
1232.092744054833
 20
547.82509572217293
 40
1.2083333333333581
 50
307.52351320333912
 51
232.47648680464988
  0
ARC
  8
_0-1_線色１__水色__
  6
CONTINUOUS
 62
    4
 10
1233.5647041993084
 20
545.90842905557338
 40
1.2083333333333177
 50
127.52351320610693
 51
52.47648680188081
  0
ARC
  8
_0-1_線色１__水色__
  6
CONTINUOUS
 62
    4
 10
1229.1488237661499
 20
547.82509572196773
 40
1.2083333333333581
 50
307.52351320333912
 51
232.47648680464988
  0
ARC
  8
_0-1_線色１__水色__
  6
CONTINUOUS
 62
    4
 10
1230.6207839106251
 20
545.90842905536817
 40
1.2083333333333177
 50
127.52351320610693
 51
52.47648680188081
  0
ARC
  8
_0-1_線色１__水色__
  6
CONTINUOUS
 62
    4
 10
1226.2049034774666
 20
547.82509572176252
 40
1.2083333333333581
 50
307.52351320333912
 51
232.47648680464988
  0
ARC
  8
_0-1_線色１__水色__
  6
CONTINUOUS
 62
    4
 10
1227.6768636219417
 20
545.90842905516297
 40
1.2083333333333177
 50
127.52351320610693
 51
52.47648680188081
  0
ARC
  8
_0-1_線色１__水色__
  6
CONTINUOUS
 62
    4
 10
1223.260983188783
 20
547.82509572155732
 40
1.2083333333333581
 50
307.52351320333912
 51
232.47648680464988
  0
ARC
  8
_0-1_線色１__水色__
  6
CONTINUOUS
 62
    4
 10
1224.7329433332584
 20
545.90842905495776
 40
1.2083333333333177
 50
127.52351320610693
 51
52.47648680188081
  0
ARC
  8
_0-1_線色１__水色__
  6
CONTINUOUS
 62
    4
 10
1220.3170629000997
 20
547.82509572135211
 40
1.2083333333333581
 50
307.52351320333912
 51
232.47648680464988
  0
ARC
  8
_0-1_線色１__水色__
  6
CONTINUOUS
 62
    4
 10
1221.7890230445751
 20
545.90842905475256
 40
1.2083333333333177
 50
127.52351320610693
 51
52.47648680188081
  0
ARC
  8
_0-1_線色１__水色__
  6
CONTINUOUS
 62
    4
 10
1214.429222322733
 20
547.8250957209417
 40
1.2083333333333581
 50
307.52351320333912
 51
232.47648680464988
  0
ARC
  8
_0-1_線色１__水色__
  6
CONTINUOUS
 62
    4
 10
1217.3731426114164
 20
547.82509572114691
 40
1.2083333333333581
 50
307.52351320333912
 51
232.47648680464988
  0
ARC
  8
_0-1_線色１__水色__
  6
CONTINUOUS
 62
    4
 10
1215.9011824672084
 20
545.90842905434215
 40
1.2083333333333177
 50
127.52351320610693
 51
52.47648680188081
  0
ARC
  8
_0-1_線色１__水色__
  6
CONTINUOUS
 62
    4
 10
1218.8451027558917
 20
545.90842905454736
 40
1.2083333333333177
 50
127.52351320610693
 51
52.47648680188081
  0
ARC
  8
_0-1_線色１__水色__
  6
CONTINUOUS
 62
    4
 10
1212.9572621785248
 20
545.90842905413695
 40
1.2083333333333177
 50
127.52351320610693
 51
52.47648680188081
  0
ARC
  8
_0-1_線色１__水色__
  6
CONTINUOUS
 62
    4
 10
1211.4853020340497
 20
547.8250957207365
 40
1.2083333333333581
 50
307.52351320333912
 51
232.47648680464988
  0
ARC
  8
_0-1_線色１__水色__
  6
CONTINUOUS
 62
    4
 10
1237.9805846321997
 20
547.82509572196773
 40
1.2083333333333581
 50
307.52351320333912
 51
232.47648680464988
  0
ARC
  8
_0-1_線色１__水色__
  6
CONTINUOUS
 62
    4
 10
1239.452544776675
 20
545.90842905536817
 40
1.2083333333333177
 50
127.5235132061069
 51
270
  0
ARC
  8
_0-1_線色１__水色__
  6
CONTINUOUS
 62
    4
 10
1126.1116136622556
 20
547.8250957215397
 40
1.2083333333333581
 50
307.52351320333912
 51
232.47648680464988
  0
ARC
  8
_0-1_線色１__水色__
  6
CONTINUOUS
 62
    4
 10
1127.5835738067306
 20
545.90842905494014
 40
1.2083333333333177
 50
127.52351320610693
 51
52.47648680188081
  0
ARC
  8
_0-1_線色１__水色__
  6
CONTINUOUS
 62
    4
 10
1123.1676933735721
 20
547.82509572133449
 40
1.2083333333333581
 50
307.52351320333912
 51
232.47648680464988
  0
ARC
  8
_0-1_線色１__水色__
  6
CONTINUOUS
 62
    4
 10
1124.6396535180472
 20
545.90842905473494
 40
1.2083333333333177
 50
127.52351320610693
 51
52.47648680188081
  0
ARC
  8
_0-1_線色１__水色__
  6
CONTINUOUS
 62
    4
 10
1120.2237730848888
 20
547.82509572112929
 40
1.2083333333333581
 50
307.52351320333912
 51
232.47648680464988
  0
ARC
  8
_0-1_線色１__水色__
  6
CONTINUOUS
 62
    4
 10
1121.6957332293637
 20
545.90842905452973
 40
1.2083333333333177
 50
127.52351320610693
 51
52.47648680188081
  0
ARC
  8
_0-1_線色１__水色__
  6
CONTINUOUS
 62
    4
 10
1118.7518129406808
 20
545.90842905432453
 40
1.2083333333333177
 50
127.52351320610693
 51
52.47648680188081
  0
ARC
  8
_0-1_線色１__水色__
  6
CONTINUOUS
 62
    4
 10
1117.2798527962054
 20
547.82509572092408
 40
1.2083333333333581
 50
307.52351320333912
 51
232.47648680464988
  0
ARC
  8
_0-1_線色１__水色__
  6
CONTINUOUS
 62
    4
 10
1114.3359325075223
 20
547.82509572071888
 40
1.2083333333333581
 50
307.52351320333912
 51
232.47648680464988
  0
ARC
  8
_0-1_線色１__水色__
  6
CONTINUOUS
 62
    4
 10
1115.8078926519975
 20
545.90842905411932
 40
1.2083333333333177
 50
127.52351320610693
 51
52.47648680188081
  0
ARC
  8
_0-1_線色１__水色__
  6
CONTINUOUS
 62
    4
 10
1111.392012218839
 20
547.82509572051367
 40
1.2083333333333581
 50
307.52351320333912
 51
232.47648680464988
  0
ARC
  8
_0-1_線色１__水色__
  6
CONTINUOUS
 62
    4
 10
1112.8639723633141
 20
545.90842905391412
 40
1.2083333333333177
 50
127.52351320610693
 51
52.47648680188081
  0
ARC
  8
_0-1_線色１__水色__
  6
CONTINUOUS
 62
    4
 10
1108.4480919301554
 20
547.82509572030847
 40
1.2083333333333581
 50
307.52351320333912
 51
232.47648680464988
  0
ARC
  8
_0-1_線色１__水色__
  6
CONTINUOUS
 62
    4
 10
1109.920052074631
 20
545.90842905370891
 40
1.2083333333333177
 50
127.52351320610693
 51
52.47648680188081
  0
ARC
  8
_0-1_線色１__水色__
  6
CONTINUOUS
 62
    4
 10
1105.5041716414953
 20
547.82509572008507
 40
1.2083333333333581
 50
307.52351320333912
 51
232.47648680464988
  0
ARC
  8
_0-1_線色１__水色__
  6
CONTINUOUS
 62
    4
 10
1106.9761317859704
 20
545.90842905348552
 40
1.2083333333333177
 50
127.52351320610693
 51
52.47648680188081
  0
ARC
  8
_0-1_線色１__水色__
  6
CONTINUOUS
 62
    4
 10
1102.560251352812
 20
547.82509571987987
 40
1.2083333333333581
 50
307.52351320333912
 51
232.47648680464988
  0
ARC
  8
_0-1_線色１__水色__
  6
CONTINUOUS
 62
    4
 10
1104.0322114972869
 20
545.90842905328032
 40
1.2083333333333177
 50
127.52351320610693
 51
52.47648680188081
  0
ARC
  8
_0-1_線色１__水色__
  6
CONTINUOUS
 62
    4
 10
1099.6163310641284
 20
547.82509571967466
 40
1.2083333333333581
 50
307.52351320333912
 51
232.47648680464988
  0
ARC
  8
_0-1_線色１__水色__
  6
CONTINUOUS
 62
    4
 10
1101.0882912086036
 20
545.90842905307511
 40
1.2083333333333177
 50
127.52351320610693
 51
52.47648680188081
  0
ARC
  8
_0-1_線色１__水色__
  6
CONTINUOUS
 62
    4
 10
1098.1443709199207
 20
545.90842905286991
 40
1.2083333333333177
 50
127.52351320610693
 51
52.47648680188081
  0
ARC
  8
_0-1_線色１__水色__
  6
CONTINUOUS
 62
    4
 10
1096.6724107754453
 20
547.82509571947003
 40
1.2083333333333581
 50
307.52351320333912
 51
232.47648680464988
  0
ARC
  8
_0-1_線色１__水色__
  6
CONTINUOUS
 62
    4
 10
1093.7284904867622
 20
547.82509571926482
 40
1.2083333333333581
 50
307.52351320333912
 51
232.47648680464988
  0
ARC
  8
_0-1_線色１__水色__
  6
CONTINUOUS
 62
    4
 10
1095.2004506312371
 20
545.90842905266527
 40
1.2083333333333177
 50
127.52351320610693
 51
52.47648680188081
  0
ARC
  8
_0-1_線色１__水色__
  6
CONTINUOUS
 62
    4
 10
1090.7845701980787
 20
547.82509571905962
 40
1.2083333333333581
 50
307.52351320333912
 51
232.47648680464988
  0
ARC
  8
_0-1_線色１__水色__
  6
CONTINUOUS
 62
    4
 10
1092.256530342554
 20
545.90842905246006
 40
1.2083333333333177
 50
127.52351320610693
 51
52.47648680188081
  0
ARC
  8
_0-1_線色１__水色__
  6
CONTINUOUS
 62
    4
 10
1087.8406499093953
 20
547.82509571885441
 40
1.2083333333333581
 50
307.52351320333912
 51
232.47648680464988
  0
ARC
  8
_0-1_線色１__水色__
  6
CONTINUOUS
 62
    4
 10
1089.3126100538709
 20
545.90842905225486
 40
1.2083333333333177
 50
127.52351320610693
 51
52.47648680188081
  0
ARC
  8
_0-1_線色１__水色__
  6
CONTINUOUS
 62
    4
 10
1084.8967296207352
 20
547.82509571863102
 40
1.2083333333333581
 50
307.52351320333912
 51
232.47648680464988
  0
ARC
  8
_0-1_線色１__水色__
  6
CONTINUOUS
 62
    4
 10
1086.3686897652101
 20
545.90842905203147
 40
1.2083333333333177
 50
127.52351320610693
 51
52.47648680188081
  0
ARC
  8
_0-1_線色１__水色__
  6
CONTINUOUS
 62
    4
 10
1081.9528093320516
 20
547.82509571842581
 40
1.2083333333333581
 50
307.52351320333912
 51
232.47648680464988
  0
ARC
  8
_0-1_線色１__水色__
  6
CONTINUOUS
 62
    4
 10
1083.4247694765268
 20
545.90842905182626
 40
1.2083333333333177
 50
127.52351320610693
 51
52.47648680188081
  0
ARC
  8
_0-1_線色１__水色__
  6
CONTINUOUS
 62
    4
 10
1079.0088890433683
 20
547.82509571822061
 40
1.2083333333333581
 50
307.52351320333912
 51
232.47648680464988
  0
ARC
  8
_0-1_線色１__水色__
  6
CONTINUOUS
 62
    4
 10
1080.4808491878432
 20
545.90842905162106
 40
1.2083333333333177
 50
127.52351320610693
 51
52.47648680188081
  0
ARC
  8
_0-1_線色１__水色__
  6
CONTINUOUS
 62
    4
 10
1077.5369288991603
 20
545.90842905141585
 40
1.2083333333333177
 50
127.52351320610693
 51
52.47648680188081
  0
ARC
  8
_0-1_線色１__水色__
  6
CONTINUOUS
 62
    4
 10
1076.0649687546852
 20
547.8250957180154
 40
1.2083333333333581
 50
307.52351320333912
 51
232.47648680464988
  0
ARC
  8
_0-1_線色１__水色__
  6
CONTINUOUS
 62
    4
 10
1073.1210484660019
 20
547.8250957178102
 40
1.2083333333333581
 50
307.52351320333912
 51
232.47648680464988
  0
ARC
  8
_0-1_線色１__水色__
  6
CONTINUOUS
 62
    4
 10
1074.593008610477
 20
545.90842905121065
 40
1.2083333333333177
 50
127.52351320610693
 51
52.47648680188081
  0
ARC
  8
_0-1_線色１__水色__
  6
CONTINUOUS
 62
    4
 10
1070.1771281773185
 20
547.825095717605
 40
1.2083333333333581
 50
307.52351320333912
 51
232.47648680464988
  0
ARC
  8
_0-1_線色１__水色__
  6
CONTINUOUS
 62
    4
 10
1071.6490883217939
 20
545.90842905100544
 40
1.2083333333333177
 50
127.52351320610693
 51
52.47648680188081
  0
ARC
  8
_0-1_線色１__水色__
  6
CONTINUOUS
 62
    4
 10
1067.233207888635
 20
547.82509571739979
 40
1.2083333333333581
 50
307.52351320333912
 51
232.47648680464988
  0
ARC
  8
_0-1_線色１__水色__
  6
CONTINUOUS
 62
    4
 10
1068.7051680331106
 20
545.90842905080024
 40
1.2083333333333177
 50
127.52351320610693
 51
52.47648680188081
  0
ARC
  8
_0-1_線色１__水色__
  6
CONTINUOUS
 62
    4
 10
1064.2892875999748
 20
547.82509571717696
 40
1.2083333333333581
 50
307.52351320333912
 51
232.47648680464988
  0
ARC
  8
_0-1_線色１__水色__
  6
CONTINUOUS
 62
    4
 10
1065.76124774445
 20
545.90842905057741
 40
1.2083333333333177
 50
127.52351320610693
 51
52.47648680188081
  0
ARC
  8
_0-1_線色１__水色__
  6
CONTINUOUS
 62
    4
 10
1061.3453673112915
 20
547.82509571697176
 40
1.2083333333333581
 50
307.52351320333912
 51
232.47648680464988
  0
ARC
  8
_0-1_線色１__水色__
  6
CONTINUOUS
 62
    4
 10
1062.8173274557664
 20
545.90842905037221
 40
1.2083333333333177
 50
127.52351320610693
 51
52.47648680188081
  0
ARC
  8
_0-1_線色１__水色__
  6
CONTINUOUS
 62
    4
 10
1058.401447022608
 20
547.82509571676655
 40
1.2083333333333581
 50
307.52351320333912
 51
232.47648680464988
  0
ARC
  8
_0-1_線色１__水色__
  6
CONTINUOUS
 62
    4
 10
1059.8734071670831
 20
545.908429050167
 40
1.2083333333333177
 50
127.52351320610693
 51
52.47648680188081
  0
ARC
  8
_0-1_線色１__水色__
  6
CONTINUOUS
 62
    4
 10
1056.9294868784002
 20
545.9084290499618
 40
1.2083333333333177
 50
127.52351320610693
 51
52.47648680188081
  0
ARC
  8
_0-1_線色１__水色__
  6
CONTINUOUS
 62
    4
 10
1055.4575267339249
 20
547.82509571656135
 40
1.2083333333333581
 50
307.52351320333912
 51
232.47648680464988
  0
ARC
  8
_0-1_線色１__水色__
  6
CONTINUOUS
 62
    4
 10
1052.5136064452417
 20
547.82509571635615
 40
1.2083333333333581
 50
307.52351320333912
 51
232.47648680464988
  0
ARC
  8
_0-1_線色１__水色__
  6
CONTINUOUS
 62
    4
 10
1053.9855665897167
 20
545.90842904975659
 40
1.2083333333333177
 50
127.52351320610693
 51
52.47648680188081
  0
ARC
  8
_0-1_線色１__水色__
  6
CONTINUOUS
 62
    4
 10
1049.5696861565582
 20
547.82509571615094
 40
1.2083333333333581
 50
307.52351320333912
 51
232.47648680464988
  0
ARC
  8
_0-1_線色１__水色__
  6
CONTINUOUS
 62
    4
 10
1051.0416463010336
 20
545.90842904955139
 40
1.2083333333333177
 50
127.52351320610693
 51
52.47648680188081
  0
ARC
  8
_0-1_線色１__水色__
  6
CONTINUOUS
 62
    4
 10
1046.6257658678749
 20
547.82509571594574
 40
1.2083333333333581
 50
307.52351320333912
 51
232.47648680464988
  0
ARC
  8
_0-1_線色１__水色__
  6
CONTINUOUS
 62
    4
 10
1048.0977260123504
 20
545.90842904934618
 40
1.2083333333333177
 50
127.52351320610693
 51
52.47648680188081
  0
ARC
  8
_0-1_線色１__水色__
  6
CONTINUOUS
 62
    4
 10
1043.6818455792147
 20
547.82509571572291
 40
1.2083333333333581
 50
307.52351320333912
 51
232.47648680464988
  0
ARC
  8
_0-1_線色１__水色__
  6
CONTINUOUS
 62
    4
 10
1045.1538057236896
 20
545.90842904912336
 40
1.2083333333333177
 50
127.52351320610693
 51
52.47648680188081
  0
ARC
  8
_0-1_線色１__水色__
  6
CONTINUOUS
 62
    4
 10
1040.7379252905312
 20
547.8250957155177
 40
1.2083333333333581
 50
307.52351320333912
 51
232.47648680464988
  0
ARC
  8
_0-1_線色１__水色__
  6
CONTINUOUS
 62
    4
 10
1042.2098854350063
 20
545.90842904891815
 40
1.2083333333333177
 50
127.52351320610693
 51
52.47648680188081
  0
ARC
  8
_0-1_線色１__水色__
  6
CONTINUOUS
 62
    4
 10
1037.7940050018478
 20
547.8250957153125
 40
1.2083333333333581
 50
307.52351320333912
 51
232.47648680464988
  0
ARC
  8
_0-1_線色１__水色__
  6
CONTINUOUS
 62
    4
 10
1039.2659651463227
 20
545.90842904871295
 40
1.2083333333333177
 50
127.52351320610693
 51
52.47648680188081
  0
ARC
  8
_0-1_線色１__水色__
  6
CONTINUOUS
 62
    4
 10
1036.3220448576399
 20
545.90842904850774
 40
1.2083333333333177
 50
127.52351320610693
 51
52.47648680188081
  0
ARC
  8
_0-1_線色１__水色__
  6
CONTINUOUS
 62
    4
 10
1034.8500847131645
 20
547.8250957151073
 40
1.2083333333333581
 50
307.52351320333912
 51
232.47648680464988
  0
ARC
  8
_0-1_線色１__水色__
  6
CONTINUOUS
 62
    4
 10
1031.9061644244814
 20
547.82509571490209
 40
1.2083333333333581
 50
307.52351320333912
 51
232.47648680464988
  0
ARC
  8
_0-1_線色１__水色__
  6
CONTINUOUS
 62
    4
 10
1033.3781245689565
 20
545.90842904830254
 40
1.2083333333333177
 50
127.52351320610693
 51
52.47648680188081
  0
ARC
  8
_0-1_線色１__水色__
  6
CONTINUOUS
 62
    4
 10
1028.9622441357981
 20
547.82509571469689
 40
1.2083333333333581
 50
307.52351320333912
 51
232.47648680464988
  0
ARC
  8
_0-1_線色１__水色__
  6
CONTINUOUS
 62
    4
 10
1030.4342042802732
 20
545.90842904809733
 40
1.2083333333333177
 50
127.52351320610693
 51
52.47648680188081
  0
ARC
  8
_0-1_線色１__水色__
  6
CONTINUOUS
 62
    4
 10
1026.0183238471145
 20
547.82509571449168
 40
1.2083333333333581
 50
307.52351320333912
 51
232.47648680464988
  0
ARC
  8
_0-1_線色１__水色__
  6
CONTINUOUS
 62
    4
 10
1027.4902839915901
 20
545.90842904789213
 40
1.2083333333333177
 50
127.52351320610693
 51
52.47648680188081
  0
ARC
  8
_0-1_線色１__水色__
  6
CONTINUOUS
 62
    4
 10
1023.0744035584544
 20
547.82509571426829
 40
1.2083333333333581
 50
307.52351320333912
 51
232.47648680464988
  0
ARC
  8
_0-1_線色１__水色__
  6
CONTINUOUS
 62
    4
 10
1024.5463637029295
 20
545.90842904766873
 40
1.2083333333333177
 50
127.52351320610693
 51
52.47648680188081
  0
ARC
  8
_0-1_線色１__水色__
  6
CONTINUOUS
 62
    4
 10
1020.130483269771
 20
547.82509571406308
 40
1.2083333333333581
 50
307.52351320333912
 51
232.47648680464988
  0
ARC
  8
_0-1_線色１__水色__
  6
CONTINUOUS
 62
    4
 10
1021.602443414246
 20
545.90842904746353
 40
1.2083333333333177
 50
127.52351320610693
 51
52.47648680188081
  0
ARC
  8
_0-1_線色１__水色__
  6
CONTINUOUS
 62
    4
 10
1017.1865629810875
 20
547.82509571385788
 40
1.2083333333333581
 50
307.52351320333912
 51
232.47648680464988
  0
ARC
  8
_0-1_線色１__水色__
  6
CONTINUOUS
 62
    4
 10
1018.6585231255626
 20
545.90842904725832
 40
1.2083333333333177
 50
127.52351320610693
 51
52.47648680188081
  0
ARC
  8
_0-1_線色１__水色__
  6
CONTINUOUS
 62
    4
 10
1015.7146028368797
 20
545.90842904705312
 40
1.2083333333333177
 50
127.52351320610693
 51
52.47648680188081
  0
ARC
  8
_0-1_線色１__水色__
  6
CONTINUOUS
 62
    4
 10
1014.2426426924044
 20
547.82509571365324
 40
1.2083333333333581
 50
307.52351320333912
 51
232.47648680464988
  0
ARC
  8
_0-1_線色１__水色__
  6
CONTINUOUS
 62
    4
 10
1011.2987224037213
 20
547.82509571344804
 40
1.2083333333333581
 50
307.52351320333912
 51
232.47648680464988
  0
ARC
  8
_0-1_線色１__水色__
  6
CONTINUOUS
 62
    4
 10
1012.7706825481962
 20
545.90842904684848
 40
1.2083333333333177
 50
127.52351320610693
 51
52.47648680188081
  0
ARC
  8
_0-1_線色１__水色__
  6
CONTINUOUS
 62
    4
 10
1008.3548021150377
 20
547.82509571324283
 40
1.2083333333333581
 50
307.52351320333912
 51
232.47648680464988
  0
ARC
  8
_0-1_線色１__水色__
  6
CONTINUOUS
 62
    4
 10
1009.8267622595131
 20
545.90842904664328
 40
1.2083333333333177
 50
127.52351320610693
 51
52.47648680188081
  0
ARC
  8
_0-1_線色１__水色__
  6
CONTINUOUS
 62
    4
 10
1005.4108818263544
 20
547.82509571303763
 40
1.2083333333333581
 50
307.52351320333912
 51
232.47648680464988
  0
ARC
  8
_0-1_線色１__水色__
  6
CONTINUOUS
 62
    4
 10
1006.88284197083
 20
545.90842904643807
 40
1.2083333333333177
 50
127.52351320610693
 51
52.47648680188081
  0
ARC
  8
_0-1_線色１__水色__
  6
CONTINUOUS
 62
    4
 10
1002.4669615376943
 20
547.82509571281423
 40
1.2083333333333581
 50
307.52351320333912
 51
232.47648680464988
  0
ARC
  8
_0-1_線色１__水色__
  6
CONTINUOUS
 62
    4
 10
1003.9389216821692
 20
545.90842904621468
 40
1.2083333333333177
 50
127.52351320610693
 51
52.47648680188081
  0
ARC
  8
_0-1_線色１__水色__
  6
CONTINUOUS
 62
    4
 10
999.5230412490107
 20
547.82509571260903
 40
1.2083333333333581
 50
307.52351320333912
 51
232.47648680464988
  0
ARC
  8
_0-1_線色１__水色__
  6
CONTINUOUS
 62
    4
 10
1000.9950013934858
 20
545.90842904600947
 40
1.2083333333333177
 50
127.52351320610693
 51
52.47648680188081
  0
ARC
  8
_0-1_線色１__水色__
  6
CONTINUOUS
 62
    4
 10
996.57912096032737
 20
547.82509571240382
 40
1.2083333333333581
 50
307.52351320333912
 51
232.47648680464988
  0
ARC
  8
_0-1_線色１__水色__
  6
CONTINUOUS
 62
    4
 10
998.05108110480228
 20
545.90842904580427
 40
1.2083333333333177
 50
127.52351320610693
 51
52.47648680188081
  0
ARC
  8
_0-1_線色１__水色__
  6
CONTINUOUS
 62
    4
 10
995.1071608161194
 20
545.90842904559906
 40
1.2083333333333177
 50
127.52351320610693
 51
52.47648680188081
  0
ARC
  8
_0-1_線色１__水色__
  6
CONTINUOUS
 62
    4
 10
993.63520067164416
 20
547.82509571219862
 40
1.2083333333333581
 50
307.52351320333912
 51
232.47648680464988
  0
ARC
  8
_0-1_線色１__水色__
  6
CONTINUOUS
 62
    4
 10
990.69128038296094
 20
547.82509571199341
 40
1.2083333333333581
 50
307.52351320333912
 51
232.47648680464988
  0
ARC
  8
_0-1_線色１__水色__
  6
CONTINUOUS
 62
    4
 10
992.16324052743607
 20
545.90842904539386
 40
1.2083333333333177
 50
127.52351320610693
 51
52.47648680188081
  0
ARC
  8
_0-1_線色１__水色__
  6
CONTINUOUS
 62
    4
 10
987.74736009427761
 20
547.82509571178821
 40
1.2083333333333581
 50
307.52351320333912
 51
232.47648680464988
  0
ARC
  8
_0-1_線色１__水色__
  6
CONTINUOUS
 62
    4
 10
989.21932023875286
 20
545.90842904518865
 40
1.2083333333333177
 50
127.52351320610693
 51
52.47648680188081
  0
ARC
  8
_0-1_線色１__水色__
  6
CONTINUOUS
 62
    4
 10
984.80343980559405
 20
547.825095711583
 40
1.2083333333333581
 50
307.52351320333912
 51
232.47648680464988
  0
ARC
  8
_0-1_線色１__水色__
  6
CONTINUOUS
 62
    4
 10
986.27539995006964
 20
545.90842904498345
 40
1.2083333333333177
 50
127.52351320610693
 51
52.47648680188081
  0
ARC
  8
_0-1_線色１__水色__
  6
CONTINUOUS
 62
    4
 10
981.85951951693391
 20
547.82509571136018
 40
1.2083333333333581
 50
307.52351320333912
 51
232.47648680464988
  0
ARC
  8
_0-1_線色１__水色__
  6
CONTINUOUS
 62
    4
 10
983.33147966140905
 20
545.90842904476062
 40
1.2083333333333177
 50
127.52351320610693
 51
52.47648680188081
  0
ARC
  8
_0-1_線色１__水色__
  6
CONTINUOUS
 62
    4
 10
978.91559922825058
 20
547.82509571115497
 40
1.2083333333333581
 50
307.52351320333912
 51
232.47648680464988
  0
ARC
  8
_0-1_線色１__水色__
  6
CONTINUOUS
 62
    4
 10
980.38755937272549
 20
545.90842904455542
 40
1.2083333333333177
 50
127.52351320610693
 51
52.47648680188081
  0
LINE
  8
_0-5_金属
  6
CONTINUOUS
 62
    7
 10
1045.5352746766794
 20
450.36676138501036
 11
1109.5352746766798
 21
450.36676138501036
  0
LINE
  8
_0-5_金属
  6
CONTINUOUS
 62
    7
 10
959.53527467667982
 20
450.36676138501036
 11
1023.5352746766796
 21
450.36676138501036
  0
ARC
  8
_0-5_金属
  6
CONTINUOUS
 62
    7
 10
1023.5352746766796
 20
442.36676138501025
 40
8
 50
0
 51
90
  0
ARC
  8
_0-5_金属
  6
CONTINUOUS
 62
    7
 10
1045.5352746766794
 20
442.36676138501025
 40
8
 50
90
 51
180
  0
LINE
  8
_0-5_金属
  6
CONTINUOUS
 62
    7
 10
1031.5352746766798
 20
442.36676138501025
 11
1031.5352746766798
 21
385.06763162026971
  0
LINE
  8
_0-5_金属
  6
CONTINUOUS
 62
    7
 10
1037.5352746766798
 20
385.06763162026971
 11
1037.5352746766798
 21
442.36676138501025
  0
LINE
  8
_0-5_金属
  6
CONTINUOUS
 62
    7
 10
1109.5352746766798
 20
450.36676138501036
 11
1109.5352746766798
 21
459.36676138501014
  0
LINE
  8
_0-a_文字
  6
CONTINUOUS
 62
    7
 10
1012.535274676685
 20
779.36676238327948
 11
1032.535274676685
 21
779.36676238327948
  0
LINE
  8
_0-a_文字
  6
CONTINUOUS
 62
    7
 10
998.10151794694434
 20
754.36676238327948
 11
1032.535274676685
 21
754.36676238327948
  0
TEXT
  8
_0-a_文字
 62
    7
 10
1037.535274676685
 20
771.86676238327948
 40
15.000000000000036
 41
0.9999999999999992
 50
0
  1
塩ビシート機械的固定工法
  0
TEXT
  8
_0-a_文字
 62
    7
 10
1037.535274676685
 20
746.86676238327948
 40
14.999999999999858
 41
1.0000000000000095
 50
0
  1
硬質木毛セメント板 等（別途工事）
  0
LINE
  8
_0-a_文字
  6
CONTINUOUS
 62
    7
 10
969.24521103576467
 20
704.38617269431631
 11
1012.535274676685
 21
779.36676238327948
  0
LINE
  8
_0-a_文字
  6
CONTINUOUS
 62
    7
 10
1025.2761636593004
 20
509.36676238327948
 11
1094.5581965384058
 21
389.36676138501014
  0
LINE
  8
_0-a_文字
  6
CONTINUOUS
 62
    7
 10
1094.5581965384058
 20
389.36676138501014
 11
1114.5581965384058
 21
389.36676138501014
  0
TEXT
  8
_0-a_文字
 62
    7
 10
1187.3299927216112
 20
426.86676138501014
 40
15.000000000000036
 41
0.9999999999999956
 50
0
  1
耐火デッキプレート t=1.2以上
  0
TEXT
  8
_0-a_文字
 62
    7
 10
1187.3299927216112
 20
406.86676138501014
 40
15.000000000000036
 41
0.9999999999999956
 50
0
  1
（別途工事）
  0
TEXT
  8
_0-a_文字
 62
    7
 10
1119.5581965384058
 20
361.86676138501014
 40
15.000000000000036
 41
0.9999999999999981
 50
0
  1
（別途工事）
  0
TEXT
  8
_0-a_文字
 62
    7
 10
1119.5581965384058
 20
381.86676138501014
 40
15.000000000000036
 41
0.9999999999999981
 50
0
  1
亜鉛めっき鋼板 t=1.2以上
  0
LINE
  8
_0-a_文字
  6
CONTINUOUS
 62
    7
 10
1083.1195196815224
 20
679.36676238327948
 11
1103.1195196815224
 21
679.36676238327948
  0
TEXT
  8
_0-a_文字
 62
    7
 10
1108.1195196815236
 20
671.86676238327948
 40
14.999999999999947
 41
1.0000000000000056
 50
0
  1
ＢＰ－Ｈ３Ｎ
  0
LINE
  8
_0-a_文字
  6
CONTINUOUS
 62
    7
 10
1010.0565063680165
 20
552.81791117020305
 11
1083.1195196815224
 21
679.36676238327948
  0
TEXT
  8
_f-0_
 62
    7
 10
405.30228976001922
 20
1163.75
 40
17.5
 41
1
 50
0
  1
パラペット 立上り機械的固定工法（笠木あり）
  0
LINE
  8
ADD_LINE
  6
DOT
 62
    4
 10
877.00161222094493
 20
881.69854650825357
 11
877.00161222094493
 21
921.31526625087133
  0
LINE
  8
_0-7_ビス
  6
CONTINUOUS
 62
    7
 10
883.00161222094403
 20
913.63329578558876
 11
883.00161222094403
 21
914.01791117020423
  0
LINE
  8
_0-7_ビス
  6
DASHED3
 62
    7
 10
878.46908033719956
 20
911.46854163937576
 11
879.55162805709278
 21
914.01791117020423
  0
LINE
  8
_0-7_ビス
  6
CONTINUOUS
 62
    7
 10
871.00161222094584
 20
913.63329578558876
 11
871.00161222094584
 21
914.01791117020423
  0
LINE
  8
_0-7_ビス
  6
DASHED3
 62
    7
 10
875.53414410469031
 20
911.46854163937576
 11
874.45159638479709
 21
914.01791117020423
  0
LINE
  8
_0-7_ビス
  6
CONTINUOUS
 62
    7
 10
883.00161222094403
 20
913.63329578558876
 11
871.00161222094584
 21
913.63329578558876
  0
LINE
  8
_0-7_ビス
  6
CONTINUOUS
 62
    7
 10
883.00161222094403
 20
914.01791117020423
 11
871.00161222094584
 21
914.01791117020423
  0
ARC
  8
_0-7_ビス
  6
DASHED3
 62
    7
 10
877.00161222094493
 20
912.57908473764303
 40
1.8403175392666382
 50
217.11750793457031
 51
322.88247680664062
  0
LINE
  8
_0-7_ビス
  6
CONTINUOUS
 62
    7
 10
881.0873986585716
 20
911.7190822232152
 11
883.00161222094403
 21
913.63329578558876
  0
ARC
  8
_0-7_ビス
  6
CONTINUOUS
 62
    7
 10
882.50161222094448
 20
910.30486866084232
 40
2
 50
135.00000000000153
 51
180.00000000000003
  0
LINE
  8
_0-7_ビス
  6
CONTINUOUS
 62
    7
 10
872.91582578331827
 20
911.7190822232152
 11
871.00161222094357
 21
913.63329578558876
  0
ARC
  8
_0-7_ビス
  6
CONTINUOUS
 62
    7
 10
871.50161222094539
 20
910.30486866084232
 40
2
 50
0
 51
44.999999999998501
  0
LINE
  8
_0-7_ビス
  6
CONTINUOUS
 62
    7
 10
880.50161222094403
 20
910.01791117020446
 11
873.50161222094357
 21
910.01791117020446
  0
LINE
  8
_0-7_ビス
  6
CONTINUOUS
 62
    7
 10
880.50161222094403
 20
894.17802774312634
 11
873.50161222094357
 21
894.17802774312634
  0
LINE
  8
_0-7_ビス
  6
CONTINUOUS
 62
    7
 10
880.50161222094403
 20
909.01791117020423
 11
873.50161222094357
 21
909.01791117020423
  0
LINE
  8
_0-7_ビス
  6
CONTINUOUS
 62
    4
 10
875.98760084525566
 20
894.17802774312634
 11
880.50161222094403
 21
895.38759306152258
  0
LINE
  8
_0-7_ビス
  6
CONTINUOUS
 62
    4
 10
873.50161222094357
 20
907.81810781080992
 11
877.97919266288545
 21
909.01791117020423
  0
LINE
  8
_0-7_ビス
  6
CONTINUOUS
 62
    4
 10
873.50161222094357
 20
895.51188728143359
 11
880.50161222094403
 21
897.3875930615219
  0
LINE
  8
_0-7_ビス
  6
CONTINUOUS
 62
    4
 10
873.50161222094357
 20
897.51188728143404
 11
880.50161222094403
 21
899.38759306152122
  0
LINE
  8
_0-7_ビス
  6
CONTINUOUS
 62
    4
 10
873.50161222094357
 20
899.51188728143336
 11
880.50161222094403
 21
901.38759306152167
  0
LINE
  8
_0-7_ビス
  6
CONTINUOUS
 62
    4
 10
873.50161222094357
 20
901.51188728143268
 11
880.50161222094403
 21
903.38759306152213
  0
LINE
  8
_0-7_ビス
  6
CONTINUOUS
 62
    4
 10
873.50161222094357
 20
903.51188728143313
 11
880.50161222094403
 21
905.38759306152258
  0
LINE
  8
_0-7_ビス
  6
CONTINUOUS
 62
    4
 10
873.50161222094357
 20
905.51188728143359
 11
880.50161222094403
 21
907.38759306152303
  0
LINE
  8
_0-7_ビス
  6
CONTINUOUS
 62
    7
 10
880.50161222094403
 20
910.30486866084232
 11
880.50161222094403
 21
890.69875368528926
  0
LINE
  8
_0-7_ビス
  6
CONTINUOUS
 62
    7
 10
880.50161222094403
 20
890.69875368528926
 11
877.00161222094493
 21
888.67802774312565
  0
LINE
  8
_0-7_ビス
  6
CONTINUOUS
 62
    7
 10
873.50161222094357
 20
910.30486866084232
 11
873.50161222094357
 21
890.69875368528926
  0
LINE
  8
_0-7_ビス
  6
CONTINUOUS
 62
    7
 10
873.50161222094357
 20
890.69875368528926
 11
877.00161222094493
 21
888.67802774312565
  0
LINE
  8
_0-2_線色２__白__
  6
CONTINUOUS
 62
    7
 10
851.22345247422572
 20
912.81791117019282
 11
851.22345247422572
 21
910.56676238327952
  0
LINE
  8
_0-a_文字
  6
CONTINUOUS
 62
    7
 10
932.76839047555256
 20
1045.7250866029035
 11
952.76839047555256
 21
1045.7250866029035
  0
TEXT
  8
_0-a_文字
 62
    7
 10
957.76839047555256
 20
1038.2250866029035
 40
15.000000000000213
 41
0.9999999999999852
 50
0
  1
特注塩ビ鋼板
  0
LINE
  8
_0-a_文字
  6
CONTINUOUS
 62
    7
 10
918.33463374581186
 20
1020.7250866029034
 11
952.76839047555256
 21
1020.7250866029034
  0
TEXT
  8
_0-a_文字
 62
    7
 10
957.76839047555256
 20
1013.2250866029034
 40
15.000000000000036
 41
0.9999999999999978
 50
0
  1
ロンシーラントＴＢ
  0
TEXT
  8
_0-a_文字
 62
    7
 10
957.76839047555256
 20
988.22508660290339
 40
15.000000000000036
 41
0.9999999999999977
 50
0
  1
亜鉛めっき鋼板 t=1.2以上（別途工事）
  0
TEXT
  8
_0-a_文字
 62
    7
 10
957.76839047555256
 20
963.22508660290453
 40
15.000000000000036
 41
0.9999999999999974
 50
0
  1
ブチルテープ（別途工事）
  0
LINE
  8
_0-a_文字
  6
CONTINUOUS
 62
    7
 10
903.90087701607149
 20
995.72508660290339
 11
952.76839047555256
 21
995.72508660290339
  0
LINE
  8
_0-a_文字
  6
CONTINUOUS
 62
    7
 10
889.46712028633158
 20
970.72508660290453
 11
952.76839047555256
 21
970.72508660290453
  0
LINE
  8
_0-a_文字
  6
CONTINUOUS
 62
    7
 10
853.30723884718054
 20
908.09433475462754
 11
932.76839047555256
 21
1045.7250866029035
  0
LINE
  8
_0-a_文字
  6
CONTINUOUS
 62
    7
 10
900.94461750787275
 20
1095.7250866029035
 11
920.94461750787275
 21
1095.7250866029035
  0
TEXT
  8
_0-a_文字
 62
    7
 10
925.94461750787275
 20
1088.2250866029035
 40
15.000000000000213
 41
0.9999999999999859
 50
0
  1
笠木（別途工事）
  0
LINE
  8
_0-a_文字
  6
CONTINUOUS
 62
    7
 10
819.32857830652324
 20
954.36195999363576
 11
900.94461750787275
 21
1095.7250866029035
  0
LINE
  8
_0-d_断熱__ハッチ
  6
CONTINUOUS
 62
    4
 10
899.44194504064342
 20
910.56676238327668
 11
900.23505880503194
 21
911.3598761476652
  0
LINE
  8
_0-d_断熱__ハッチ
  6
CONTINUOUS
 62
    4
 10
895.90641113471008
 20
910.56676238327668
 11
898.14719600541252
 21
912.80754725397912
  0
LINE
  8
_0-d_断熱__ハッチ
  6
CONTINUOUS
 62
    4
 10
892.37087722877675
 20
910.56676238327725
 11
894.6220260156897
 21
912.81791117018997
  0
LINE
  8
_0-d_断熱__ハッチ
  6
CONTINUOUS
 62
    4
 10
888.83534332284376
 20
910.56676238327725
 11
891.08649210975898
 21
912.81791117019225
  0
LINE
  8
_0-d_断熱__ハッチ
  6
CONTINUOUS
 62
    4
 10
885.29980941691088
 20
910.56676238327782
 11
887.5509582038228
 21
912.81791117018997
  0
LINE
  8
_0-d_断熱__ハッチ
  6
CONTINUOUS
 62
    4
 10
881.76427551097788
 20
910.56676238327782
 11
883.96117443733885
 21
912.76366130963879
  0
LINE
  8
_0-d_断熱__ハッチ
  6
CONTINUOUS
 62
    4
 10
871.15767379317708
 20
910.56676238327725
 11
871.96736314741599
 21
911.37645173751594
  0
LINE
  8
_0-d_断熱__ハッチ
  6
CONTINUOUS
 62
    4
 10
867.62213988724682
 20
910.56676238328009
 11
869.86044167263515
 21
912.80506416866842
  0
LINE
  8
_0-d_断熱__ハッチ
  6
CONTINUOUS
 62
    4
 10
864.08660598131155
 20
910.56676238327839
 11
866.3377547682253
 21
912.81791117019225
  0
LINE
  8
_0-d_断熱__ハッチ
  6
CONTINUOUS
 62
    4
 10
860.55107207537981
 20
910.56676238328009
 11
862.8022208622923
 21
912.81791117019225
  0
LINE
  8
_0-d_断熱__ハッチ
  6
CONTINUOUS
 62
    4
 10
857.01553816944374
 20
910.56676238327725
 11
859.26668695635749
 21
912.81791117019111
  0
LINE
  8
_0-d_断熱__ハッチ
  6
CONTINUOUS
 62
    4
 10
853.48000426351314
 20
910.56676238328009
 11
855.7311530504262
 21
912.81791117019282
  0
LINE
  8
_0-d_断熱__ハッチ
  6
CONTINUOUS
 62
    4
 10
851.22345247422459
 20
911.84574449992056
 11
852.19561914449832
 21
912.81791117019395
  0
LINE
  8
_0-6_鋼板__アングル
  6
CONTINUOUS
 62
    2
 10
824.53527467667755
 20
910.56676238327952
 11
824.53527467667755
 21
909.36676238327834
  0
LINE
  8
_0-6_鋼板__アングル
  6
CONTINUOUS
 62
    2
 10
822.00161222094493
 20
914.01791117020423
 11
823.33069087165768
 21
898.82647267832169
  0
LINE
  8
_0-6_鋼板__アングル
  6
CONTINUOUS
 62
    2
 10
823.31118242221692
 20
912.81791117019282
 11
824.53527467667755
 21
898.82647267832169
  0
LINE
  8
_0-6_鋼板__アングル
  6
CONTINUOUS
 62
    2
 10
823.33069087165768
 20
898.82647267832169
 11
824.53527467667755
 21
898.82647267832169
  0
LINE
  8
_0-6_鋼板__アングル
  6
CONTINUOUS
 62
    2
 10
977.5352746766805
 20
909.36676238327834
 11
824.53527467667755
 21
909.36676238327834
  0
LINE
  8
_0-6_鋼板__アングル
  6
CONTINUOUS
 62
    2
 10
978.73527467668055
 20
910.56676238327952
 11
824.53527467667755
 21
910.56676238327952
  0
LINE
  8
_0-6_鋼板__アングル
  6
CONTINUOUS
 62
    2
 10
978.73527467668055
 20
880.56676238327952
 11
977.5352746766805
 21
880.56676238327952
  0
LINE
  8
_0-6_鋼板__アングル
  6
CONTINUOUS
 62
    2
 10
977.5352746766805
 20
909.36676238327834
 11
977.5352746766805
 21
880.56676238327952
  0
LINE
  8
_0-6_鋼板__アングル
  6
CONTINUOUS
 62
    2
 10
978.73527467668055
 20
910.56676238327952
 11
978.73527467668055
 21
880.56676238327952
  0
LINE
  8
_0-6_鋼板__アングル
  6
CONTINUOUS
 62
    2
 10
959.53527467667982
 20
509.36676238327948
 11
1160.735274676681
 21
509.36676238327948
  0
LINE
  8
_0-6_鋼板__アングル
  6
CONTINUOUS
 62
    2
 10
960.735274676681
 20
510.56676238327952
 11
1160.735274676681
 21
510.56676238327952
  0
LINE
  8
_0-6_鋼板__アングル
  6
CONTINUOUS
 62
    2
 10
1160.735274676681
 20
509.36676238327948
 11
1160.735274676681
 21
510.56676238327952
  0
LINE
  8
_0-6_鋼板__アングル
  6
CONTINUOUS
 62
    2
 10
959.53527467667982
 20
509.36676238327948
 11
959.53527467667982
 21
610.56676238327839
  0
LINE
  8
_0-6_鋼板__アングル
  6
CONTINUOUS
 62
    2
 10
959.53527467667982
 20
610.56676238327839
 11
960.735274676681
 21
610.56676238327839
  0
LINE
  8
_0-6_鋼板__アングル
  6
CONTINUOUS
 62
    2
 10
960.735274676681
 20
510.56676238327952
 11
960.735274676681
 21
610.56676238327839
  0
ARC
  8
_0-6_鋼板__アングル
  6
CONTINUOUS
 62
    2
 10
990.91532260602662
 20
561.81791117020509
 40
10.199999999999999
 50
190.00000000000003
 51
270
  0
ARC
  8
_0-6_鋼板__アングル
  6
CONTINUOUS
 62
    2
 10
990.91532260602662
 20
561.81791117020509
 40
9
 50
190.00000000000003
 51
270
  0
LINE
  8
_0-6_鋼板__アングル
  6
CONTINUOUS
 62
    2
 10
979.76136350694105
 20
566.33569769753819
 11
980.87028352530069
 21
560.04669975800255
  0
LINE
  8
_0-6_鋼板__アングル
  6
CONTINUOUS
 62
    2
 10
980.9431328105552
 20
566.54407551073916
 11
982.05205282891711
 21
560.25507757120238
  0
ARC
  8
_0-6_鋼板__アングル
  6
CONTINUOUS
 62
    2
 10
975.32972861838743
 20
565.55428089803684
 40
5.700000000000002
 50
10.000000000000218
 51
42.27368900609229
  0
ARC
  8
_0-6_鋼板__アングル
  6
CONTINUOUS
 62
    2
 10
975.32972861838743
 20
565.55428089803684
 40
4.5
 50
10.000000000000014
 51
42.27368900609229
  0
LINE
  8
_0-6_鋼板__アングル
  6
CONTINUOUS
 62
    2
 10
978.65945894866854
 20
568.58130847102018
 11
977.53527467668164
 21
569.81791117020464
  0
LINE
  8
_0-6_鋼板__アングル
  6
CONTINUOUS
 62
    2
 10
978.42320276475675
 20
570.6251185230002
 11
977.53527467668164
 21
569.81791117020464
  0
LINE
  8
_0-6_鋼板__アングル
  6
CONTINUOUS
 62
    2
 10
979.54738703674366
 20
569.38851582381574
 11
978.42320276475675
 21
570.6251185230002
  0
LINE
  8
_0-6_鋼板__アングル
  6
CONTINUOUS
 62
    2
 10
1032.776925896942
 20
551.25977601593547
 11
1035.0565063680165
 21
549.31791117020509
  0
ARC
  8
_0-6_鋼板__アングル
  6
CONTINUOUS
 62
    2
 10
1031.8042262135441
 20
550.1179111702055
 40
2.7000000000000002
 50
49.573921259901446
 51
90
  0
ARC
  8
_0-6_鋼板__アングル
  6
CONTINUOUS
 62
    2
 10
1031.8042262135441
 20
550.11791117020437
 40
1.5000000000000002
 50
49.573921259901446
 51
90
  0
LINE
  8
_0-6_鋼板__アングル
  6
CONTINUOUS
 62
    2
 10
1033.5550856436635
 20
552.17326789251899
 11
1035.834666114738
 21
550.23140304678861
  0
LINE
  8
_0-6_鋼板__アングル
  6
CONTINUOUS
 62
    2
 10
1035.834666114738
 20
550.23140304678861
 11
1035.0565063680165
 21
549.31791117020509
  0
LINE
  8
ADD_LINE
  6
DOT
 62
    4
 10
1010.0565063680165
 20
518.63886717020534
 11
1010.0565063680165
 21
558.5530583702058
  0
LINE
  8
_0-6_鋼板__アングル
  6
CONTINUOUS
 62
    2
 10
1004.2035195220114
 20
552.32020874405578
 11
1006.8065063680183
 21
550.31791117020532
  0
ARC
  8
_0-6_鋼板__アングル
  6
CONTINUOUS
 62
    2
 10
1002.7402136959722
 20
550.41791117020523
 40
2.3999999999999999
 50
52.431407971173961
 51
90
  0
LINE
  8
_0-6_鋼板__アングル
  6
CONTINUOUS
 62
    2
 10
1015.9094932140238
 20
552.32020874405578
 11
1013.3065063680169
 21
550.31791117020532
  0
ARC
  8
_0-6_鋼板__アングル
  6
CONTINUOUS
 62
    2
 10
1017.372799040063
 20
550.41791117020523
 40
2.3999999999999999
 50
90
 51
127.56859202882603
  0
LINE
  8
_0-6_鋼板__アングル
  6
CONTINUOUS
 62
    4
 10
1002.7402136959722
 20
552.81791117020532
 11
1017.372799040063
 21
552.81791117020532
  0
LINE
  8
_0-6_鋼板__アングル
  6
CONTINUOUS
 62
    4
 10
1013.3065063680169
 20
550.31791117020532
 11
1006.8065063680183
 21
550.31791117020532
  0
LINE
  8
_0-6_鋼板__アングル
  6
CONTINUOUS
 62
    2
 10
1006.8065063680183
 20
550.31791117020532
 11
1006.0748534549975
 21
549.36676238327948
  0
LINE
  8
_0-6_鋼板__アングル
  6
CONTINUOUS
 62
    2
 10
1013.3065063680169
 20
550.31791117020532
 11
1014.0381592810377
 21
549.36676238327948
  0
LINE
  8
_0-6_鋼板__アングル
  6
CONTINUOUS
 62
    4
 10
1014.0381592810377
 20
549.36676238327948
 11
1006.0748534549975
 21
549.36676238327948
  0
LINE
  8
_0-6_鋼板__アングル
  6
CONTINUOUS
 62
    2
 10
1003.4718666089907
 20
551.36905995712993
 11
1006.0748534549975
 21
549.36676238327948
  0
ARC
  8
_0-6_鋼板__アングル
  6
CONTINUOUS
 62
    2
 10
1002.7402136959722
 20
550.41791117020523
 40
1.2
 50
52.431407971174927
 51
90
  0
LINE
  8
_0-6_鋼板__アングル
  6
CONTINUOUS
 62
    2
 10
1016.6411461270445
 20
551.36905995712993
 11
1014.0381592810377
 21
549.36676238327948
  0
ARC
  8
_0-6_鋼板__アングル
  6
CONTINUOUS
 62
    2
 10
1017.372799040063
 20
550.41791117020523
 40
1.2
 50
89.999999999999943
 51
127.56859202882802
  0
LINE
  8
_0-6_鋼板__アングル
  6
CONTINUOUS
 62
    2
 10
990.91532260602662
 20
552.81791117020532
 11
1002.7402136959722
 21
552.81791117020532
  0
LINE
  8
_0-6_鋼板__アングル
  6
CONTINUOUS
 62
    2
 10
1017.372799040063
 20
552.81791117020532
 11
1031.8042262135441
 21
552.81791117020532
  0
LINE
  8
_0-6_鋼板__アングル
  6
CONTINUOUS
 62
    2
 10
990.91532260602662
 20
551.61791117020528
 11
1002.7402136959722
 21
551.61791117020528
  0
LINE
  8
_0-6_鋼板__アングル
  6
CONTINUOUS
 62
    2
 10
1017.372799040063
 20
551.61791117020528
 11
1031.8042262135441
 21
551.61791117020528
  0
LINE
  8
_0-6_鋼板__アングル
  6
CONTINUOUS
 62
    2
 10
882.85459906694996
 20
913.52020874405468
 11
880.25161222094539
 21
911.51791117020423
  0
LINE
  8
_0-6_鋼板__アングル
  6
CONTINUOUS
 62
    2
 10
871.14862537493764
 20
913.52020874405468
 11
873.75161222094448
 21
911.51791117020423
  0
LINE
  8
_0-6_鋼板__アングル
  6
CONTINUOUS
 62
    4
 10
884.31790489298919
 20
914.01791117020423
 11
869.68531954889841
 21
914.01791117020423
  0
LINE
  8
_0-6_鋼板__アングル
  6
CONTINUOUS
 62
    4
 10
873.75161222094448
 20
911.51791117020423
 11
880.25161222094539
 21
911.51791117020423
  0
LINE
  8
_0-6_鋼板__アングル
  6
CONTINUOUS
 62
    2
 10
880.25161222094539
 20
911.51791117020423
 11
880.98326513396387
 21
910.56676238327952
  0
LINE
  8
_0-6_鋼板__アングル
  6
CONTINUOUS
 62
    2
 10
873.75161222094448
 20
911.51791117020423
 11
873.01995930792373
 21
910.56676238327952
  0
LINE
  8
_0-6_鋼板__アングル
  6
CONTINUOUS
 62
    4
 10
873.01995930792373
 20
910.56676238327952
 11
880.98326513396387
 21
910.56676238327952
  0
LINE
  8
_0-6_鋼板__アングル
  6
CONTINUOUS
 62
    2
 10
883.58625197997071
 20
912.56905995712884
 11
880.98326513396387
 21
910.56676238327952
  0
LINE
  8
_0-6_鋼板__アングル
  6
CONTINUOUS
 62
    2
 10
870.41697246191916
 20
912.56905995712884
 11
873.01995930792373
 21
910.56676238327952
  0
LINE
  8
ADD_LINE
  6
DOT
 62
    4
 10
877.00161222094493
 20
925.57069987105194
 11
877.00161222094493
 21
891.38634368098963
  0
ARC
  8
_0-6_鋼板__アングル
  6
CONTINUOUS
 62
    2
 10
884.31790489298919
 20
911.61791117020414
 40
1.2
 50
90
 51
127.56859202882507
  0
ARC
  8
_0-6_鋼板__アングル
  6
CONTINUOUS
 62
    2
 10
884.31790489298919
 20
911.61791117020414
 40
2.3999999999999999
 50
90
 51
127.56859202882603
  0
ARC
  8
_0-6_鋼板__アングル
  6
CONTINUOUS
 62
    2
 10
869.68531954889841
 20
911.61791117020414
 40
1.2
 50
52.431407971171978
 51
90
  0
ARC
  8
_0-6_鋼板__アングル
  6
CONTINUOUS
 62
    2
 10
869.68531954889841
 20
911.61791117020414
 40
2.3999999999999999
 50
52.431407971173961
 51
90
  0
LINE
  8
_0-6_鋼板__アングル
  6
CONTINUOUS
 62
    2
 10
823.31118242221692
 20
912.81791117019282
 11
869.68531954889841
 21
912.81791117019282
  0
LINE
  8
_0-6_鋼板__アングル
  6
CONTINUOUS
 62
    2
 10
822.00161222094493
 20
914.01791117020423
 11
869.68531954889841
 21
914.01791117020423
  0
LINE
  8
_0-6_鋼板__アングル
  6
CONTINUOUS
 62
    2
 10
898.94387200315123
 20
912.45977601593438
 11
901.22345247422572
 21
910.517911170204
  0
ARC
  8
_0-6_鋼板__アングル
  6
CONTINUOUS
 62
    2
 10
897.97117231975108
 20
911.31791117020441
 40
2.7000000000000002
 50
49.573921259901446
 51
90
  0
ARC
  8
_0-6_鋼板__アングル
  6
CONTINUOUS
 62
    2
 10
897.97117231975108
 20
911.31791117020327
 40
1.5000000000000002
 50
49.573921259901446
 51
90
  0
LINE
  8
_0-6_鋼板__アングル
  6
CONTINUOUS
 62
    2
 10
899.72203174987044
 20
913.3732678925179
 11
902.00161222094493
 21
911.43140304678752
  0
LINE
  8
_0-6_鋼板__アングル
  6
CONTINUOUS
 62
    2
 10
902.00161222094493
 20
911.43140304678752
 11
901.22345247422572
 21
910.517911170204
  0
LINE
  8
_0-6_鋼板__アングル
  6
CONTINUOUS
 62
    2
 10
884.31790489298919
 20
912.81791117019282
 11
897.97117231975108
 21
912.81791117019282
  0
LINE
  8
_0-6_鋼板__アングル
  6
CONTINUOUS
 62
    2
 10
884.31790489298919
 20
914.01791117020423
 11
897.97117231975108
 21
914.01791117020423
  0
LINE
  8
_0-5_金属
  6
CONTINUOUS
 62
    7
 10
989.73501028208204
 20
459.36696063502438
 11
1037.4991645406885
 21
459.36696063502438
  0
LINE
  8
_0-4_線色４__黄__
  6
CONTINUOUS
 62
    2
 10
832.7494880835593
 20
919.01791117020423
 11
900.80621044605118
 21
919.01791117020423
  0
LINE
  8
_0-4_線色４__黄__
  6
CONTINUOUS
 62
    2
 10
900.80621044605118
 20
919.01791117020423
 11
904.85755902200594
 21
915.56676238327952
  0
LINE
  8
_0-4_線色４__黄__
  6
CONTINUOUS
 62
    2
 10
980.735274676681
 20
915.56676238327952
 11
904.85755902200594
 21
915.56676238327952
  0
LINE
  8
_0-2_線色２__白__
  6
CONTINUOUS
 62
    7
 10
902.00161222094493
 20
911.43140304678752
 11
903.0166251737586
 21
910.56676238327952
  0
LINE
  8
_0-8_笠木他
  6
CONTINUOUS
 62
    4
 10
940.42120780038431
 20
923.017911170204
 11
867.84902116036164
 21
923.017911170204
  0
LINE
  8
_0-8_笠木他
  6
CONTINUOUS
 62
    4
 10
941.22767224202846
 20
919.01791117020423
 11
867.04309349074697
 21
919.01791117020423
  0
LINE
  8
_0-8_笠木他
  6
CONTINUOUS
 62
    4
 10
867.04309349074697
 20
919.01791117020423
 11
867.04655911779355
 21
947.57277007130938
  0
LINE
  8
_0-8_笠木他
  6
CONTINUOUS
 62
    4
 10
867.84902116036164
 20
923.017911170204
 11
867.83890627873006
 21
948.92305458819635
  0
LINE
  8
_0-8_笠木他
  6
CONTINUOUS
 62
    4
 10
941.22767224202846
 20
919.01791117020423
 11
941.22369027191951
 21
942.62762788491216
  0
LINE
  8
_0-8_笠木他
  6
CONTINUOUS
 62
    4
 10
940.42120780038431
 20
923.017911170204
 11
940.43266554772026
 21
944.08347052981185
  0
LINE
  8
ADD_LINE
  6
DOT
 62
    4
 10
904.13527467667905
 20
975.50023245913678
 11
904.13527467667905
 21
868.1481700697401
  0
LINE
  8
ADD_LINE
  6
DOT
 62
    4
 10
875.13527467667905
 20
923.017911170204
 11
875.13527467667905
 21
889.01791117020423
  0
LINE
  8
ADD_LINE
  6
DOT
 62
    4
 10
933.13527467667905
 20
923.017911170204
 11
933.13527467667905
 21
889.01791117020423
  0
LINE
  8
_0-8_笠木他
  6
CONTINUOUS
 62
    4
 10
1000.7352746766793
 20
888.2611595790803
 11
1000.7352746766793
 21
892.58008406589909
  0
LINE
  8
_0-8_笠木他
  6
CONTINUOUS
 62
    4
 10
806.13527467667893
 20
888.20443447740274
 11
806.13527467667893
 21
953.23707407111385
  0
LINE
  8
_0-8_笠木他
  6
CONTINUOUS
 62
    4
 10
867.83890627873006
 20
948.92305458819635
 11
812.65289155715914
 21
952.60212231773323
  0
LINE
  8
_0-8_笠木他
  6
CONTINUOUS
 62
    4
 10
867.04655911779355
 20
947.57277007130938
 11
814.00238372882291
 21
951.10904850884538
  0
LINE
  8
_0-8_笠木他
  6
CONTINUOUS
 62
    4
 10
806.13527467667893
 20
888.20443447740274
 11
808.12727167667936
 21
888.2037559444808
  0
LINE
  8
_0-8_笠木他
  6
CONTINUOUS
 62
    4
 10
808.12727167667936
 20
888.2037559444808
 11
808.1262640110748
 21
886.20817994448146
  0
LINE
  8
_0-8_笠木他
  6
CONTINUOUS
 62
    4
 10
804.13527467667905
 20
886.20817994448146
 11
808.1262640110748
 21
886.20817994448146
  0
LINE
  8
_0-8_笠木他
  6
CONTINUOUS
 62
    4
 10
804.13527467667905
 20
886.20817994448146
 11
804.13527467667905
 21
955.37484692471139
  0
LINE
  8
_0-8_笠木他
  6
CONTINUOUS
 62
    4
 10
807.54200544859145
 20
891.97859689826032
 11
814.00238372882291
 21
951.10904850884538
  0
LINE
  8
_0-8_笠木他
  6
CONTINUOUS
 62
    4
 10
807.542400708576
 20
888.20395516878023
 11
807.54200544859145
 21
891.97859689826032
  0
LINE
  8
_0-8_笠木他
  6
CONTINUOUS
 62
    4
 10
806.13527467667893
 20
892.71805756850085
 11
812.65289155715914
 21
952.60212231773323
  0
LINE
  8
_0-8_笠木他
  6
CONTINUOUS
 62
    4
 10
1004.135274676679
 20
942.04151329625972
 11
804.13527467667905
 21
955.37484692471139
  0
LINE
  8
_0-8_笠木他
  6
CONTINUOUS
 62
    4
 10
1002.1352746766795
 20
940.17040711523123
 11
806.13527467667893
 21
953.23707407111385
  0
LINE
  8
_0-8_笠木他
  6
CONTINUOUS
 62
    4
 10
995.37470840746096
 20
940.42066759142358
 11
940.43266554772026
 21
944.08347052981185
  0
LINE
  8
_0-8_笠木他
  6
CONTINUOUS
 62
    4
 10
1002.1352746766795
 20
893.06691679842231
 11
995.37470840746096
 21
940.42066759142358
  0
LINE
  8
_0-8_笠木他
  6
CONTINUOUS
 62
    4
 10
994.10551462408193
 20
939.10217285006922
 11
941.22369027191951
 21
942.62762788491216
  0
LINE
  8
_0-8_笠木他
  6
CONTINUOUS
 62
    4
 10
1000.7352746766793
 20
892.58008406589909
 11
994.10551462408193
 21
939.10217285006922
  0
LINE
  8
_0-8_笠木他
  6
CONTINUOUS
 62
    4
 10
1000.1544506766797
 20
888.2513159444818
 11
1000.1554823576944
 21
886.20817994448146
  0
LINE
  8
_0-8_笠木他
  6
CONTINUOUS
 62
    4
 10
1002.1352746766795
 20
888.2509214381821
 11
1000.1544506766797
 21
888.2513159444818
  0
LINE
  8
_0-8_笠木他
  6
CONTINUOUS
 62
    4
 10
1002.1352746766795
 20
888.2509214381821
 11
1002.1352746766795
 21
940.17040711523123
  0
LINE
  8
_0-8_笠木他
  6
CONTINUOUS
 62
    4
 10
1000.1554823576944
 20
886.20817994448146
 11
1004.135274676679
 21
886.20817994448146
  0
LINE
  8
_0-8_笠木他
  6
CONTINUOUS
 62
    4
 10
1004.135274676679
 20
886.20817994448146
 11
1004.135274676679
 21
942.04151329625972
  0
TEXT
  8
_0-a_文字
 62
    7
 10
1067.4999999999952
 20
327.50000000000341
 40
15.000000000000213
 41
0.9999999999999907
 50
0
  1
※ 断熱材の種類が硬質ウレタンフォームの場合、ラジアルシートＬ６００の敷設は不要
  0
TEXT
  8
_0-a_文字
 62
    7
 10
1067.4999999999952
 20
287.50000000000341
 40
15.000000000000213
 41
0.9999999999999905
 50
0
  1
※ 本図面は防水納まりの参考図であり、下地等の構造を保証するものではありません
  0
TEXT
  8
_0-a_文字
 62
    7
 10
1067.4999999999952
 20
307.50000000000341
 40
15.000000000000213
 41
0.9999999999999905
 50
0
  1
※ デッキ端部などの開口部には、必要に応じ遮炎性を満たす処理をお願いします（別途工事）
  0
ENDSEC
  0
EOF
