  0
SECTION
  2
HEADER
  9
$ACADVER
  1
AC1009
  9
$INSBASE
 10
0
 20
0
 30
0
  9
$EXTMIN
 10
0
 20
0
  9
$EXTMAX
 10
2100
 20
1485
  9
$LIMMIN
 10
0
 20
0
  9
$LIMMAX
 10
2100
 20
1485
  9
$LTSCALE
 40
5
  0
ENDSEC
  0
SECTION
  2
TABLES
  0
TABLE
  2
LTYPE
 70
     9
  0
LTYPE
  2
CONTINUOUS
 70
    64
  3
実線
 72
    65
 73
     0
 40
0.0
  0
LTYPE
  2
DASHED1
 70
    64
  3
--  --  --  --  --  --  --  --  
 72
    65
 73
     2
 40
2.5
 49
1.25
 49
-1.25
  0
LTYPE
  2
DASHED2
 70
    64
  3
----    ----    ----    ----    
 72
    65
 73
     2
 40
5.0
 49
2.5
 49
-2.5
  0
LTYPE
  2
DASHED3
 70
    64
  3
------  ------  ------  ------  
 72
    65
 73
     2
 40
5.0
 49
3.75
 49
-1.25
  0
LTYPE
  2
CENTER1
 70
    64
  3
----- - ----- - ----- - ----- - 
 72
    65
 73
     4
 40
10.0
 49
6.25
 49
-1.25
 49
1.25
 49
-1.25
  0
LTYPE
  2
CENTER2
 70
    64
  3
----------  --  ----------  --  
 72
    65
 73
     4
 40
20.0
 49
12.5
 49
-2.5
 49
2.5
 49
-2.5
  0
LTYPE
  2
PHANTOM1
 70
    64
  3
--- - - --- - - --- - - --- - - 
 72
    65
 73
     6
 40
10.0
 49
3.25
 49
-1.25
 49
1.25
 49
-1.25
 49
1.25
 49
-1.25
  0
LTYPE
  2
PHANTOM2
 70
    64
  3
--------  -  -  --------  -  -  
 72
    65
 73
     6
 40
20.0
 49
10.0
 49
-2.5
 49
1.25
 49
-2.5
 49
1.25
 49
-2.5
  0
LTYPE
  2
DOT
 70
    64
  3
-   -   -   -   -   -   -   -   
 72
    65
 73
     2
 40
2.5
 49
0.625
 49
-1.875
  0
LTYPE
  2
DUMMY
 70
    64
  3
ダミー
 72
    65
 73
     0
 40
0.0
  0
LTYPE
  2
RAND1
 70
    64
  3
ランダム線1
 72
    65
 73
     4
 40
10.0
 49
1.0
 49
-2.0
 49
3.0
 49
-4.0
  0
LTYPE
  2
RAND2
 70
    64
  3
ランダム線2
 72
    65
 73
     4
 40
14.0
 49
2.0
 49
-3.0
 49
4.0
 49
-5.0
  0
LTYPE
  2
RAND3
 70
    64
  3
ランダム線3
 72
    65
 73
     4
 40
18.0
 49
3.0
 49
-4.0
 49
5.0
 49
-6.0
  0
LTYPE
  2
RAND4
 70
    64
  3
ランダム線4
 72
    65
 73
     4
 40
22.0
 49
4.0
 49
-5.0
 49
6.0
 49
-7.0
  0
LTYPE
  2
RAND5
 70
    64
  3
ランダム線5
 72
    65
 73
     4
 40
26.0
 49
5.0
 49
-6.0
 49
7.0
 49
-8.0
  0
LTYPE
  2
LONG1
 70
    64
  3
----------  --  ----------  --  
 72
    65
 73
     4
 40
40.0
 49
32.5
 49
-2.5
 49
2.5
 49
-2.5
  0
LTYPE
  2
LONG2
 70
    64
  3
--------  -  -  --------  -  -  
 72
    65
 73
     6
 40
40.0
 49
30.0
 49
-2.5
 49
1.25
 49
-2.5
 49
1.25
 49
-2.5
  0
LTYPE
  2
LONG3
 70
    64
  3
+++++++++++++++..+++++++++++++++
 72
    65
 73
     2
 40
40.0
 49
37.5
 49
-2.5
  0
LTYPE
  2
LONG4
 70
    64
  3
+++++++++++++++..+++++++++++++++
 72
    65
 73
     2
 40
80.0
 49
75.0
 49
-5.0
  0
LTYPE
  2
LONG5
 70
    64
  3
----------  --  ----------  --  
 72
    65
 73
     4
 40
60.0
 49
37.5
 49
-7.5
 49
7.5
 49
-7.5
  0
LTYPE
  2
dashed
 70
   64
  3
-------   -------------   ------
 72
   65
 73
    2
 40
7.5
 49
6
 49
-1.5
  0
LTYPE
  2
dashed_spaced
 70
   64
  3
----        --------        ----
 72
   65
 73
    2
 40
12
 49
6
 49
-6
  0
LTYPE
  2
long_dashed_dotted
 70
   64
  3
------------- --- --------------
 72
   65
 73
    4
 40
15.25
 49
12
 49
-1.5
 49
0.25
 49
-1.5
  0
LTYPE
  2
long_dashed_double-dotted
 70
   64
  3
----------- --- --- ------------
 72
   65
 73
    6
 40
17
 49
12
 49
-1.5
 49
0.25
 49
-1.5
 49
0.25
 49
-1.5
  0
LTYPE
  2
long_dashed_triplicate-dotted
 70
   64
  3
--------- --- --- --- ----------
 72
   65
 73
    8
 40
18.75
 49
12
 49
-1.5
 49
0.25
 49
-1.5
 49
0.25
 49
-1.5
 49
0.25
 49
-1.5
  0
LTYPE
  2
dotted
 70
   64
  3
   -       -       -       -    
 72
   65
 73
    2
 40
1.75
 49
0.25
 49
-1.5
  0
LTYPE
  2
chain
 70
   64
  3
-------------- -- --------------
 72
   65
 73
    4
 40
18.5
 49
12
 49
-1.5
 49
3.5
 49
-1.5
  0
LTYPE
  2
chain_double_dash
 70
   64
  3
------------ -- -- -------------
 72
   65
 73
    6
 40
23.5
 49
12
 49
-1.5
 49
3.5
 49
-1.5
 49
3.5
 49
-1.5
  0
LTYPE
  2
dashed_dotted
 70
   64
  3
-----------     -     ----------
 72
   65
 73
    4
 40
9.25
 49
6
 49
-1.5
 49
0.25
 49
-1.5
  0
LTYPE
  2
double-dashed_dotted
 70
   64
  3
------   -----------   -   -----
 72
   65
 73
    6
 40
16.75
 49
6
 49
-1.5
 49
6
 49
-1.5
 49
0.25
 49
-1.5
  0
LTYPE
  2
dashed_double-dotted
 70
   64
  3
---------    -    -    ---------
 72
   65
 73
    6
 40
11
 49
6
 49
-1.5
 49
0.25
 49
-1.5
 49
0.25
 49
-1.5
  0
LTYPE
  2
double-dashed_double-dotted
 70
   64
  3
-----   ---------   -   -   ----
 72
   65
 73
    8
 40
18.5
 49
6
 49
-1.5
 49
6
 49
-1.5
 49
0.25
 49
-1.5
 49
0.25
 49
-1.5
  0
LTYPE
  2
dashed_triplicate-dotted
 70
   64
  3
-------    -    -    -    ------
 72
   65
 73
    8
 40
12.75
 49
6
 49
-1.5
 49
0.25
 49
-1.5
 49
0.25
 49
-1.5
 49
0.25
 49
-1.5
  0
LTYPE
  2
double-dashed_triplicate-dotted
 70
   64
  3
-----  ---------  -  -  -  -----
 72
   65
 73
   10
 40
20.25
 49
6
 49
-1.5
 49
6
 49
-1.5
 49
0.25
 49
-1.5
 49
0.25
 49
-1.5
 49
0.25
 49
-1.5
  0
LTYPE
  2
undefined
 70
   64
  3
--------------------------------
 72
   65
 73
    0
 40
0
  0
ENDTAB
  0
TABLE
  2
STYLE
  5
3
100
AcDbSymbolTable
 70
     1
  0
STYLE
  5
10
100
AcDbSymbolTableRecord
100
AcDbTextStyleTableRecord
  2
STANDARD
 70
     0
 40
0.0
 41
1.0
 50
0.0
 71
     0
 42
0.2
  3
txt
  4
bigfont.shx
  0
STYLE
  5
26
100
AcDbSymbolTableRecord
100
AcDbTextStyleTableRecord
  2
TATEGAKI
 70
    68
 40
0.0
 41
1.0
 50
0.0
 71
     0
 42
1.0
  3
txt
  4
bigfont.shx
  0
ENDTAB
  0
TABLE
  2
LAYER
 70
   13
  0
LAYER
  2
_0-1_線色１__水色__
 70
   64
 62
    7
  6
CONTINUOUS
  0
LAYER
  2
_0-2_線色２__白__
 70
   64
 62
    7
  6
CONTINUOUS
  0
LAYER
  2
_0-4_線色４__黄__
 70
   64
 62
    7
  6
CONTINUOUS
  0
LAYER
  2
_0-5_金属
 70
   64
 62
    7
  6
CONTINUOUS
  0
LAYER
  2
_0-6_鋼板__アングル
 70
   64
 62
    7
  6
CONTINUOUS
  0
LAYER
  2
_0-7_ビス
 70
   64
 62
    7
  6
CONTINUOUS
  0
LAYER
  2
_0-8_笠木他
 70
   64
 62
    7
  6
CONTINUOUS
  0
LAYER
  2
_0-9_他
 70
   64
 62
    7
  6
CONTINUOUS
  0
LAYER
  2
_0-a_文字
 70
   64
 62
    7
  6
CONTINUOUS
  0
LAYER
  2
_0-d_断熱__ハッチ
 70
   64
 62
    7
  6
CONTINUOUS
  0
LAYER
  2
_f-0_
 70
   64
 62
    7
  6
CONTINUOUS
  0
LAYER
  2
_f-f_
 70
   64
 62
    7
  6
CONTINUOUS
  0
LAYER
  2
ADD_LINE
 70
   64
 62
    7
  6
CONTINUOUS
  0
ENDTAB
  0
ENDSEC
  0
SECTION
  2
BLOCKS
  0
ENDSEC
  0
SECTION
  2
ENTITIES
  0
LINE
  8
_f-0_
  6
CONTINUOUS
 62
  136
 10
1714.9999999999989
 20
1192.5
 11
385
 21
1192.5
  0
LINE
  8
_f-0_
  6
CONTINUOUS
 62
  136
 10
385
 20
277.50000000000341
 11
1714.9999999999989
 21
277.50000000000341
  0
LINE
  8
_f-0_
  6
CONTINUOUS
 62
  136
 10
385
 20
1192.5
 11
385
 21
277.50000000000341
  0
LINE
  8
_f-0_
  6
CONTINUOUS
 62
  136
 10
1714.9999999999989
 20
1192.5
 11
1714.9999999999989
 21
277.50000000000341
  0
LINE
  8
_f-0_
  6
CONTINUOUS
 62
    6
 10
1714.9999999999989
 20
1152.5
 11
385
 21
1152.5
  0
LINE
  8
_f-f_
  6
CONTINUOUS
 62
    9
 10
310
 20
217.5
 11
310
 21
1267.5
  0
LINE
  8
_f-f_
  6
CONTINUOUS
 62
    9
 10
1790
 20
217.5
 11
310
 21
217.5
  0
LINE
  8
_f-f_
  6
CONTINUOUS
 62
    9
 10
1790
 20
1267.5
 11
310
 21
1267.5
  0
LINE
  8
_f-f_
  6
CONTINUOUS
 62
    9
 10
1790
 20
1267.5
 11
1790
 21
217.5
  0
LINE
  8
ADD_LINE
  6
DOT
 62
  136
 10
1764.9999999999989
 20
1242.5
 11
335
 21
1242.5
  0
LINE
  8
ADD_LINE
  6
DOT
 62
  136
 10
335
 20
242.50000000000227
 11
335
 21
1242.5
  0
LINE
  8
ADD_LINE
  6
DOT
 62
  136
 10
1765
 20
1242.5
 11
1765
 21
242.5
  0
LINE
  8
ADD_LINE
  6
DOT
 62
  136
 10
1765
 20
242.5
 11
335.00000000000114
 21
242.5
  0
TEXT
  8
_f-0_
 62
    7
 10
405.30228976001922
 20
1163.75
 40
17.5
 41
1
 50
0
  1
ドレイン 縦型
  0
TEXT
  8
_0-a_文字
 62
    7
 10
1067.4999999999952
 20
327.50000000000341
 40
15.000000000000213
 41
0.9999999999999907
 50
0
  1
※ 断熱材の種類が硬質ウレタンフォームの場合、ラジアルシートＬ６００の敷設は不要
  0
TEXT
  8
_0-a_文字
 62
    7
 10
1067.4999999999952
 20
287.50000000000341
 40
15.000000000000213
 41
0.9999999999999905
 50
0
  1
※ 本図面は防水納まりの参考図であり、下地等の構造を保証するものではありません
  0
TEXT
  8
_0-a_文字
 62
    7
 10
1067.4999999999952
 20
307.50000000000341
 40
15.000000000000213
 41
0.9999999999999905
 50
0
  1
※ デッキ端部などの開口部には、必要に応じ遮炎性を満たす処理をお願いします（別途工事）
  0
TEXT
  8
_0-a_文字
 62
    7
 10
1336.6575199360684
 20
806.20519303677668
 40
14.999999999999503
 41
1.0000000000000275
 50
0
  1
ＢＰ－Ｈ２Ｎ
  0
LINE
  8
_0-a_文字
  6
CONTINUOUS
 62
    7
 10
1253.2296726940797
 20
712.50519303677777
 11
1311.6575199360684
 21
813.70519303677668
  0
LINE
  8
_0-4_線色４__黄__
  6
CONTINUOUS
 62
    2
 10
943.8784668667796
 20
682.88130379009147
 11
886.01233564083236
 21
716.29033023035504
  0
LINE
  8
_0-4_線色４__黄__
  6
CONTINUOUS
 62
    2
 10
881.47840592303714
 20
717.50519303677891
 11
886.01233564083236
 21
716.29033023035504
  0
LINE
  8
_0-2_線色２__白__
  6
CONTINUOUS
 62
    7
 10
942.24099999999964
 20
678.05319303451995
 11
884.21922496660727
 21
711.5520804689088
  0
LINE
  8
_0-4_線色４__黄__
  6
CONTINUOUS
 62
    2
 10
828.48645586086468
 20
721.16084837025198
 11
815.57331503226555
 21
713.70544303677605
  0
LINE
  8
_0-4_線色４__黄__
  6
CONTINUOUS
 62
    2
 10
815.57331503226555
 20
713.70544303677605
 11
637.08244999999943
 21
713.70544303677605
  0
LINE
  8
_0-7_ビス
  6
CONTINUOUS
 62
    4
 10
855.18186815819013
 20
643.00519303677731
 11
861.32014343509786
 21
644.64999281058738
  0
LINE
  8
_0-7_ビス
  6
CONTINUOUS
 62
    4
 10
854.32014343509854
 20
644.77428703049952
 11
861.32014343509786
 21
646.64999281058783
  0
LINE
  8
_0-7_ビス
  6
CONTINUOUS
 62
    4
 10
854.32014343509854
 20
657.08050755987585
 11
861.32014343509786
 21
658.9562133399653
  0
LINE
  8
_0-7_ビス
  6
CONTINUOUS
 62
    4
 10
854.32014343509854
 20
655.0805075598754
 11
861.32014343509786
 21
656.95621333996485
  0
LINE
  8
_0-7_ビス
  6
CONTINUOUS
 62
    4
 10
854.32014343509854
 20
653.08050755987608
 11
861.32014343509786
 21
654.95621333996439
  0
LINE
  8
_0-7_ビス
  6
CONTINUOUS
 62
    4
 10
854.32014343509854
 20
651.08050755987563
 11
861.32014343509786
 21
652.95621333996394
  0
LINE
  8
_0-7_ビス
  6
CONTINUOUS
 62
    4
 10
854.32014343509854
 20
649.08050755987631
 11
861.32014343509786
 21
650.95621333996462
  0
LINE
  8
_0-7_ビス
  6
CONTINUOUS
 62
    4
 10
854.32014343509854
 20
647.08050755987585
 11
861.32014343509786
 21
648.95621333996417
  0
LINE
  8
_0-7_ビス
  6
CONTINUOUS
 62
    4
 10
854.32014343509854
 20
669.38672808925332
 11
861.32014343509786
 21
671.26243386934163
  0
LINE
  8
_0-7_ビス
  6
CONTINUOUS
 62
    4
 10
854.32014343509854
 20
667.38672808925287
 11
861.32014343509786
 21
669.26243386934118
  0
LINE
  8
_0-7_ビス
  6
CONTINUOUS
 62
    4
 10
854.32014343509854
 20
665.38672808925241
 11
861.32014343509786
 21
667.26243386934186
  0
LINE
  8
_0-7_ビス
  6
CONTINUOUS
 62
    4
 10
854.32014343509854
 20
663.3867280892531
 11
861.32014343509786
 21
665.26243386934141
  0
LINE
  8
_0-7_ビス
  6
CONTINUOUS
 62
    4
 10
854.32014343509854
 20
661.38672808925264
 11
861.32014343509786
 21
663.26243386934095
  0
LINE
  8
_0-7_ビス
  6
CONTINUOUS
 62
    4
 10
854.32014343509854
 20
659.38672808925332
 11
861.32014343509786
 21
661.26243386934163
  0
LINE
  8
_0-7_ビス
  6
CONTINUOUS
 62
    4
 10
854.32014343509854
 20
681.69294861862966
 11
861.32014343509786
 21
683.5686543987191
  0
LINE
  8
_0-7_ビス
  6
CONTINUOUS
 62
    4
 10
854.32014343509854
 20
679.6929486186292
 11
861.32014343509786
 21
681.56865439871865
  0
LINE
  8
_0-7_ビス
  6
CONTINUOUS
 62
    4
 10
854.32014343509854
 20
677.69294861862988
 11
861.32014343509786
 21
679.56865439871819
  0
LINE
  8
_0-7_ビス
  6
CONTINUOUS
 62
    4
 10
854.32014343509854
 20
675.69294861862943
 11
861.32014343509786
 21
677.56865439871888
  0
LINE
  8
_0-7_ビス
  6
CONTINUOUS
 62
    4
 10
854.32014343509854
 20
673.69294861863011
 11
861.32014343509786
 21
675.56865439871842
  0
LINE
  8
_0-7_ビス
  6
CONTINUOUS
 62
    4
 10
854.32014343509854
 20
671.69294861862966
 11
861.32014343509786
 21
673.56865439871797
  0
LINE
  8
_0-7_ビス
  6
CONTINUOUS
 62
    4
 10
854.32014343509854
 20
693.99916914800713
 11
861.32014343509786
 21
695.87487492809657
  0
LINE
  8
_0-7_ビス
  6
CONTINUOUS
 62
    4
 10
854.32014343509854
 20
691.99916914800667
 11
861.32014343509786
 21
693.87487492809385
  0
LINE
  8
_0-7_ビス
  6
CONTINUOUS
 62
    4
 10
854.32014343509854
 20
689.99916914800622
 11
861.32014343509786
 21
691.87487492809566
  0
LINE
  8
_0-7_ビス
  6
CONTINUOUS
 62
    4
 10
854.32014343509854
 20
687.9991691480069
 11
861.32014343509786
 21
689.87487492809521
  0
LINE
  8
_0-7_ビス
  6
CONTINUOUS
 62
    4
 10
854.32014343509854
 20
685.99916914800644
 11
861.32014343509786
 21
687.87487492809475
  0
LINE
  8
_0-7_ビス
  6
CONTINUOUS
 62
    4
 10
854.32014343509854
 20
683.99916914800713
 11
861.32014343509786
 21
685.87487492809544
  0
LINE
  8
_0-7_ビス
  6
CONTINUOUS
 62
    4
 10
854.32014343509854
 20
696.30538967738346
 11
858.79772387703929
 21
697.50519303677891
  0
LINE
  8
_0-7_ビス
  6
CONTINUOUS
 62
    7
 10
861.32014343509786
 20
697.50519303677891
 11
854.32014343509854
 21
697.50519303677891
  0
LINE
  8
_0-7_ビス
  6
CONTINUOUS
 62
    7
 10
861.32014343509786
 20
708.79215052741699
 11
861.32014343509786
 21
639.52591897894138
  0
LINE
  8
_0-7_ビス
  6
CONTINUOUS
 62
    7
 10
861.32014343509786
 20
639.52591897894138
 11
857.82014343509877
 21
637.50519303677777
  0
LINE
  8
_0-7_ビス
  6
CONTINUOUS
 62
    7
 10
861.32014343509786
 20
643.00519303677731
 11
854.32014343509854
 21
643.00519303677731
  0
LINE
  8
_0-7_ビス
  6
CONTINUOUS
 62
    7
 10
854.32014343509854
 20
708.79215052741699
 11
854.32014343509854
 21
639.52591897894024
  0
LINE
  8
_0-7_ビス
  6
CONTINUOUS
 62
    7
 10
854.32014343509854
 20
639.52591897894024
 11
857.82014343509877
 21
637.50519303677777
  0
LINE
  8
_0-7_ビス
  6
CONTINUOUS
 62
    7
 10
861.32014343509786
 20
708.505193036778
 11
854.32014343509854
 21
708.505193036778
  0
ARC
  8
_0-7_ビス
  6
CONTINUOUS
 62
    7
 10
852.32014343509923
 20
708.79215052741699
 40
2
 50
0.0000000000000127
 51
44.999999999998508
  0
LINE
  8
_0-7_ビス
  6
CONTINUOUS
 62
    7
 10
853.7343569974721
 20
710.2063640897876
 11
851.82014343509854
 21
712.1205776521623
  0
ARC
  8
_0-7_ビス
  6
CONTINUOUS
 62
    7
 10
863.32014343509832
 20
708.79215052741699
 40
2
 50
135.00000000000153
 51
180.00000000000003
  0
LINE
  8
_0-7_ビス
  6
CONTINUOUS
 62
    7
 10
861.90592987272544
 20
710.2063640897876
 11
863.82014343509786
 21
712.1205776521623
  0
ARC
  8
_0-7_ビス
  6
DASHED3
 62
    7
 10
857.82014343509877
 20
711.06636660421543
 40
1.8403175392666382
 50
217.11750793457028
 51
322.88247680664062
  0
LINE
  8
_0-7_ビス
  6
CONTINUOUS
 62
    7
 10
863.820143435099
 20
712.50519303677891
 11
851.82014343509854
 21
712.50519303677891
  0
LINE
  8
_0-7_ビス
  6
CONTINUOUS
 62
    7
 10
863.820143435099
 20
712.1205776521623
 11
851.82014343509854
 21
712.1205776521623
  0
LINE
  8
_0-7_ビス
  6
DASHED3
 62
    7
 10
856.35267531884415
 20
709.9558235059493
 11
855.27012759894978
 21
712.50519303677891
  0
LINE
  8
_0-7_ビス
  6
CONTINUOUS
 62
    7
 10
851.82014343509854
 20
712.1205776521623
 11
851.82014343509854
 21
712.50519303677891
  0
LINE
  8
_0-7_ビス
  6
DASHED3
 62
    7
 10
859.28761155135339
 20
709.9558235059493
 11
860.37015927124776
 21
712.50519303677891
  0
LINE
  8
_0-7_ビス
  6
CONTINUOUS
 62
    7
 10
863.820143435099
 20
712.1205776521623
 11
863.820143435099
 21
712.50519303677891
  0
LINE
  8
ADD_LINE
  6
DOT
 62
    4
 10
857.82014343509877
 20
629.3858283748267
 11
857.82014343509877
 21
719.00254811744333
  0
LINE
  8
_0-2_線色２__白__
  6
CONTINUOUS
 62
    7
 10
870.73053006042278
 20
717.50519303677891
 11
834.1618809471604
 21
717.50519303677891
  0
LINE
  8
_0-4_線色４__黄__
  6
CONTINUOUS
 62
    2
 10
870.73053006042278
 20
722.50519303677891
 11
870.73053006042278
 21
717.50519303677891
  0
LINE
  8
_0-4_線色４__黄__
  6
CONTINUOUS
 62
    2
 10
881.47840592303714
 20
717.50519303677891
 11
870.73053006042278
 21
717.50519303677891
  0
LINE
  8
_0-2_線色２__白__
  6
CONTINUOUS
 62
    7
 10
830.41638382395354
 20
716.50159010736104
 11
831.71047904946681
 21
711.67196097591557
  0
LINE
  8
_0-2_線色２__白__
  6
CONTINUOUS
 62
    7
 10
834.1618809471604
 20
717.50519303677891
 11
830.41638382395354
 21
716.50159010736104
  0
LINE
  8
_0-4_線色４__黄__
  6
CONTINUOUS
 62
    2
 10
833.50361845922271
 20
722.50519303677891
 11
828.48645586086468
 21
721.16084837025198
  0
LINE
  8
_0-4_線色４__黄__
  6
CONTINUOUS
 62
    2
 10
833.50361845922271
 20
722.50519303677891
 11
870.73053006042278
 21
722.50519303677891
  0
LINE
  8
_0-2_線色２__白__
  6
CONTINUOUS
 62
    7
 10
881.45250737356696
 20
717.61549666843791
 11
881.47840592303714
 21
717.50519303677891
  0
LINE
  8
_0-2_線色２__白__
  6
CONTINUOUS
 62
    7
 10
881.40667047788929
 20
717.80517161554314
 11
881.45250737356696
 21
717.61549666843791
  0
LINE
  8
_0-2_線色２__白__
  6
CONTINUOUS
 62
    7
 10
881.35754407060267
 20
717.99344731771896
 11
881.40667047788929
 21
717.80517161554314
  0
LINE
  8
_0-2_線色２__白__
  6
CONTINUOUS
 62
    7
 10
881.30304618233345
 20
718.17943817690718
 11
881.35754407060267
 21
717.99344731771896
  0
LINE
  8
_0-2_線色２__白__
  6
CONTINUOUS
 62
    7
 10
881.24109484371024
 20
718.36225859505646
 11
881.30304618233345
 21
718.17943817690718
  0
LINE
  8
_0-2_線色２__白__
  6
CONTINUOUS
 62
    7
 10
881.16960808535941
 20
718.54102297410634
 11
881.24109484371024
 21
718.36225859505646
  0
LINE
  8
_0-2_線色２__白__
  6
CONTINUOUS
 62
    7
 10
881.12295623200202
 20
718.64249886515779
 11
881.16960808535941
 21
718.54102297410634
  0
LINE
  8
_0-2_線色２__白__
  6
CONTINUOUS
 62
    7
 10
881.08691632091541
 20
718.71415052299824
 11
881.12295623200202
 21
718.64249886515779
  0
LINE
  8
_0-2_線色２__白__
  6
CONTINUOUS
 62
    7
 10
881.01989582258602
 20
718.83544427670302
 11
881.08691632091541
 21
718.71415052299824
  0
LINE
  8
_0-2_線色２__白__
  6
CONTINUOUS
 62
    7
 10
880.947188256441
 20
718.95385604139562
 11
881.01989582258602
 21
718.83544427670302
  0
LINE
  8
_0-2_線色２__白__
  6
CONTINUOUS
 62
    7
 10
880.86936756569662
 20
719.06933697410693
 11
880.947188256441
 21
718.95385604139562
  0
LINE
  8
_0-2_線色２__白__
  6
CONTINUOUS
 62
    7
 10
880.78700769356351
 20
719.1818382318678
 11
880.86936756569662
 21
719.06933697410693
  0
LINE
  8
_0-2_線色２__白__
  6
CONTINUOUS
 62
    7
 10
880.70068258325909
 20
719.29131097170455
 11
880.78700769356351
 21
719.1818382318678
  0
LINE
  8
_0-2_線色２__白__
  6
CONTINUOUS
 62
    7
 10
880.64902331062262
 20
719.35339824722803
 11
880.70068258325909
 21
719.29131097170455
  0
LINE
  8
_0-2_線色２__白__
  6
CONTINUOUS
 62
    7
 10
880.55795472868317
 20
719.45759955543679
 11
880.64902331062262
 21
719.35339824722803
  0
LINE
  8
_0-2_線色２__白__
  6
CONTINUOUS
 62
    7
 10
880.39464085740383
 20
719.63087655844618
 11
880.55795472868317
 21
719.45759955543679
  0
LINE
  8
_0-2_線色２__白__
  6
CONTINUOUS
 62
    7
 10
880.22459565829399
 20
719.79736270129649
 11
880.39464085740383
 21
719.63087655844618
  0
LINE
  8
_0-2_線色２__白__
  6
CONTINUOUS
 62
    7
 10
880.04926353206974
 20
719.9585528992219
 11
880.22459565829399
 21
719.79736270129649
  0
LINE
  8
_0-2_線色２__白__
  6
CONTINUOUS
 62
    7
 10
879.87008887944489
 20
720.11594206746338
 11
880.04926353206974
 21
719.9585528992219
  0
LINE
  8
_0-2_線色２__白__
  6
CONTINUOUS
 62
    7
 10
879.68851610113438
 20
720.27102512125737
 11
879.87008887944489
 21
720.11594206746338
  0
LINE
  8
_0-2_線色２__白__
  6
CONTINUOUS
 62
    7
 10
879.58267423751727
 20
720.36050570515897
 11
879.68851610113438
 21
720.27102512125737
  0
LINE
  8
_0-2_線色２__白__
  6
CONTINUOUS
 62
    7
 10
879.49822106811303
 20
720.43176288425173
 11
879.58267423751727
 21
720.36050570515897
  0
LINE
  8
_0-2_線色２__白__
  6
CONTINUOUS
 62
    7
 10
879.35211346701726
 20
720.55396296417882
 11
879.49822106811303
 21
720.43176288425173
  0
LINE
  8
_0-2_線色２__白__
  6
CONTINUOUS
 62
    7
 10
879.20470862532375
 20
720.67429531322603
 11
879.35211346701726
 21
720.55396296417882
  0
LINE
  8
_0-2_線色２__白__
  6
CONTINUOUS
 62
    7
 10
879.0552321365883
 20
720.79155536561927
 11
879.20470862532375
 21
720.67429531322603
  0
LINE
  8
_0-2_線色２__白__
  6
CONTINUOUS
 62
    7
 10
878.90290959436675
 20
720.90453855558906
 11
879.0552321365883
 21
720.79155536561927
  0
LINE
  8
_0-2_線色２__白__
  6
CONTINUOUS
 62
    7
 10
878.74696659221377
 20
721.01204031735676
 11
878.90290959436675
 21
720.90453855558906
  0
LINE
  8
_0-2_線色２__白__
  6
CONTINUOUS
 62
    7
 10
878.65455559981433
 20
721.07140508722921
 11
878.74696659221377
 21
721.01204031735676
  0
LINE
  8
_0-2_線色２__白__
  6
CONTINUOUS
 62
    7
 10
878.56284059148811
 20
721.127092028741
 11
878.65455559981433
 21
721.07140508722921
  0
LINE
  8
_0-2_線色２__白__
  6
CONTINUOUS
 62
    7
 10
878.40203686547602
 20
721.21904879946612
 11
878.56284059148811
 21
721.127092028741
  0
LINE
  8
_0-2_線色２__白__
  6
CONTINUOUS
 62
    7
 10
878.23931943752291
 20
721.30814896180198
 11
878.40203686547602
 21
721.21904879946612
  0
LINE
  8
_0-2_線色２__白__
  6
CONTINUOUS
 62
    7
 10
878.07639948922974
 20
721.39703967025241
 11
878.23931943752291
 21
721.30814896180198
  0
LINE
  8
_0-2_線色２__白__
  6
CONTINUOUS
 62
    7
 10
877.91498820219863
 20
721.48836807932355
 11
878.07639948922974
 21
721.39703967025241
  0
LINE
  8
_0-2_線色２__白__
  6
CONTINUOUS
 62
    7
 10
877.75679675802712
 20
721.58478134351924
 11
877.91498820219863
 21
721.48836807932355
  0
LINE
  8
_0-2_線色２__白__
  6
CONTINUOUS
 62
    7
 10
877.66719534693925
 20
721.64407403389703
 11
877.75679675802712
 21
721.58478134351924
  0
LINE
  8
_0-2_線色２__白__
  6
CONTINUOUS
 62
    7
 10
877.61316812204518
 20
721.68194133028635
 11
877.66719534693925
 21
721.64407403389703
  0
LINE
  8
_0-2_線色２__白__
  6
CONTINUOUS
 62
    7
 10
877.52181362309307
 20
721.74986915981833
 11
877.61316812204518
 21
721.68194133028635
  0
LINE
  8
_0-2_線色２__白__
  6
CONTINUOUS
 62
    7
 10
877.43278361205716
 20
721.82096063650704
 11
877.52181362309307
 21
721.74986915981833
  0
LINE
  8
_0-2_線色２__白__
  6
CONTINUOUS
 62
    7
 10
877.34613763656148
 20
721.89500953983213
 11
877.43278361205716
 21
721.82096063650704
  0
LINE
  8
_0-2_線色２__白__
  6
CONTINUOUS
 62
    7
 10
877.26193524423229
 20
721.97180964927327
 11
877.34613763656148
 21
721.89500953983213
  0
LINE
  8
_0-2_線色２__白__
  6
CONTINUOUS
 62
    7
 10
877.18023598269133
 20
722.05115474431011
 11
877.26193524423229
 21
721.97180964927327
  0
LINE
  8
_0-2_線色２__白__
  6
CONTINUOUS
 62
    7
 10
877.13402081038657
 20
722.09825975022056
 11
877.18023598269133
 21
722.05115474431011
  0
LINE
  8
_0-2_線色２__白__
  6
CONTINUOUS
 62
    7
 10
877.00613880255992
 20
722.23751265000089
 11
877.13402081038657
 21
722.09825975022056
  0
LINE
  8
_0-2_線色２__白__
  6
CONTINUOUS
 62
    7
 10
876.80085317628459
 20
722.49035510575766
 11
877.00613880255992
 21
722.23751265000089
  0
LINE
  8
_0-2_線色２__白__
  6
CONTINUOUS
 62
    7
 10
876.6122411778847
 20
722.75678662694361
 11
876.80085317628459
 21
722.49035510575766
  0
LINE
  8
_0-2_線色２__白__
  6
CONTINUOUS
 62
    7
 10
876.43731719050015
 20
723.03384005496298
 11
876.6122411778847
 21
722.75678662694361
  0
LINE
  8
_0-2_線色２__白__
  6
CONTINUOUS
 62
    7
 10
876.273095597272
 20
723.31854823121319
 11
876.43731719050015
 21
723.03384005496298
  0
LINE
  8
_0-2_線色２__白__
  6
CONTINUOUS
 62
    7
 10
876.11659078134244
 20
723.60794399710073
 11
876.273095597272
 21
723.31854823121319
  0
LINE
  8
_0-2_線色２__白__
  6
CONTINUOUS
 62
    7
 10
876.02817732716608
 20
723.77677218010774
 11
876.11659078134244
 21
723.60794399710073
  0
LINE
  8
_0-2_線色２__白__
  6
CONTINUOUS
 62
    7
 10
875.96321933253512
 20
723.90221192960951
 11
876.02817732716608
 21
723.77677218010774
  0
LINE
  8
_0-2_線色２__白__
  6
CONTINUOUS
 62
    7
 10
875.85209234033846
 20
724.11835176886314
 11
875.96321933253512
 21
723.90221192960951
  0
LINE
  8
_0-2_線色２__白__
  6
CONTINUOUS
 62
    7
 10
875.74140491647972
 20
724.33411530984529
 11
875.85209234033846
 21
724.11835176886314
  0
LINE
  8
_0-2_線色２__白__
  6
CONTINUOUS
 62
    7
 10
875.63038830723235
 20
724.54926457091858
 11
875.74140491647972
 21
724.33411530984529
  0
LINE
  8
_0-2_線色２__白__
  6
CONTINUOUS
 62
    7
 10
875.51827375886865
 20
724.76356157045473
 11
875.63038830723235
 21
724.54926457091858
  0
LINE
  8
_0-2_線色２__白__
  6
CONTINUOUS
 62
    7
 10
875.40429251765977
 20
724.97676832682544
 11
875.51827375886865
 21
724.76356157045473
  0
LINE
  8
_0-2_線色２__白__
  6
CONTINUOUS
 62
    7
 10
875.33702515015398
 20
725.0998349189598
 11
875.40429251765977
 21
724.97676832682544
  0
LINE
  8
_0-2_線色２__白__
  6
CONTINUOUS
 62
    7
 10
875.27313482329396
 20
725.21451371598857
 11
875.33702515015398
 21
725.0998349189598
  0
LINE
  8
_0-2_線色２__白__
  6
CONTINUOUS
 62
    7
 10
875.16018196972573
 20
725.41076771477208
 11
875.27313482329396
 21
725.21451371598857
  0
LINE
  8
_0-2_線色２__白__
  6
CONTINUOUS
 62
    7
 10
875.04268120555685
 20
725.60447688391548
 11
875.16018196972573
 21
725.41076771477208
  0
LINE
  8
_0-2_線色２__白__
  6
CONTINUOUS
 62
    7
 10
874.91946130357042
 20
725.79484294500332
 11
875.04268120555685
 21
725.60447688391548
  0
LINE
  8
_0-2_線色２__白__
  6
CONTINUOUS
 62
    7
 10
874.78935103655067
 20
725.9810676196247
 11
874.91946130357042
 21
725.79484294500332
  0
LINE
  8
_0-2_線色２__白__
  6
CONTINUOUS
 62
    7
 10
874.65117917728298
 20
726.16235262936186
 11
874.78935103655067
 21
725.9810676196247
  0
LINE
  8
_0-2_線色２__白__
  6
CONTINUOUS
 62
    7
 10
874.5668841529116
 20
726.26492001735357
 11
874.65117917728298
 21
726.16235262936186
  0
LINE
  8
_0-2_線色２__白__
  6
CONTINUOUS
 62
    7
 10
874.49144207292511
 20
726.35177372135047
 11
874.5668841529116
 21
726.26492001735357
  0
LINE
  8
_0-2_線色２__白__
  6
CONTINUOUS
 62
    7
 10
874.35553261971995
 20
726.49679555068076
 11
874.49144207292511
 21
726.35177372135047
  0
LINE
  8
_0-2_線色２__白__
  6
CONTINUOUS
 62
    7
 10
874.21223827935455
 20
726.6342129565254
 11
874.35553261971995
 21
726.49679555068076
  0
LINE
  8
_0-2_線色２__白__
  6
CONTINUOUS
 62
    7
 10
874.06156323293749
 20
726.76213962984036
 11
874.21223827935455
 21
726.6342129565254
  0
LINE
  8
_0-2_線色２__白__
  6
CONTINUOUS
 62
    7
 10
873.90351166157848
 20
726.8786892615725
 11
874.06156323293749
 21
726.76213962984036
  0
LINE
  8
_0-2_線色２__白__
  6
CONTINUOUS
 62
    7
 10
873.73808774638724
 20
726.98197554267097
 11
873.90351166157848
 21
726.8786892615725
  0
LINE
  8
_0-2_線色２__白__
  6
CONTINUOUS
 62
    7
 10
873.63876551520866
 20
727.03506101459595
 11
873.73808774638724
 21
726.98197554267097
  0
LINE
  8
_0-2_線色２__白__
  6
CONTINUOUS
 62
    7
 10
873.528227689088
 20
727.08667095525186
 11
873.63876551520866
 21
727.03506101459595
  0
LINE
  8
_0-2_線色２__白__
  6
CONTINUOUS
 62
    7
 10
873.33173371348926
 20
727.1625704889874
 11
873.528227689088
 21
727.08667095525186
  0
LINE
  8
_0-2_線色２__白__
  6
CONTINUOUS
 62
    7
 10
873.12918051363317
 20
727.22497865588309
 11
873.33173371348926
 21
727.1625704889874
  0
LINE
  8
_0-2_線色２__白__
  6
CONTINUOUS
 62
    7
 10
872.92222356436673
 20
727.27746469758756
 11
873.12918051363317
 21
727.22497865588309
  0
LINE
  8
_0-2_線色２__白__
  6
CONTINUOUS
 62
    7
 10
872.71251834052896
 20
727.32359785573578
 11
872.92222356436673
 21
727.27746469758756
  0
LINE
  8
_0-2_線色２__白__
  6
CONTINUOUS
 62
    7
 10
872.5017203169657
 20
727.36694737197183
 11
872.71251834052896
 21
727.32359785573578
  0
LINE
  8
_0-2_線色２__白__
  6
CONTINUOUS
 62
    7
 10
872.37960908563741
 20
727.39222109347054
 11
872.5017203169657
 21
727.36694737197183
  0
LINE
  8
_0-2_線色２__白__
  6
CONTINUOUS
 62
    7
 10
872.27204686010032
 20
727.41520288035815
 11
872.37960908563741
 21
727.39222109347054
  0
LINE
  8
_0-2_線色２__白__
  6
CONTINUOUS
 62
    7
 10
872.08732732217277
 20
727.45564687793319
 11
872.27204686010032
 21
727.41520288035815
  0
LINE
  8
_0-2_線色２__白__
  6
CONTINUOUS
 62
    7
 10
871.90322172615174
 20
727.49570454263846
 11
872.08732732217277
 21
727.45564687793319
  0
LINE
  8
_0-2_線色２__白__
  6
CONTINUOUS
 62
    7
 10
871.7193656902939
 20
727.53371936866586
 11
871.90322172615174
 21
727.49570454263846
  0
LINE
  8
_0-2_線色２__白__
  6
CONTINUOUS
 62
    7
 10
871.53539483285363
 20
727.56803485020498
 11
871.7193656902939
 21
727.53371936866586
  0
LINE
  8
_0-2_線色２__白__
  6
CONTINUOUS
 62
    7
 10
871.35094477208418
 20
727.59699448144545
 11
871.53539483285363
 21
727.56803485020498
  0
LINE
  8
_0-2_線色２__白__
  6
CONTINUOUS
 62
    7
 10
871.24360058051798
 20
727.6106842675307
 11
871.35094477208418
 21
727.59699448144545
  0
LINE
  8
_0-2_線色２__白__
  6
CONTINUOUS
 62
    7
 10
871.09704910428241
 20
727.62512087631137
 11
871.24360058051798
 21
727.6106842675307
  0
LINE
  8
_0-2_線色２__白__
  6
CONTINUOUS
 62
    7
 10
870.84308391729087
 20
727.63919002431464
 11
871.09704910428241
 21
727.62512087631137
  0
LINE
  8
_0-2_線色２__白__
  6
CONTINUOUS
 62
    7
 10
870.58786612785616
 20
727.64081973156124
 11
870.84308391729087
 21
727.63919002431464
  0
LINE
  8
_0-2_線色２__白__
  6
CONTINUOUS
 62
    7
 10
870.33183829122527
 20
727.63147364037366
 11
870.58786612785616
 21
727.64081973156124
  0
LINE
  8
_0-2_線色２__白__
  6
CONTINUOUS
 62
    7
 10
870.07544296264405
 20
727.61261539307441
 11
870.33183829122527
 21
727.63147364037366
  0
LINE
  8
_0-2_線色２__白__
  6
CONTINUOUS
 62
    7
 10
869.81912269735949
 20
727.58570863198599
 11
870.07544296264405
 21
727.61261539307441
  0
LINE
  8
_0-2_線色２__白__
  6
CONTINUOUS
 62
    7
 10
869.67066572727595
 20
727.56699163271776
 11
869.81912269735949
 21
727.58570863198599
  0
LINE
  8
_0-2_線色２__白__
  6
CONTINUOUS
 62
    7
 10
869.54789687924608
 20
727.54993826668567
 11
869.67066572727595
 21
727.56699163271776
  0
LINE
  8
_0-2_線色２__白__
  6
CONTINUOUS
 62
    7
 10
869.33705383569054
 20
727.51658555104939
 11
869.54789687924608
 21
727.54993826668567
  0
LINE
  8
_0-2_線色２__白__
  6
CONTINUOUS
 62
    7
 10
869.12787444398168
 20
727.47696095593881
 11
869.33705383569054
 21
727.51658555104939
  0
LINE
  8
_0-2_線色２__白__
  6
CONTINUOUS
 62
    7
 10
868.92107536717253
 20
727.42958608220931
 11
869.12787444398168
 21
727.47696095593881
  0
LINE
  8
_0-2_線色２__白__
  6
CONTINUOUS
 62
    7
 10
868.71737326831385
 20
727.37298253071174
 11
868.92107536717253
 21
727.42958608220931
  0
LINE
  8
_0-2_線色２__白__
  6
CONTINUOUS
 62
    7
 10
868.51748481045979
 20
727.30567190229692
 11
868.71737326831385
 21
727.37298253071174
  0
LINE
  8
_0-2_線色２__白__
  6
CONTINUOUS
 62
    7
 10
868.40357931771996
 20
727.26114318903171
 11
868.51748481045979
 21
727.30567190229692
  0
LINE
  8
_0-2_線色２__白__
  6
CONTINUOUS
 62
    7
 10
868.30218305655171
 20
727.21726091811149
 11
868.40357931771996
 21
727.26114318903171
  0
LINE
  8
_0-2_線色２__白__
  6
CONTINUOUS
 62
    7
 10
868.1305849589487
 20
727.13375273760164
 11
868.30218305655171
 21
727.21726091811149
  0
LINE
  8
_0-2_線色２__白__
  6
CONTINUOUS
 62
    7
 10
867.96312731691705
 20
727.04113234231443
 11
868.1305849589487
 21
727.13375273760164
  0
LINE
  8
_0-2_線色２__白__
  6
CONTINUOUS
 62
    7
 10
867.79988065969042
 20
726.94035711088816
 11
867.96312731691705
 21
727.04113234231443
  0
LINE
  8
_0-2_線色２__白__
  6
CONTINUOUS
 62
    7
 10
867.64091551650131
 20
726.83238442195659
 11
867.79988065969042
 21
726.94035711088816
  0
LINE
  8
_0-2_線色２__白__
  6
CONTINUOUS
 62
    7
 10
867.48630241657997
 20
726.71817165415803
 11
867.64091551650131
 21
726.83238442195659
  0
LINE
  8
_0-2_線色２__白__
  6
CONTINUOUS
 62
    7
 10
867.39864871703821
 20
726.6494463016619
 11
867.48630241657997
 21
726.71817165415803
  0
LINE
  8
_0-2_線色２__白__
  6
CONTINUOUS
 62
    7
 10
867.30142127545128
 20
726.56989649438117
 11
867.39864871703821
 21
726.6494463016619
  0
LINE
  8
_0-2_線色２__白__
  6
CONTINUOUS
 62
    7
 10
867.13789643207042
 20
726.42843324155308
 11
867.30142127545128
 21
726.56989649438117
  0
LINE
  8
_0-2_線色２__白__
  6
CONTINUOUS
 62
    7
 10
866.9789824759639
 20
726.28220651115669
 11
867.13789643207042
 21
726.42843324155308
  0
LINE
  8
_0-2_線色２__白__
  6
CONTINUOUS
 62
    7
 10
866.82399339646031
 20
726.13201887223511
 11
866.9789824759639
 21
726.28220651115669
  0
LINE
  8
_0-2_線色２__白__
  6
CONTINUOUS
 62
    7
 10
866.6722431828905
 20
725.97867289383601
 11
866.82399339646031
 21
726.13201887223511
  0
LINE
  8
_0-2_線色２__白__
  6
CONTINUOUS
 62
    7
 10
866.52304582458305
 20
725.8229711450025
 11
866.6722431828905
 21
725.97867289383601
  0
LINE
  8
_0-2_線色２__白__
  6
CONTINUOUS
 62
    7
 10
866.43741075116827
 20
725.73190097060376
 11
866.52304582458305
 21
725.8229711450025
  0
LINE
  8
_0-2_線色２__白__
  6
CONTINUOUS
 62
    7
 10
866.35605485325618
 20
725.64447787759661
 11
866.43741075116827
 21
725.73190097060376
  0
LINE
  8
_0-2_線色２__白__
  6
CONTINUOUS
 62
    7
 10
866.21700575794739
 20
725.49273263434259
 11
866.35605485325618
 21
725.64447787759661
  0
LINE
  8
_0-2_線色２__白__
  6
CONTINUOUS
 62
    7
 10
866.07974186112392
 20
725.33935264725358
 11
866.21700575794739
 21
725.49273263434259
  0
LINE
  8
_0-2_線色２__白__
  6
CONTINUOUS
 62
    7
 10
865.94454372299629
 20
725.18393215378808
 11
866.07974186112392
 21
725.33935264725358
  0
LINE
  8
_0-2_線色２__白__
  6
CONTINUOUS
 62
    7
 10
865.811691903775
 20
725.02606539139776
 11
865.94454372299629
 21
725.18393215378808
  0
LINE
  8
_0-2_線色２__白__
  6
CONTINUOUS
 62
    7
 10
865.68146696367171
 20
724.86534659753659
 11
865.811691903775
 21
725.02606539139776
  0
LINE
  8
_0-2_線色２__白__
  6
CONTINUOUS
 62
    7
 10
865.60725068973488
 20
724.77066300473496
 11
865.68146696367171
 21
724.86534659753659
  0
LINE
  8
_0-2_線色２__白__
  6
CONTINUOUS
 62
    7
 10
865.54504311005621
 20
724.68929515752905
 11
865.60725068973488
 21
724.77066300473496
  0
LINE
  8
_0-2_線色２__白__
  6
CONTINUOUS
 62
    7
 10
865.44034377174034
 20
724.54686597673287
 11
865.54504311005621
 21
724.68929515752905
  0
LINE
  8
_0-2_線色２__白__
  6
CONTINUOUS
 62
    7
 10
865.34009467459532
 20
724.40150493495992
 11
865.44034377174034
 21
724.54686597673287
  0
LINE
  8
_0-2_線色２__白__
  6
CONTINUOUS
 62
    7
 10
865.24570968544799
 20
724.2529524191599
 11
865.34009467459532
 21
724.40150493495992
  0
LINE
  8
_0-2_線色２__白__
  6
CONTINUOUS
 62
    7
 10
865.15860267112066
 20
724.10094881628027
 11
865.24570968544799
 21
724.2529524191599
  0
LINE
  8
_0-2_線色２__白__
  6
CONTINUOUS
 62
    7
 10
865.08018749843905
 20
723.9452345132662
 11
865.15860267112066
 21
724.10094881628027
  0
LINE
  8
_0-2_線色２__白__
  6
CONTINUOUS
 62
    7
 10
865.03924643717573
 20
723.85311767367682
 11
865.08018749843905
 21
723.9452345132662
  0
LINE
  8
_0-2_線色２__白__
  6
CONTINUOUS
 62
    7
 10
864.99202273888363
 20
723.73315257068441
 11
865.03924643717573
 21
723.85311767367682
  0
LINE
  8
_0-2_線色２__白__
  6
CONTINUOUS
 62
    7
 10
864.9231075958935
 20
723.52159963886322
 11
864.99202273888363
 21
723.73315257068441
  0
LINE
  8
_0-2_線色２__白__
  6
CONTINUOUS
 62
    7
 10
864.86751919836342
 20
723.30502023020642
 11
864.9231075958935
 21
723.52159963886322
  0
LINE
  8
_0-2_線色２__白__
  6
CONTINUOUS
 62
    7
 10
864.82234777653935
 20
723.08451182873512
 11
864.86751919836342
 21
723.30502023020642
  0
LINE
  8
_0-2_線色２__白__
  6
CONTINUOUS
 62
    7
 10
864.78468356067401
 20
722.86117191847723
 11
864.82234777653935
 21
723.08451182873512
  0
LINE
  8
_0-2_線色２__白__
  6
CONTINUOUS
 62
    7
 10
864.75161678101335
 20
722.6360979834584
 11
864.78468356067401
 21
722.86117191847723
  0
LINE
  8
_0-2_線色２__白__
  6
CONTINUOUS
 62
    7
 10
864.73339799348969
 20
722.50519303677891
 11
864.75161678101335
 21
722.6360979834584
  0
LINE
  8
_0-2_線色２__白__
  6
CONTINUOUS
 62
    7
 10
830.41638382395354
 20
716.50159010736104
 11
816.91262798172238
 21
708.70519303677781
  0
LINE
  8
_0-6_鋼板__アングル
  6
CONTINUOUS
 62
    2
 10
877.80417744088913
 20
711.30519303677772
 11
877.80417744088913
 21
710.10519303677654
  0
LINE
  8
_0-6_鋼板__アングル
  6
CONTINUOUS
 62
    2
 10
877.80417744088913
 20
710.10519303677654
 11
880.50417744088895
 21
710.10519303677654
  0
LINE
  8
_0-6_鋼板__アングル
  6
CONTINUOUS
 62
    2
 10
880.50417744088895
 20
710.10519303677654
 11
883.30864211248445
 21
709.35373899282183
  0
LINE
  8
_0-6_鋼板__アングル
  6
CONTINUOUS
 62
    2
 10
880.82014343509945
 20
712.50519303677891
 11
883.92980782073073
 21
711.67196097591557
  0
LINE
  8
_0-6_鋼板__アングル
  6
CONTINUOUS
 62
    2
 10
864.32014343509854
 20
712.50519303677891
 11
880.82014343509945
 21
712.50519303677891
  0
LINE
  8
_0-6_鋼板__アングル
  6
CONTINUOUS
 62
    2
 10
864.7783188096455
 20
711.30519303677772
 11
880.66216043799363
 21
711.30519303677772
  0
LINE
  8
_0-6_鋼板__アングル
  6
CONTINUOUS
 62
    2
 10
883.61922496660759
 20
710.51284998436756
 11
880.66216043799363
 21
711.30519303677772
  0
LINE
  8
_0-6_鋼板__アングル
  6
CONTINUOUS
 62
    2
 10
835.13610942930859
 20
710.10519303677654
 11
832.33164475771309
 21
709.35373899282183
  0
LINE
  8
_0-6_鋼板__アングル
  6
CONTINUOUS
 62
    2
 10
837.83610942930841
 20
710.10519303677654
 11
835.13610942930859
 21
710.10519303677654
  0
ARC
  8
_0-6_鋼板__アングル
  6
CONTINUOUS
 62
    2
 10
832.02106190358995
 20
710.51284998436756
 40
1.2000000000000006
 50
105.00000000000549
 51
285.00000000000546
  0
LINE
  8
_0-6_鋼板__アングル
  6
CONTINUOUS
 62
    2
 10
834.82014343509923
 20
712.50519303677891
 11
831.71047904946681
 21
711.67196097591557
  0
LINE
  8
_0-6_鋼板__アングル
  6
CONTINUOUS
 62
    2
 10
851.320143435099
 20
712.50519303677891
 11
834.82014343509923
 21
712.50519303677891
  0
LINE
  8
_0-6_鋼板__アングル
  6
CONTINUOUS
 62
    2
 10
832.02106190358995
 20
710.51284998436756
 11
834.97812643220391
 21
711.30519303677772
  0
LINE
  8
_0-6_鋼板__アングル
  6
CONTINUOUS
 62
    2
 10
850.86196806055318
 20
711.30519303677772
 11
834.97812643220391
 21
711.30519303677772
  0
LINE
  8
ADD_LINE
  6
DOT
 62
    4
 10
883.61922496660759
 20
710.51284998436756
 11
886.82867554469203
 21
710.51284998436756
  0
LINE
  8
ADD_LINE
  6
DOT
 62
    4
 10
884.81922496660763
 20
708.70519303677781
 11
884.81922496660763
 21
712.50519303677891
  0
LINE
  8
ADD_LINE
  6
DOT
 62
    4
 10
857.82014343509877
 20
697.65804537212887
 11
857.82014343509877
 21
731.84240156219118
  0
LINE
  8
_0-6_鋼板__アングル
  6
CONTINUOUS
 62
    2
 10
837.83610942930841
 20
711.30519303677772
 11
837.83610942930841
 21
710.10519303677654
  0
LINE
  8
_0-6_鋼板__アングル
  6
CONTINUOUS
 62
    4
 10
861.86986567713325
 20
708.70519303677781
 11
853.77042119306429
 21
708.70519303677781
  0
LINE
  8
_0-6_鋼板__アングル
  6
CONTINUOUS
 62
    4
 10
861.07014343509923
 20
709.59979098292649
 11
854.57018199403569
 21
709.59979098292649
  0
LINE
  8
_0-6_鋼板__アングル
  6
CONTINUOUS
 62
    2
 10
850.86196806055318
 20
711.30519303677772
 11
853.77042119306429
 21
708.70519303677781
  0
LINE
  8
_0-6_鋼板__アングル
  6
CONTINUOUS
 62
    2
 10
853.77042119306429
 20
708.70519303677781
 11
854.57018199403569
 21
709.59983411633345
  0
LINE
  8
_0-6_鋼板__アングル
  6
CONTINUOUS
 62
    2
 10
851.320143435099
 20
712.50519303677891
 11
854.57018199403569
 21
709.59983411633345
  0
LINE
  8
_0-6_鋼板__アングル
  6
CONTINUOUS
 62
    2
 10
864.7783188096455
 20
711.30519303677772
 11
861.86986567713325
 21
708.70519303677781
  0
LINE
  8
_0-6_鋼板__アングル
  6
CONTINUOUS
 62
    2
 10
861.86986567713325
 20
708.70519303677781
 11
861.07010487616185
 21
709.59983411633345
  0
LINE
  8
_0-6_鋼板__アングル
  6
CONTINUOUS
 62
    2
 10
864.32014343509854
 20
712.50519303677891
 11
861.07010487616185
 21
709.59983411633345
  0
LINE
  8
_0-6_鋼板__アングル
  6
CONTINUOUS
 62
    4
 10
851.320143435099
 20
712.50519303677891
 11
864.32014343509854
 21
712.50519303677891
  0
ARC
  8
_0-6_鋼板__アングル
  6
CONTINUOUS
 62
    2
 10
883.61922496660759
 20
710.51284998436756
 40
1.2000000000000006
 50
254.99999999999449
 51
74.9999999999945
  0
LINE
  8
_0-4_線色４__黄__
  6
CONTINUOUS
 62
    2
 10
1156.2685267125885
 20
682.84226930467128
 11
1214.2022676505317
 21
716.2903302303539
  0
LINE
  8
_0-4_線色４__黄__
  6
CONTINUOUS
 62
    2
 10
1218.7361973683244
 20
717.50519303677777
 11
1214.2022676505317
 21
716.2903302303539
  0
LINE
  8
_0-2_線色２__白__
  6
CONTINUOUS
 62
    7
 10
1158.0060716260764
 20
678.0719386363063
 11
1215.9953783247538
 21
711.55208046890766
  0
LINE
  8
_0-4_線色４__黄__
  6
CONTINUOUS
 62
    2
 10
1284.6417212717949
 20
713.70519303677668
 11
1463.5176999999981
 21
713.70519303677668
  0
LINE
  8
_0-4_線色４__黄__
  6
CONTINUOUS
 62
    2
 10
1271.728147430498
 20
721.16084837025085
 11
1284.6417212717949
 21
713.70519303677668
  0
LINE
  8
_0-2_線色２__白__
  6
CONTINUOUS
 62
    7
 10
1229.4840732309387
 20
717.50519303677777
 11
1266.0527223442011
 21
717.50519303677777
  0
LINE
  8
_0-4_線色４__黄__
  6
CONTINUOUS
 62
    2
 10
1229.4840732309387
 20
722.50519303677777
 11
1229.4840732309387
 21
717.50519303677777
  0
LINE
  8
_0-4_線色４__黄__
  6
CONTINUOUS
 62
    2
 10
1218.7361973683244
 20
717.50519303677777
 11
1229.4840732309387
 21
717.50519303677777
  0
LINE
  8
_0-2_線色２__白__
  6
CONTINUOUS
 62
    7
 10
1269.798219467408
 20
716.5015901073599
 11
1268.5041242418959
 21
711.67196097591443
  0
LINE
  8
_0-2_線色２__白__
  6
CONTINUOUS
 62
    7
 10
1266.0527223442011
 20
717.50519303677777
 11
1269.798219467408
 21
716.5015901073599
  0
LINE
  8
_0-4_線色４__黄__
  6
CONTINUOUS
 62
    2
 10
1266.71098483214
 20
722.50519303677777
 11
1271.728147430498
 21
721.16084837025085
  0
LINE
  8
_0-4_線色４__黄__
  6
CONTINUOUS
 62
    2
 10
1266.71098483214
 20
722.50519303677777
 11
1229.4840732309387
 21
722.50519303677777
  0
LINE
  8
_0-2_線色２__白__
  6
CONTINUOUS
 62
    7
 10
1218.7620959177946
 20
717.61549666843678
 11
1218.7361973683244
 21
717.50519303677777
  0
LINE
  8
_0-2_線色２__白__
  6
CONTINUOUS
 62
    7
 10
1218.8079328134734
 20
717.80517161554201
 11
1218.7620959177946
 21
717.61549666843678
  0
LINE
  8
_0-2_線色２__白__
  6
CONTINUOUS
 62
    7
 10
1218.85705922076
 20
717.99344731771782
 11
1218.8079328134734
 21
717.80517161554201
  0
LINE
  8
_0-2_線色２__白__
  6
CONTINUOUS
 62
    7
 10
1218.9115571090281
 20
718.17943817690605
 11
1218.85705922076
 21
717.99344731771782
  0
LINE
  8
_0-2_線色２__白__
  6
CONTINUOUS
 62
    7
 10
1218.9735084476513
 20
718.36225859505532
 11
1218.9115571090281
 21
718.17943817690605
  0
LINE
  8
_0-2_線色２__白__
  6
CONTINUOUS
 62
    7
 10
1219.0449952060033
 20
718.5410229741052
 11
1218.9735084476513
 21
718.36225859505532
  0
LINE
  8
_0-2_線色２__白__
  6
CONTINUOUS
 62
    7
 10
1219.0916470593595
 20
718.64249886515665
 11
1219.0449952060033
 21
718.5410229741052
  0
LINE
  8
_0-2_線色２__白__
  6
CONTINUOUS
 62
    7
 10
1219.1276869704473
 20
718.7141505229971
 11
1219.0916470593595
 21
718.64249886515665
  0
LINE
  8
_0-2_線色２__白__
  6
CONTINUOUS
 62
    7
 10
1219.1947074687766
 20
718.83544427670188
 11
1219.1276869704473
 21
718.7141505229971
  0
LINE
  8
_0-2_線色２__白__
  6
CONTINUOUS
 62
    7
 10
1219.2674150349205
 20
718.95385604139449
 11
1219.1947074687766
 21
718.83544427670188
  0
LINE
  8
_0-2_線色２__白__
  6
CONTINUOUS
 62
    7
 10
1219.3452357256649
 20
719.06933697410579
 11
1219.2674150349205
 21
718.95385604139449
  0
LINE
  8
_0-2_線色２__白__
  6
CONTINUOUS
 62
    7
 10
1219.427595597798
 20
719.18183823186666
 11
1219.3452357256649
 21
719.06933697410579
  0
LINE
  8
_0-2_線色２__白__
  6
CONTINUOUS
 62
    7
 10
1219.5139207081036
 20
719.29131097170341
 11
1219.427595597798
 21
719.18183823186666
  0
LINE
  8
_0-2_線色２__白__
  6
CONTINUOUS
 62
    7
 10
1219.5655799807389
 20
719.35339824722689
 11
1219.5139207081036
 21
719.29131097170341
  0
LINE
  8
_0-2_線色２__白__
  6
CONTINUOUS
 62
    7
 10
1219.6566485626784
 20
719.45759955543565
 11
1219.5655799807389
 21
719.35339824722689
  0
LINE
  8
_0-2_線色２__白__
  6
CONTINUOUS
 62
    7
 10
1219.8199624339588
 20
719.63087655844504
 11
1219.6566485626784
 21
719.45759955543565
  0
LINE
  8
_0-2_線色２__白__
  6
CONTINUOUS
 62
    7
 10
1219.9900076330675
 20
719.79736270129536
 11
1219.8199624339588
 21
719.63087655844504
  0
LINE
  8
_0-2_線色２__白__
  6
CONTINUOUS
 62
    7
 10
1220.1653397592929
 20
719.95855289922076
 11
1219.9900076330675
 21
719.79736270129536
  0
LINE
  8
_0-2_線色２__白__
  6
CONTINUOUS
 62
    7
 10
1220.3445144119166
 20
720.11594206746224
 11
1220.1653397592929
 21
719.95855289922076
  0
LINE
  8
_0-2_線色２__白__
  6
CONTINUOUS
 62
    7
 10
1220.5260871902271
 20
720.27102512125623
 11
1220.3445144119166
 21
720.11594206746224
  0
LINE
  8
_0-2_線色２__白__
  6
CONTINUOUS
 62
    7
 10
1220.6319290538443
 20
720.36050570515783
 11
1220.5260871902271
 21
720.27102512125623
  0
LINE
  8
_0-2_線色２__白__
  6
CONTINUOUS
 62
    7
 10
1220.7163822232485
 20
720.43176288425059
 11
1220.6319290538443
 21
720.36050570515783
  0
LINE
  8
_0-2_線色２__白__
  6
CONTINUOUS
 62
    7
 10
1220.8624898243454
 20
720.55396296417769
 11
1220.7163822232485
 21
720.43176288425059
  0
LINE
  8
_0-2_線色２__白__
  6
CONTINUOUS
 62
    7
 10
1221.0098946660389
 20
720.67429531322489
 11
1220.8624898243454
 21
720.55396296417769
  0
LINE
  8
_0-2_線色２__白__
  6
CONTINUOUS
 62
    7
 10
1221.1593711547732
 20
720.79155536561814
 11
1221.0098946660389
 21
720.67429531322489
  0
LINE
  8
_0-2_線色２__白__
  6
CONTINUOUS
 62
    7
 10
1221.3116936969948
 20
720.90453855558792
 11
1221.1593711547732
 21
720.79155536561814
  0
LINE
  8
_0-2_線色２__白__
  6
CONTINUOUS
 62
    7
 10
1221.4676366991478
 20
721.01204031735563
 11
1221.3116936969948
 21
720.90453855558792
  0
LINE
  8
_0-2_線色２__白__
  6
CONTINUOUS
 62
    7
 10
1221.5600476915472
 20
721.07140508722807
 11
1221.4676366991478
 21
721.01204031735563
  0
LINE
  8
_0-2_線色２__白__
  6
CONTINUOUS
 62
    7
 10
1221.6517626998746
 20
721.12709202873987
 11
1221.5600476915472
 21
721.07140508722807
  0
LINE
  8
_0-2_線色２__白__
  6
CONTINUOUS
 62
    7
 10
1221.8125664258866
 20
721.21904879946499
 11
1221.6517626998746
 21
721.12709202873987
  0
LINE
  8
_0-2_線色２__白__
  6
CONTINUOUS
 62
    7
 10
1221.9752838538386
 20
721.30814896180084
 11
1221.8125664258866
 21
721.21904879946499
  0
LINE
  8
_0-2_線色２__白__
  6
CONTINUOUS
 62
    7
 10
1222.1382038021318
 20
721.39703967025127
 11
1221.9752838538386
 21
721.30814896180084
  0
LINE
  8
_0-2_線色２__白__
  6
CONTINUOUS
 62
    7
 10
1222.2996150891629
 20
721.48836807932241
 11
1222.1382038021318
 21
721.39703967025127
  0
LINE
  8
_0-2_線色２__白__
  6
CONTINUOUS
 62
    7
 10
1222.4578065333355
 20
721.5847813435181
 11
1222.2996150891629
 21
721.48836807932241
  0
LINE
  8
_0-2_線色２__白__
  6
CONTINUOUS
 62
    7
 10
1222.5474079444223
 20
721.64407403389589
 11
1222.4578065333355
 21
721.5847813435181
  0
LINE
  8
_0-2_線色２__白__
  6
CONTINUOUS
 62
    7
 10
1222.6014351693163
 20
721.68194133028521
 11
1222.5474079444223
 21
721.64407403389589
  0
LINE
  8
_0-2_線色２__白__
  6
CONTINUOUS
 62
    7
 10
1222.6927896682685
 20
721.74986915981719
 11
1222.6014351693163
 21
721.68194133028521
  0
LINE
  8
_0-2_線色２__白__
  6
CONTINUOUS
 62
    7
 10
1222.7818196793044
 20
721.8209606365059
 11
1222.6927896682685
 21
721.74986915981719
  0
LINE
  8
_0-2_線色２__白__
  6
CONTINUOUS
 62
    7
 10
1222.8684656548
 20
721.89500953983099
 11
1222.7818196793044
 21
721.8209606365059
  0
LINE
  8
_0-2_線色２__白__
  6
CONTINUOUS
 62
    7
 10
1222.9526680471292
 20
721.97180964927213
 11
1222.8684656548
 21
721.89500953983099
  0
LINE
  8
_0-2_線色２__白__
  6
CONTINUOUS
 62
    7
 10
1223.0343673086702
 20
722.05115474430897
 11
1222.9526680471292
 21
721.97180964927213
  0
LINE
  8
_0-2_線色２__白__
  6
CONTINUOUS
 62
    7
 10
1223.0805824809761
 20
722.09825975021943
 11
1223.0343673086702
 21
722.05115474430897
  0
LINE
  8
_0-2_線色２__白__
  6
CONTINUOUS
 62
    7
 10
1223.2084644888016
 20
722.23751264999976
 11
1223.0805824809761
 21
722.09825975021943
  0
LINE
  8
_0-2_線色２__白__
  6
CONTINUOUS
 62
    7
 10
1223.4137501150769
 20
722.49035510575652
 11
1223.2084644888016
 21
722.23751264999976
  0
LINE
  8
_0-2_線色２__白__
  6
CONTINUOUS
 62
    7
 10
1223.602362113478
 20
722.75678662694247
 11
1223.4137501150769
 21
722.49035510575652
  0
LINE
  8
_0-2_線色２__白__
  6
CONTINUOUS
 62
    7
 10
1223.7772861008614
 20
723.03384005496184
 11
1223.602362113478
 21
722.75678662694247
  0
LINE
  8
_0-2_線色２__白__
  6
CONTINUOUS
 62
    7
 10
1223.9415076940907
 20
723.31854823121205
 11
1223.7772861008614
 21
723.03384005496184
  0
LINE
  8
_0-2_線色２__白__
  6
CONTINUOUS
 62
    7
 10
1224.0980125100202
 20
723.6079439970996
 11
1223.9415076940907
 21
723.31854823121205
  0
LINE
  8
_0-2_線色２__白__
  6
CONTINUOUS
 62
    7
 10
1224.1864259641955
 20
723.7767721801066
 11
1224.0980125100202
 21
723.6079439970996
  0
LINE
  8
_0-2_線色２__白__
  6
CONTINUOUS
 62
    7
 10
1224.2513839588275
 20
723.90221192960837
 11
1224.1864259641955
 21
723.7767721801066
  0
LINE
  8
_0-2_線色２__白__
  6
CONTINUOUS
 62
    7
 10
1224.3625109510242
 20
724.118351768862
 11
1224.2513839588275
 21
723.90221192960837
  0
LINE
  8
_0-2_線色２__白__
  6
CONTINUOUS
 62
    7
 10
1224.4731983748818
 20
724.33411530984415
 11
1224.3625109510242
 21
724.118351768862
  0
LINE
  8
_0-2_線色２__白__
  6
CONTINUOUS
 62
    7
 10
1224.5842149841303
 20
724.54926457091744
 11
1224.4731983748818
 21
724.33411530984415
  0
LINE
  8
_0-2_線色２__白__
  6
CONTINUOUS
 62
    7
 10
1224.6963295324929
 20
724.76356157045359
 11
1224.5842149841303
 21
724.54926457091744
  0
LINE
  8
_0-2_線色２__白__
  6
CONTINUOUS
 62
    7
 10
1224.8103107737018
 20
724.9767683268243
 11
1224.6963295324929
 21
724.76356157045359
  0
LINE
  8
_0-2_線色２__白__
  6
CONTINUOUS
 62
    7
 10
1224.8775781412076
 20
725.09983491895866
 11
1224.8103107737018
 21
724.9767683268243
  0
LINE
  8
_0-2_線色２__白__
  6
CONTINUOUS
 62
    7
 10
1224.9414684680676
 20
725.21451371598744
 11
1224.8775781412076
 21
725.09983491895866
  0
LINE
  8
_0-2_線色２__白__
  6
CONTINUOUS
 62
    7
 10
1225.0544213216369
 20
725.41076771477094
 11
1224.9414684680676
 21
725.21451371598744
  0
LINE
  8
_0-2_線色２__白__
  6
CONTINUOUS
 62
    7
 10
1225.1719220858047
 20
725.60447688391434
 11
1225.0544213216369
 21
725.41076771477094
  0
LINE
  8
_0-2_線色２__白__
  6
CONTINUOUS
 62
    7
 10
1225.2951419877911
 20
725.79484294500219
 11
1225.1719220858047
 21
725.60447688391434
  0
LINE
  8
_0-2_線色２__白__
  6
CONTINUOUS
 62
    7
 10
1225.425252254812
 20
725.98106761962356
 11
1225.2951419877911
 21
725.79484294500219
  0
LINE
  8
_0-2_線色２__白__
  6
CONTINUOUS
 62
    7
 10
1225.5634241140785
 20
726.16235262936073
 11
1225.425252254812
 21
725.98106761962356
  0
LINE
  8
_0-2_線色２__白__
  6
CONTINUOUS
 62
    7
 10
1225.6477191384499
 20
726.26492001735244
 11
1225.5634241140785
 21
726.16235262936073
  0
LINE
  8
_0-2_線色２__白__
  6
CONTINUOUS
 62
    7
 10
1225.7231612184376
 20
726.35177372134933
 11
1225.6477191384499
 21
726.26492001735244
  0
LINE
  8
_0-2_線色２__白__
  6
CONTINUOUS
 62
    7
 10
1225.8590706716416
 20
726.49679555067962
 11
1225.7231612184376
 21
726.35177372134933
  0
LINE
  8
_0-2_線色２__白__
  6
CONTINUOUS
 62
    7
 10
1226.0023650120081
 20
726.63421295652427
 11
1225.8590706716416
 21
726.49679555067962
  0
LINE
  8
_0-2_線色２__白__
  6
CONTINUOUS
 62
    7
 10
1226.153040058424
 20
726.76213962983923
 11
1226.0023650120081
 21
726.63421295652427
  0
LINE
  8
_0-2_線色２__白__
  6
CONTINUOUS
 62
    7
 10
1226.311091629783
 20
726.87868926157137
 11
1226.153040058424
 21
726.76213962983923
  0
LINE
  8
_0-2_線色２__白__
  6
CONTINUOUS
 62
    7
 10
1226.4765155449743
 20
726.98197554266983
 11
1226.311091629783
 21
726.87868926157137
  0
LINE
  8
_0-2_線色２__白__
  6
CONTINUOUS
 62
    7
 10
1226.5758377761529
 20
727.03506101459482
 11
1226.4765155449743
 21
726.98197554266983
  0
LINE
  8
_0-2_線色２__白__
  6
CONTINUOUS
 62
    7
 10
1226.6863756022747
 20
727.08667095525072
 11
1226.5758377761529
 21
727.03506101459482
  0
LINE
  8
_0-2_線色２__白__
  6
CONTINUOUS
 62
    7
 10
1226.8828695778723
 20
727.16257048898626
 11
1226.6863756022747
 21
727.08667095525072
  0
LINE
  8
_0-2_線色２__白__
  6
CONTINUOUS
 62
    7
 10
1227.0854227777284
 20
727.22497865588196
 11
1226.8828695778723
 21
727.16257048898626
  0
LINE
  8
_0-2_線色２__白__
  6
CONTINUOUS
 62
    7
 10
1227.2923797269948
 20
727.27746469758642
 11
1227.0854227777284
 21
727.22497865588196
  0
LINE
  8
_0-2_線色２__白__
  6
CONTINUOUS
 62
    7
 10
1227.5020849508326
 20
727.32359785573465
 11
1227.2923797269948
 21
727.27746469758642
  0
LINE
  8
_0-2_線色２__白__
  6
CONTINUOUS
 62
    7
 10
1227.7128829743958
 20
727.3669473719707
 11
1227.5020849508326
 21
727.32359785573465
  0
LINE
  8
_0-2_線色２__白__
  6
CONTINUOUS
 62
    7
 10
1227.8349942057241
 20
727.3922210934694
 11
1227.7128829743958
 21
727.3669473719707
  0
LINE
  8
_0-2_線色２__白__
  6
CONTINUOUS
 62
    7
 10
1227.9425564312612
 20
727.41520288035701
 11
1227.8349942057241
 21
727.3922210934694
  0
LINE
  8
_0-2_線色２__白__
  6
CONTINUOUS
 62
    7
 10
1228.1272759691899
 20
727.45564687793205
 11
1227.9425564312612
 21
727.41520288035701
  0
LINE
  8
_0-2_線色２__白__
  6
CONTINUOUS
 62
    7
 10
1228.3113815652098
 20
727.49570454263733
 11
1228.1272759691899
 21
727.45564687793205
  0
LINE
  8
_0-2_線色２__白__
  6
CONTINUOUS
 62
    7
 10
1228.4952376010676
 20
727.53371936866472
 11
1228.3113815652098
 21
727.49570454263733
  0
LINE
  8
_0-2_線色２__白__
  6
CONTINUOUS
 62
    7
 10
1228.6792084585079
 20
727.56803485020384
 11
1228.4952376010676
 21
727.53371936866472
  0
LINE
  8
_0-2_線色２__白__
  6
CONTINUOUS
 62
    7
 10
1228.8636585192774
 20
727.59699448144431
 11
1228.6792084585079
 21
727.56803485020384
  0
LINE
  8
_0-2_線色２__白__
  6
CONTINUOUS
 62
    7
 10
1228.9710027108447
 20
727.61068426752956
 11
1228.8636585192774
 21
727.59699448144431
  0
LINE
  8
_0-2_線色２__白__
  6
CONTINUOUS
 62
    7
 10
1229.1175541870791
 20
727.62512087631023
 11
1228.9710027108447
 21
727.61068426752956
  0
LINE
  8
_0-2_線色２__白__
  6
CONTINUOUS
 62
    7
 10
1229.3715193740707
 20
727.63919002431351
 11
1229.1175541870791
 21
727.62512087631023
  0
LINE
  8
_0-2_線色２__白__
  6
CONTINUOUS
 62
    7
 10
1229.6267371635065
 20
727.6408197315601
 11
1229.3715193740707
 21
727.63919002431351
  0
LINE
  8
_0-2_線色２__白__
  6
CONTINUOUS
 62
    7
 10
1229.8827650001374
 20
727.63147364037252
 11
1229.6267371635065
 21
727.6408197315601
  0
LINE
  8
_0-2_線色２__白__
  6
CONTINUOUS
 62
    7
 10
1230.1391603287186
 20
727.61261539307327
 11
1229.8827650001374
 21
727.63147364037252
  0
LINE
  8
_0-2_線色２__白__
  6
CONTINUOUS
 62
    7
 10
1230.3954805940032
 20
727.58570863198486
 11
1230.1391603287186
 21
727.61261539307327
  0
LINE
  8
_0-2_線色２__白__
  6
CONTINUOUS
 62
    7
 10
1230.5439375640856
 20
727.56699163271662
 11
1230.3954805940032
 21
727.58570863198486
  0
LINE
  8
_0-2_線色２__白__
  6
CONTINUOUS
 62
    7
 10
1230.6667064121154
 20
727.54993826668453
 11
1230.5439375640856
 21
727.56699163271662
  0
LINE
  8
_0-2_線色２__白__
  6
CONTINUOUS
 62
    7
 10
1230.877549455671
 20
727.51658555104825
 11
1230.6667064121154
 21
727.54993826668453
  0
LINE
  8
_0-2_線色２__白__
  6
CONTINUOUS
 62
    7
 10
1231.0867288473798
 20
727.47696095593767
 11
1230.877549455671
 21
727.51658555104825
  0
LINE
  8
_0-2_線色２__白__
  6
CONTINUOUS
 62
    7
 10
1231.293527924189
 20
727.42958608220817
 11
1231.0867288473798
 21
727.47696095593767
  0
LINE
  8
_0-2_線色２__白__
  6
CONTINUOUS
 62
    7
 10
1231.4972300230477
 20
727.3729825307106
 11
1231.293527924189
 21
727.42958608220817
  0
LINE
  8
_0-2_線色２__白__
  6
CONTINUOUS
 62
    7
 10
1231.6971184809029
 20
727.30567190229579
 11
1231.4972300230477
 21
727.3729825307106
  0
LINE
  8
_0-2_線色２__白__
  6
CONTINUOUS
 62
    7
 10
1231.8110239736427
 20
727.26114318903058
 11
1231.6971184809029
 21
727.30567190229579
  0
LINE
  8
_0-2_線色２__白__
  6
CONTINUOUS
 62
    7
 10
1231.912420234811
 20
727.21726091811036
 11
1231.8110239736427
 21
727.26114318903058
  0
LINE
  8
_0-2_線色２__白__
  6
CONTINUOUS
 62
    7
 10
1232.0840183324128
 20
727.1337527376005
 11
1231.912420234811
 21
727.21726091811036
  0
LINE
  8
_0-2_線色２__白__
  6
CONTINUOUS
 62
    7
 10
1232.2514759744456
 20
727.04113234231329
 11
1232.0840183324128
 21
727.1337527376005
  0
LINE
  8
_0-2_線色２__白__
  6
CONTINUOUS
 62
    7
 10
1232.4147226316711
 20
726.94035711088702
 11
1232.2514759744456
 21
727.04113234231329
  0
LINE
  8
_0-2_線色２__白__
  6
CONTINUOUS
 62
    7
 10
1232.5736877748602
 20
726.83238442195545
 11
1232.4147226316711
 21
726.94035711088702
  0
LINE
  8
_0-2_線色２__白__
  6
CONTINUOUS
 62
    7
 10
1232.7283008747816
 20
726.71817165415689
 11
1232.5736877748602
 21
726.83238442195545
  0
LINE
  8
_0-2_線色２__白__
  6
CONTINUOUS
 62
    7
 10
1232.8159545743245
 20
726.64944630166076
 11
1232.7283008747816
 21
726.71817165415689
  0
LINE
  8
_0-2_線色２__白__
  6
CONTINUOUS
 62
    7
 10
1232.9131820159103
 20
726.56989649438003
 11
1232.8159545743245
 21
726.64944630166076
  0
LINE
  8
_0-2_線色２__白__
  6
CONTINUOUS
 62
    7
 10
1233.0767068592911
 20
726.42843324155194
 11
1232.9131820159103
 21
726.56989649438003
  0
LINE
  8
_0-2_線色２__白__
  6
CONTINUOUS
 62
    7
 10
1233.2356208153976
 20
726.28220651115555
 11
1233.0767068592911
 21
726.42843324155194
  0
LINE
  8
_0-2_線色２__白__
  6
CONTINUOUS
 62
    7
 10
1233.3906098949012
 20
726.13201887223397
 11
1233.2356208153976
 21
726.28220651115555
  0
LINE
  8
_0-2_線色２__白__
  6
CONTINUOUS
 62
    7
 10
1233.542360108471
 20
725.97867289383487
 11
1233.3906098949012
 21
726.13201887223397
  0
LINE
  8
_0-2_線色２__白__
  6
CONTINUOUS
 62
    7
 10
1233.6915574667785
 20
725.82297114500136
 11
1233.542360108471
 21
725.97867289383487
  0
LINE
  8
_0-2_線色２__白__
  6
CONTINUOUS
 62
    7
 10
1233.7771925401933
 20
725.73190097060262
 11
1233.6915574667785
 21
725.82297114500136
  0
LINE
  8
_0-2_線色２__白__
  6
CONTINUOUS
 62
    7
 10
1233.8585484381053
 20
725.64447787759548
 11
1233.7771925401933
 21
725.73190097060262
  0
LINE
  8
_0-2_線色２__白__
  6
CONTINUOUS
 62
    7
 10
1233.9975975334153
 20
725.49273263434145
 11
1233.8585484381053
 21
725.64447787759548
  0
LINE
  8
_0-2_線色２__白__
  6
CONTINUOUS
 62
    7
 10
1234.1348614302376
 20
725.33935264725244
 11
1233.9975975334153
 21
725.49273263434145
  0
LINE
  8
_0-2_線色２__白__
  6
CONTINUOUS
 62
    7
 10
1234.2700595683652
 20
725.18393215378694
 11
1234.1348614302376
 21
725.33935264725244
  0
LINE
  8
_0-2_線色２__白__
  6
CONTINUOUS
 62
    7
 10
1234.4029113875865
 20
725.02606539139663
 11
1234.2700595683652
 21
725.18393215378694
  0
LINE
  8
_0-2_線色２__白__
  6
CONTINUOUS
 62
    7
 10
1234.5331363276898
 20
724.86534659753545
 11
1234.4029113875865
 21
725.02606539139663
  0
LINE
  8
_0-2_線色２__白__
  6
CONTINUOUS
 62
    7
 10
1234.6073526016278
 20
724.77066300473382
 11
1234.5331363276898
 21
724.86534659753545
  0
LINE
  8
_0-2_線色２__白__
  6
CONTINUOUS
 62
    7
 10
1234.6695601813065
 20
724.68929515752791
 11
1234.6073526016278
 21
724.77066300473382
  0
LINE
  8
_0-2_線色２__白__
  6
CONTINUOUS
 62
    7
 10
1234.7742595196212
 20
724.54686597673174
 11
1234.6695601813065
 21
724.68929515752791
  0
LINE
  8
_0-2_線色２__白__
  6
CONTINUOUS
 62
    7
 10
1234.8745086167662
 20
724.40150493495878
 11
1234.7742595196212
 21
724.54686597673174
  0
LINE
  8
_0-2_線色２__白__
  6
CONTINUOUS
 62
    7
 10
1234.9688936059135
 20
724.25295241915876
 11
1234.8745086167662
 21
724.40150493495878
  0
LINE
  8
_0-2_線色２__白__
  6
CONTINUOUS
 62
    7
 10
1235.056000620242
 20
724.10094881627913
 11
1234.9688936059135
 21
724.25295241915876
  0
LINE
  8
_0-2_線色２__白__
  6
CONTINUOUS
 62
    7
 10
1235.1344157929236
 20
723.94523451326506
 11
1235.056000620242
 21
724.10094881627913
  0
LINE
  8
_0-2_線色２__白__
  6
CONTINUOUS
 62
    7
 10
1235.1753568541869
 20
723.85311767367568
 11
1235.1344157929236
 21
723.94523451326506
  0
LINE
  8
_0-2_線色２__白__
  6
CONTINUOUS
 62
    7
 10
1235.2225805524779
 20
723.73315257068327
 11
1235.1753568541869
 21
723.85311767367568
  0
LINE
  8
_0-2_線色２__白__
  6
CONTINUOUS
 62
    7
 10
1235.291495695468
 20
723.52159963886209
 11
1235.2225805524779
 21
723.73315257068327
  0
LINE
  8
_0-2_線色２__白__
  6
CONTINUOUS
 62
    7
 10
1235.3470840929992
 20
723.30502023020529
 11
1235.291495695468
 21
723.52159963886209
  0
LINE
  8
_0-2_線色２__白__
  6
CONTINUOUS
 62
    7
 10
1235.3922555148222
 20
723.08451182873398
 11
1235.3470840929992
 21
723.30502023020529
  0
LINE
  8
_0-2_線色２__白__
  6
CONTINUOUS
 62
    7
 10
1235.4299197306875
 20
722.86117191847609
 11
1235.3922555148222
 21
723.08451182873398
  0
LINE
  8
_0-2_線色２__白__
  6
CONTINUOUS
 62
    7
 10
1235.4629865103482
 20
722.63609798345726
 11
1235.4299197306875
 21
722.86117191847609
  0
LINE
  8
_0-2_線色２__白__
  6
CONTINUOUS
 62
    7
 10
1235.481205297873
 20
722.50519303677777
 11
1235.4629865103482
 21
722.63609798345726
  0
LINE
  8
_0-2_線色２__白__
  6
CONTINUOUS
 62
    7
 10
1269.798219467408
 20
716.5015901073599
 11
1283.3019753096403
 21
708.70519303677668
  0
LINE
  8
_0-7_ビス
  6
CONTINUOUS
 62
    4
 10
1239.7561845793541
 20
643.00519303677618
 11
1245.8944598562618
 21
644.64999281058624
  0
LINE
  8
_0-7_ビス
  6
CONTINUOUS
 62
    4
 10
1238.8944598562637
 20
644.77428703049839
 11
1245.8944598562618
 21
646.6499928105867
  0
LINE
  8
_0-7_ビス
  6
CONTINUOUS
 62
    4
 10
1238.8944598562637
 20
657.08050755987472
 11
1245.8944598562618
 21
658.95621333996417
  0
LINE
  8
_0-7_ビス
  6
CONTINUOUS
 62
    4
 10
1238.8944598562637
 20
655.08050755987426
 11
1245.8944598562618
 21
656.95621333996371
  0
LINE
  8
_0-7_ビス
  6
CONTINUOUS
 62
    4
 10
1238.8944598562637
 20
653.08050755987495
 11
1245.8944598562618
 21
654.95621333996326
  0
LINE
  8
_0-7_ビス
  6
CONTINUOUS
 62
    4
 10
1238.8944598562637
 20
651.08050755987449
 11
1245.8944598562618
 21
652.9562133399628
  0
LINE
  8
_0-7_ビス
  6
CONTINUOUS
 62
    4
 10
1238.8944598562637
 20
649.08050755987517
 11
1245.8944598562618
 21
650.95621333996348
  0
LINE
  8
_0-7_ビス
  6
CONTINUOUS
 62
    4
 10
1238.8944598562637
 20
647.08050755987472
 11
1245.8944598562618
 21
648.95621333996303
  0
LINE
  8
_0-7_ビス
  6
CONTINUOUS
 62
    4
 10
1238.8944598562637
 20
669.38672808925219
 11
1245.8944598562618
 21
671.2624338693405
  0
LINE
  8
_0-7_ビス
  6
CONTINUOUS
 62
    4
 10
1238.8944598562637
 20
667.38672808925173
 11
1245.8944598562618
 21
669.26243386934004
  0
LINE
  8
_0-7_ビス
  6
CONTINUOUS
 62
    4
 10
1238.8944598562637
 20
665.38672808925128
 11
1245.8944598562618
 21
667.26243386934073
  0
LINE
  8
_0-7_ビス
  6
CONTINUOUS
 62
    4
 10
1238.8944598562637
 20
663.38672808925196
 11
1245.8944598562618
 21
665.26243386934027
  0
LINE
  8
_0-7_ビス
  6
CONTINUOUS
 62
    4
 10
1238.8944598562637
 20
661.38672808925151
 11
1245.8944598562618
 21
663.26243386933982
  0
LINE
  8
_0-7_ビス
  6
CONTINUOUS
 62
    4
 10
1238.8944598562637
 20
659.38672808925219
 11
1245.8944598562618
 21
661.2624338693405
  0
LINE
  8
_0-7_ビス
  6
CONTINUOUS
 62
    4
 10
1238.8944598562637
 20
681.69294861862852
 11
1245.8944598562618
 21
683.56865439871797
  0
LINE
  8
_0-7_ビス
  6
CONTINUOUS
 62
    4
 10
1238.8944598562637
 20
679.69294861862807
 11
1245.8944598562618
 21
681.56865439871751
  0
LINE
  8
_0-7_ビス
  6
CONTINUOUS
 62
    4
 10
1238.8944598562637
 20
677.69294861862875
 11
1245.8944598562618
 21
679.56865439871706
  0
LINE
  8
_0-7_ビス
  6
CONTINUOUS
 62
    4
 10
1238.8944598562637
 20
675.69294861862829
 11
1245.8944598562618
 21
677.56865439871774
  0
LINE
  8
_0-7_ビス
  6
CONTINUOUS
 62
    4
 10
1238.8944598562637
 20
673.69294861862898
 11
1245.8944598562618
 21
675.56865439871729
  0
LINE
  8
_0-7_ビス
  6
CONTINUOUS
 62
    4
 10
1238.8944598562637
 20
671.69294861862852
 11
1245.8944598562618
 21
673.56865439871683
  0
LINE
  8
_0-7_ビス
  6
CONTINUOUS
 62
    4
 10
1238.8944598562637
 20
693.99916914800599
 11
1245.8944598562618
 21
695.87487492809544
  0
LINE
  8
_0-7_ビス
  6
CONTINUOUS
 62
    4
 10
1238.8944598562637
 20
691.99916914800554
 11
1245.8944598562618
 21
693.87487492809271
  0
LINE
  8
_0-7_ビス
  6
CONTINUOUS
 62
    4
 10
1238.8944598562637
 20
689.99916914800508
 11
1245.8944598562618
 21
691.87487492809453
  0
LINE
  8
_0-7_ビス
  6
CONTINUOUS
 62
    4
 10
1238.8944598562637
 20
687.99916914800576
 11
1245.8944598562618
 21
689.87487492809407
  0
LINE
  8
_0-7_ビス
  6
CONTINUOUS
 62
    4
 10
1238.8944598562637
 20
685.99916914800531
 11
1245.8944598562618
 21
687.87487492809362
  0
LINE
  8
_0-7_ビス
  6
CONTINUOUS
 62
    4
 10
1238.8944598562637
 20
683.99916914800599
 11
1245.8944598562618
 21
685.8748749280943
  0
LINE
  8
_0-7_ビス
  6
CONTINUOUS
 62
    4
 10
1238.8944598562637
 20
696.30538967738232
 11
1243.3720402982033
 21
697.50519303677777
  0
LINE
  8
_0-7_ビス
  6
CONTINUOUS
 62
    7
 10
1245.8944598562618
 20
697.50519303677777
 11
1238.8944598562637
 21
697.50519303677777
  0
LINE
  8
_0-7_ビス
  6
CONTINUOUS
 62
    7
 10
1245.8944598562618
 20
708.79215052741586
 11
1245.8944598562618
 21
639.52591897894024
  0
LINE
  8
_0-7_ビス
  6
CONTINUOUS
 62
    7
 10
1245.8944598562618
 20
639.52591897894024
 11
1242.3944598562628
 21
637.50519303677663
  0
LINE
  8
_0-7_ビス
  6
CONTINUOUS
 62
    7
 10
1245.8944598562618
 20
643.00519303677618
 11
1238.8944598562637
 21
643.00519303677618
  0
LINE
  8
_0-7_ビス
  6
CONTINUOUS
 62
    7
 10
1238.8944598562637
 20
708.79215052741586
 11
1238.8944598562637
 21
639.5259189789391
  0
LINE
  8
_0-7_ビス
  6
CONTINUOUS
 62
    7
 10
1238.8944598562637
 20
639.5259189789391
 11
1242.3944598562628
 21
637.50519303677663
  0
LINE
  8
_0-7_ビス
  6
CONTINUOUS
 62
    7
 10
1245.8944598562618
 20
708.50519303677686
 11
1238.8944598562637
 21
708.50519303677686
  0
ARC
  8
_0-7_ビス
  6
CONTINUOUS
 62
    7
 10
1236.8944598562632
 20
708.79215052741586
 40
2
 50
0
 51
44.999999999998501
  0
LINE
  8
_0-7_ビス
  6
CONTINUOUS
 62
    7
 10
1238.3086734186361
 20
710.20636408978646
 11
1236.3944598562637
 21
712.12057765216116
  0
ARC
  8
_0-7_ビス
  6
CONTINUOUS
 62
    7
 10
1247.8944598562623
 20
708.79215052741586
 40
2
 50
135.00000000000153
 51
180.00000000000003
  0
LINE
  8
_0-7_ビス
  6
CONTINUOUS
 62
    7
 10
1246.4802462938894
 20
710.20636408978646
 11
1248.3944598562618
 21
712.12057765216116
  0
ARC
  8
_0-7_ビス
  6
DASHED3
 62
    7
 10
1242.3944598562628
 20
711.06636660421429
 40
1.8403175392666382
 50
217.11750793457031
 51
322.88247680664062
  0
LINE
  8
_0-7_ビス
  6
CONTINUOUS
 62
    7
 10
1248.3944598562641
 20
712.50519303677777
 11
1236.3944598562637
 21
712.50519303677777
  0
LINE
  8
_0-7_ビス
  6
CONTINUOUS
 62
    7
 10
1248.3944598562641
 20
712.12057765216116
 11
1236.3944598562637
 21
712.12057765216116
  0
LINE
  8
_0-7_ビス
  6
DASHED3
 62
    7
 10
1240.9269917400081
 20
709.95582350594816
 11
1239.8444440201149
 21
712.50519303677777
  0
LINE
  8
_0-7_ビス
  6
CONTINUOUS
 62
    7
 10
1236.3944598562637
 20
712.12057765216116
 11
1236.3944598562637
 21
712.50519303677777
  0
LINE
  8
_0-7_ビス
  6
DASHED3
 62
    7
 10
1243.8619279725174
 20
709.95582350594816
 11
1244.9444756924129
 21
712.50519303677777
  0
LINE
  8
_0-7_ビス
  6
CONTINUOUS
 62
    7
 10
1248.3944598562641
 20
712.12057765216116
 11
1248.3944598562641
 21
712.50519303677777
  0
LINE
  8
ADD_LINE
  6
DOT
 62
    4
 10
1242.3944598562628
 20
629.38582837482556
 11
1242.3944598562628
 21
719.00254811744219
  0
LINE
  8
_0-6_鋼板__アングル
  6
CONTINUOUS
 62
    2
 10
1222.4104258504724
 20
711.30519303677659
 11
1222.4104258504724
 21
710.1051930367754
  0
LINE
  8
_0-6_鋼板__アングル
  6
CONTINUOUS
 62
    2
 10
1222.4104258504724
 20
710.1051930367754
 11
1219.7104258504726
 21
710.1051930367754
  0
LINE
  8
_0-6_鋼板__アングル
  6
CONTINUOUS
 62
    2
 10
1219.7104258504726
 20
710.1051930367754
 11
1216.9059611788782
 21
709.35373899282069
  0
ARC
  8
_0-6_鋼板__アングル
  6
CONTINUOUS
 62
    2
 10
1216.5953783247539
 20
710.51284998436643
 40
1.2000000000000002
 50
105.00000000000549
 51
285.00000000000546
  0
LINE
  8
_0-6_鋼板__アングル
  6
CONTINUOUS
 62
    2
 10
1219.3944598562632
 20
712.50519303677777
 11
1216.2847954706319
 21
711.67196097591443
  0
LINE
  8
_0-6_鋼板__アングル
  6
CONTINUOUS
 62
    2
 10
1235.8944598562641
 20
712.50519303677777
 11
1219.3944598562632
 21
712.50519303677777
  0
LINE
  8
_0-6_鋼板__アングル
  6
CONTINUOUS
 62
    2
 10
1235.4362844817172
 20
711.30519303677659
 11
1219.5524428533679
 21
711.30519303677659
  0
LINE
  8
_0-6_鋼板__アングル
  6
CONTINUOUS
 62
    2
 10
1216.5953783247539
 20
710.51284998436643
 11
1219.5524428533679
 21
711.30519303677659
  0
LINE
  8
_0-6_鋼板__アングル
  6
CONTINUOUS
 62
    2
 10
1265.0784938620529
 20
710.1051930367754
 11
1267.8829585336496
 21
709.35373899282069
  0
LINE
  8
_0-6_鋼板__アングル
  6
CONTINUOUS
 62
    2
 10
1262.3784938620531
 20
710.1051930367754
 11
1265.0784938620529
 21
710.1051930367754
  0
ARC
  8
_0-6_鋼板__アングル
  6
CONTINUOUS
 62
    2
 10
1268.1935413877716
 20
710.51284998436643
 40
1.2000000000000006
 50
254.99999999999449
 51
74.9999999999945
  0
LINE
  8
_0-6_鋼板__アングル
  6
CONTINUOUS
 62
    2
 10
1265.3944598562623
 20
712.50519303677777
 11
1268.5041242418959
 21
711.67196097591443
  0
LINE
  8
_0-6_鋼板__アングル
  6
CONTINUOUS
 62
    2
 10
1248.8944598562637
 20
712.50519303677777
 11
1265.3944598562623
 21
712.50519303677777
  0
LINE
  8
_0-6_鋼板__アングル
  6
CONTINUOUS
 62
    2
 10
1268.1935413877716
 20
710.51284998436643
 11
1265.2364768591576
 21
711.30519303677659
  0
LINE
  8
_0-6_鋼板__アングル
  6
CONTINUOUS
 62
    2
 10
1249.3526352308083
 20
711.30519303677659
 11
1265.2364768591576
 21
711.30519303677659
  0
LINE
  8
ADD_LINE
  6
DOT
 62
    4
 10
1216.5953783247539
 20
710.51284998436643
 11
1213.3859277466706
 21
710.51284998436643
  0
LINE
  8
ADD_LINE
  6
DOT
 62
    4
 10
1215.395378324755
 20
708.70519303677668
 11
1215.395378324755
 21
712.50519303677777
  0
LINE
  8
ADD_LINE
  6
DOT
 62
    4
 10
1242.3944598562628
 20
697.65804537212773
 11
1242.3944598562628
 21
731.84240156219005
  0
LINE
  8
_0-6_鋼板__アングル
  6
CONTINUOUS
 62
    2
 10
1262.3784938620531
 20
711.30519303677659
 11
1262.3784938620531
 21
710.1051930367754
  0
LINE
  8
_0-6_鋼板__アングル
  6
CONTINUOUS
 62
    4
 10
1238.3447376142283
 20
708.70519303677668
 11
1246.4441820982972
 21
708.70519303677668
  0
LINE
  8
_0-6_鋼板__アングル
  6
CONTINUOUS
 62
    4
 10
1239.1444598562623
 20
709.59979098292536
 11
1245.6444212973258
 21
709.59979098292536
  0
LINE
  8
_0-6_鋼板__アングル
  6
CONTINUOUS
 62
    2
 10
1249.3526352308083
 20
711.30519303677659
 11
1246.4441820982972
 21
708.70519303677668
  0
LINE
  8
_0-6_鋼板__アングル
  6
CONTINUOUS
 62
    2
 10
1246.4441820982972
 20
708.70519303677668
 11
1245.6444212973258
 21
709.59983411633232
  0
LINE
  8
_0-6_鋼板__アングル
  6
CONTINUOUS
 62
    2
 10
1248.8944598562637
 20
712.50519303677777
 11
1245.6444212973258
 21
709.59983411633232
  0
LINE
  8
_0-6_鋼板__アングル
  6
CONTINUOUS
 62
    2
 10
1235.4362844817172
 20
711.30519303677659
 11
1238.3447376142283
 21
708.70519303677668
  0
LINE
  8
_0-6_鋼板__アングル
  6
CONTINUOUS
 62
    2
 10
1238.3447376142283
 20
708.70519303677668
 11
1239.1444984151997
 21
709.59983411633232
  0
LINE
  8
_0-6_鋼板__アングル
  6
CONTINUOUS
 62
    2
 10
1235.8944598562641
 20
712.50519303677777
 11
1239.1444984151997
 21
709.59983411633232
  0
LINE
  8
_0-6_鋼板__アングル
  6
CONTINUOUS
 62
    4
 10
1248.8944598562637
 20
712.50519303677777
 11
1235.8944598562641
 21
712.50519303677777
  0
LINE
  8
_0-6_鋼板__アングル
  6
CONTINUOUS
 62
    2
 10
1139.9999999999995
 20
670.30519303451968
 11
1139.9999999999995
 21
668.70519303451999
  0
LINE
  8
_0-6_鋼板__アングル
  6
CONTINUOUS
 62
    2
 10
1349.9999999999995
 20
670.30519303451968
 11
1139.9999999999995
 21
670.30519303451968
  0
LINE
  8
_0-6_鋼板__アングル
  6
CONTINUOUS
 62
    2
 10
1139.9999999999995
 20
668.70519303451999
 11
1349.9999999999995
 21
668.70519303451999
  0
LINE
  8
_0-6_鋼板__アングル
  6
CONTINUOUS
 62
    2
 10
959.99999999999943
 20
670.30519303451968
 11
959.99999999999943
 21
668.70519303451999
  0
LINE
  8
_0-6_鋼板__アングル
  6
CONTINUOUS
 62
    2
 10
959.99999999999943
 20
670.30519303451968
 11
749.99999999999909
 21
670.30519303451968
  0
LINE
  8
_0-6_鋼板__アングル
  6
CONTINUOUS
 62
    2
 10
749.99999999999909
 20
668.70519303451999
 11
959.99999999999943
 21
668.70519303451999
  0
LINE
  8
_0-6_鋼板__アングル
  6
CONTINUOUS
 62
    2
 10
749.99999999999909
 20
670.30519303451968
 11
749.99999999999909
 21
668.70519303451999
  0
LINE
  8
_0-6_鋼板__アングル
  6
CONTINUOUS
 62
    2
 10
1349.9999999999995
 20
668.70519303451999
 11
1349.9999999999995
 21
670.30519303451968
  0
LINE
  8
_0-2_線色２__白__
  6
CONTINUOUS
 62
    7
 10
749.99999999999909
 20
668.70544303677605
 11
637.08244999999943
 21
668.70544303677605
  0
LINE
  8
_0-2_線色２__白__
  6
CONTINUOUS
 62
    7
 10
1349.9999999999995
 20
668.70519303677668
 11
1463.5176999999981
 21
668.70519303677668
  0
LINE
  8
_0-5_金属
  6
CONTINUOUS
 62
    7
 10
1149.9999999999995
 20
618.70544303677605
 11
1186.8001999999997
 21
618.70544303677605
  0
LINE
  8
_0-5_金属
  6
CONTINUOUS
 62
    7
 10
1149.9999999999995
 20
619.90564303677559
 11
1149.9999999999995
 21
618.70544303677605
  0
LINE
  8
_0-5_金属
  6
CONTINUOUS
 62
    7
 10
1149.9999999999995
 20
619.90564303677559
 11
1186.8001999999997
 21
619.90564303677559
  0
LINE
  8
_0-5_金属
  6
CONTINUOUS
 62
    7
 10
913.20084999999892
 20
618.70544303677605
 11
949.99999999999943
 21
618.70544303677605
  0
LINE
  8
_0-5_金属
  6
CONTINUOUS
 62
    7
 10
949.99999999999943
 20
619.90564303677559
 11
949.99999999999943
 21
618.70544303677605
  0
LINE
  8
_0-5_金属
  6
CONTINUOUS
 62
    7
 10
913.20084999999892
 20
619.90564303677559
 11
949.99999999999943
 21
619.90564303677559
  0
LINE
  8
_0-a_文字
  6
CONTINUOUS
 62
    7
 10
1172.2653062204654
 20
668.70519203677134
 11
1241.5471936083011
 21
548.70544303677605
  0
TEXT
  8
_0-a_文字
 62
    7
 10
1266.5471936083011
 20
541.20544303677605
 40
14.999999999999858
 41
1.0000000000000084
 50
0
  1
縦型ドレイン用補強鋼板 t=1.6
  0
LINE
  8
_0-a_文字
  6
CONTINUOUS
 62
    7
 10
1241.5471936083011
 20
548.70544303677605
 11
1261.5471936083011
 21
548.70544303677605
  0
TEXT
  8
_0-a_文字
 62
    7
 10
1266.5471936082995
 20
566.20544303677593
 40
14.999999999999858
 41
1.0000000000000044
 50
0
  1
（別途工事）
  0
TEXT
  8
_0-a_文字
 62
    7
 10
1266.5471936082995
 20
586.20544303677593
 40
14.999999999999858
 41
1.0000000000000069
 50
0
  1
耐火デッキプレート t=1.2以上
  0
LINE
  8
_0-8_笠木他
  6
CONTINUOUS
 62
    7
 10
992.99999999999898
 20
598.07019303452023
 11
992.99999999999898
 21
516.20824594149724
  0
LINE
  8
_0-8_笠木他
  6
CONTINUOUS
 62
    7
 10
999.99999999999943
 20
598.07019303452023
 11
999.99999999999943
 21
520.55262266462535
  0
LINE
  8
_0-8_笠木他
  6
CONTINUOUS
 62
    7
 10
1106.9999999999993
 20
598.07019303452023
 11
1106.9999999999993
 21
516.20824594149724
  0
LINE
  8
_0-8_笠木他
  6
CONTINUOUS
 62
    7
 10
1099.9999999999995
 20
598.07019303452023
 11
1099.9999999999995
 21
511.86386921836913
  0
ARC
  8
_0-8_笠木他
  6
CONTINUOUS
 62
    7
 10
1078.4999999999991
 20
554.31801541944026
 40
47.587861158723435
 50
233.20939984297195
 51
306.79060015702811
  0
ARC
  8
_0-8_笠木他
  6
CONTINUOUS
 62
    7
 10
1021.4999999999992
 20
478.09847646355422
 40
47.587861158723435
 50
53.209399842971948
 51
126.79060015702807
  0
ARC
  8
_0-8_笠木他
  6
CONTINUOUS
 62
    7
 10
1021.4999999999992
 20
554.31801541944026
 40
47.587861158723435
 50
233.20939984297195
 51
306.79060015702805
  0
TEXT
  8
_0-a_文字
 62
    7
 10
1107.6911233742103
 20
881.20519303677906
 40
15.000000000000213
 41
0.9999999999999796
 50
0
  1
ディッピングドレイン 縦型
  0
LINE
  8
_0-d_断熱__ハッチ
  6
CONTINUOUS
 62
    4
 10
1455.6126576254983
 20
703.7051930367744
 11
1463.5176999999958
 21
695.80015066227645
  0
LINE
  8
_0-d_断熱__ハッチ
  6
CONTINUOUS
 62
    4
 10
1427.3283863780384
 20
703.70519303677668
 11
1462.3283863780396
 21
668.70519303677554
  0
LINE
  8
_0-d_断熱__ハッチ
  6
CONTINUOUS
 62
    4
 10
1399.0441151305736
 20
703.7051930367744
 11
1434.044115130572
 21
668.70519303677668
  0
LINE
  8
_0-d_断熱__ハッチ
  6
CONTINUOUS
 62
    4
 10
1370.7598438831137
 20
703.70519303677668
 11
1405.7598438831158
 21
668.7051930367744
  0
LINE
  8
_0-d_断熱__ハッチ
  6
CONTINUOUS
 62
    4
 10
1342.4755726356493
 20
703.7051930367744
 11
1377.4755726356466
 21
668.70519303677668
  0
LINE
  8
_0-d_断熱__ハッチ
  6
CONTINUOUS
 62
    4
 10
1314.1913013881892
 20
703.70519303677668
 11
1347.5913013904492
 21
670.3051930345174
  0
LINE
  8
_0-d_断熱__ハッチ
  6
CONTINUOUS
 62
    4
 10
1285.9070301407248
 20
703.7051930367744
 11
1319.3070301429796
 21
670.30519303451968
  0
LINE
  8
_0-d_断熱__ハッチ
  6
CONTINUOUS
 62
    4
 10
1257.622758893265
 20
703.70519303677668
 11
1291.0227588955252
 21
670.3051930345174
  0
LINE
  8
_0-d_断熱__ハッチ
  6
CONTINUOUS
 62
    4
 10
1229.3384876458003
 20
703.7051930367744
 11
1262.7384876480555
 21
670.30519303451968
  0
LINE
  8
_0-d_断熱__ハッチ
  6
CONTINUOUS
 62
    4
 10
1205.2085879719752
 20
699.55082146314282
 11
1234.4542164005986
 21
670.30519303451968
  0
LINE
  8
_0-d_断熱__ハッチ
  6
CONTINUOUS
 62
    4
 10
1187.2770785286116
 20
689.1980596590389
 11
1206.1699451531317
 21
670.30519303451968
  0
LINE
  8
_0-d_断熱__ハッチ
  6
CONTINUOUS
 62
    4
 10
1169.3455690852534
 20
678.84529785493953
 11
1177.8856739056746
 21
670.30519303451854
  0
LINE
  8
_0-d_断熱__ハッチ
  6
CONTINUOUS
 62
    4
 10
1182.789644056691
 20
670.3051930345174
 11
1216.1896440589503
 21
703.70519303677668
  0
LINE
  8
_0-d_断熱__ハッチ
  6
CONTINUOUS
 62
    4
 10
1211.0739153041607
 20
670.30519303452081
 11
1244.4739153064147
 21
703.7051930367744
  0
LINE
  8
_0-d_断熱__ハッチ
  6
CONTINUOUS
 62
    4
 10
1239.3581865516151
 20
670.3051930345174
 11
1272.758186553875
 21
703.70519303677668
  0
LINE
  8
_0-d_断熱__ハッチ
  6
CONTINUOUS
 62
    4
 10
1267.6424577990847
 20
670.30519303451968
 11
1301.0424578013394
 21
703.7051930367744
  0
LINE
  8
_0-d_断熱__ハッチ
  6
CONTINUOUS
 62
    4
 10
1295.9267290465391
 20
670.3051930345174
 11
1329.3267290487993
 21
703.70519303677668
  0
LINE
  8
_0-d_断熱__ハッチ
  6
CONTINUOUS
 62
    4
 10
1324.2110002940085
 20
670.30519303451968
 11
1357.6110002962637
 21
703.7051930367744
  0
LINE
  8
_0-d_断熱__ハッチ
  6
CONTINUOUS
 62
    4
 10
1350.8952715437206
 20
668.7051930367744
 11
1385.8952715437235
 21
703.70519303677668
  0
LINE
  8
_0-d_断熱__ハッチ
  6
CONTINUOUS
 62
    4
 10
1379.1795427911902
 20
668.70519303677668
 11
1414.1795427911882
 21
703.7051930367744
  0
LINE
  8
_0-d_断熱__ハッチ
  6
CONTINUOUS
 62
    4
 10
1407.463814038646
 20
668.70519303677554
 11
1442.463814038648
 21
703.70519303677781
  0
LINE
  8
_0-d_断熱__ハッチ
  6
CONTINUOUS
 62
    4
 10
1435.7480852861092
 20
668.70519303677668
 11
1463.5176999999996
 21
696.47480775066754
  0
LINE
  8
_0-a_文字
  6
CONTINUOUS
 62
    7
 10
1082.691123374211
 20
888.70519303677668
 11
1102.691123374211
 21
888.70519303677668
  0
LINE
  8
_0-a_文字
  6
CONTINUOUS
 62
    7
 10
1049.9991913557287
 20
832.08110578317985
 11
1082.691123374211
 21
888.70519303677668
  0
LINE
  8
_0-a_文字
  6
CONTINUOUS
 62
    7
 10
1311.6575199360684
 20
813.70519303677668
 11
1331.6575199360684
 21
813.70519303677668
  0
LINE
  8
_0-a_文字
  6
CONTINUOUS
 62
    7
 10
1293.4216806891595
 20
686.40279677207957
 11
1352.4859967113257
 21
788.70519303677668
  0
LINE
  8
_0-a_文字
  6
CONTINUOUS
 62
    7
 10
1229.1833108737087
 20
725.07419000220523
 11
1294.7882010640064
 21
838.70519303677668
  0
TEXT
  8
_0-a_文字
 62
    7
 10
1319.7882010640067
 20
831.20519303677668
 40
14.999999999999858
 41
1.0000000000000033
 50
0
  1
プルーフシーラー
  0
LINE
  8
_0-a_文字
  6
CONTINUOUS
 62
    7
 10
1294.7882010640064
 20
838.70519303677668
 11
1314.7882010640064
 21
838.70519303677668
  0
TEXT
  8
_0-a_文字
 62
    7
 10
1377.4859967113257
 20
731.20519303677679
 40
14.999999999999503
 41
1.0000000000000338
 50
0
  1
断熱材
  0
TEXT
  8
_0-a_文字
 62
    7
 10
1377.4859967113262
 20
756.20519303677679
 40
14.999999999999503
 41
1.00000000000003
 50
0
  1
ラジアルシートＬ６００
  0
LINE
  8
_0-a_文字
  6
CONTINUOUS
 62
    7
 10
1323.6184832518443
 20
738.70519303677668
 11
1372.4859967113257
 21
738.70519303677668
  0
TEXT
  8
_0-a_文字
 62
    7
 10
1377.4859967113257
 20
781.20519303677679
 40
14.999999999999503
 41
1.0000000000000329
 50
0
  1
塩ビシート機械的固定工法
  0
LINE
  8
_0-a_文字
  6
CONTINUOUS
 62
    7
 10
1338.052239981585
 20
763.70519303677668
 11
1372.4859967113257
 21
763.70519303677668
  0
LINE
  8
_0-a_文字
  6
CONTINUOUS
 62
    7
 10
1352.4859967113257
 20
788.70519303677668
 11
1372.4859967113257
 21
788.70519303677668
  0
ARC
  8
_0-1_線色１__水色__
  6
CONTINUOUS
 62
    4
 10
636.19914703160157
 20
705.24685968853362
 40
1.2083333333333177
 50
316.97107855802722
 51
43.028921441962964
  0
ARC
  8
_0-1_線色１__水色__
  6
CONTINUOUS
 62
    4
 10
637.67110717605556
 20
707.16352635636611
 40
1.2083333333333581
 50
307.52351319535018
 51
119.1543860521779
  0
LINE
  8
_0-2_線色２__白__
  6
CONTINUOUS
 62
    7
 10
887.80999966763352
 20
703.70544303677605
 11
637.08244999999943
 21
703.70544303677605
  0
LINE
  8
_0-2_線色２__白__
  6
CONTINUOUS
 62
    7
 10
889.14974562978864
 20
708.70544303677605
 11
637.08244999999943
 21
708.70544303677605
  0
ARC
  8
_0-1_線色１__水色__
  6
CONTINUOUS
 62
    4
 10
887.90433171352731
 20
707.16352637341231
 40
1.2083333333333581
 50
307.52351319535012
 51
232.47648679666085
  0
ARC
  8
_0-1_線色１__水色__
  6
CONTINUOUS
 62
    4
 10
645.03090789762973
 20
705.2468596891498
 40
1.2083333333333177
 50
127.52351319811918
 51
52.476486793893116
  0
ARC
  8
_0-1_線色１__水色__
  6
CONTINUOUS
 62
    4
 10
642.08698760894686
 20
705.24685968935671
 40
1.2083333333333177
 50
127.52351319811918
 51
52.476486793893116
  0
ARC
  8
_0-1_線色１__水色__
  6
CONTINUOUS
 62
    4
 10
643.55894775342358
 20
707.16352635595456
 40
1.2083333333333581
 50
307.52351319535012
 51
232.47648679666085
  0
ARC
  8
_0-1_線色１__水色__
  6
CONTINUOUS
 62
    4
 10
639.14306732026398
 20
705.24685968956135
 40
1.2083333333333177
 50
127.52351319811918
 51
52.476486793893116
  0
ARC
  8
_0-1_線色１__水色__
  6
CONTINUOUS
 62
    4
 10
640.61502746473843
 20
707.16352635616147
 40
1.2083333333333581
 50
307.52351319535012
 51
232.47648679666085
  0
ARC
  8
_0-1_線色１__水色__
  6
CONTINUOUS
 62
    4
 10
653.86266876365789
 20
705.24685968976598
 40
1.2083333333333177
 50
127.52351319811918
 51
52.476486793893116
  0
ARC
  8
_0-1_線色１__水色__
  6
CONTINUOUS
 62
    4
 10
650.91874847497502
 20
705.24685968997289
 40
1.2083333333333177
 50
127.52351319811918
 51
52.476486793893116
  0
ARC
  8
_0-1_線色１__水色__
  6
CONTINUOUS
 62
    4
 10
652.39070861945174
 20
707.16352635657074
 40
1.2083333333333581
 50
307.52351319535012
 51
232.47648679666085
  0
ARC
  8
_0-1_線色１__水色__
  6
CONTINUOUS
 62
    4
 10
647.97482818629214
 20
705.24685969017753
 40
1.2083333333333177
 50
127.52351319811918
 51
52.476486793893116
  0
ARC
  8
_0-1_線色１__水色__
  6
CONTINUOUS
 62
    4
 10
649.44678833076659
 20
707.16352635677765
 40
1.2083333333333581
 50
307.52351319535012
 51
232.47648679666085
  0
ARC
  8
_0-1_線色１__水色__
  6
CONTINUOUS
 62
    4
 10
646.50286804208372
 20
707.16352635698229
 40
1.2083333333333581
 50
307.52351319535012
 51
232.47648679666085
  0
ARC
  8
_0-1_線色１__水色__
  6
CONTINUOUS
 62
    4
 10
662.69442962968606
 20
705.24685969038217
 40
1.2083333333333177
 50
127.52351319811918
 51
52.476486793893116
  0
ARC
  8
_0-1_線色１__水色__
  6
CONTINUOUS
 62
    4
 10
659.75050934100318
 20
705.24685969058908
 40
1.2083333333333177
 50
127.52351319811918
 51
52.476486793893116
  0
ARC
  8
_0-1_線色１__水色__
  6
CONTINUOUS
 62
    4
 10
661.22246948547991
 20
707.16352635718692
 40
1.2083333333333581
 50
307.52351319535012
 51
232.47648679666085
  0
ARC
  8
_0-1_線色１__水色__
  6
CONTINUOUS
 62
    4
 10
656.80658905232031
 20
705.24685969079371
 40
1.2083333333333177
 50
127.52351319811918
 51
52.476486793893116
  0
ARC
  8
_0-1_線色１__水色__
  6
CONTINUOUS
 62
    4
 10
658.27854919679476
 20
707.16352635739383
 40
1.2083333333333581
 50
307.52351319535012
 51
232.47648679666085
  0
ARC
  8
_0-1_線色１__水色__
  6
CONTINUOUS
 62
    4
 10
655.33462890811188
 20
707.16352635759847
 40
1.2083333333333581
 50
307.52351319535012
 51
232.47648679666085
  0
ARC
  8
_0-1_線色１__水色__
  6
CONTINUOUS
 62
    4
 10
671.52619049571422
 20
705.24685969099835
 40
1.2083333333333177
 50
127.52351319811918
 51
52.476486793893116
  0
ARC
  8
_0-1_線色１__水色__
  6
CONTINUOUS
 62
    4
 10
668.58227020703134
 20
705.24685969120526
 40
1.2083333333333177
 50
127.52351319811918
 51
52.476486793893116
  0
ARC
  8
_0-1_線色１__水色__
  6
CONTINUOUS
 62
    4
 10
670.05423035150807
 20
707.16352635780311
 40
1.2083333333333581
 50
307.52351319535012
 51
232.47648679666085
  0
ARC
  8
_0-1_線色１__水色__
  6
CONTINUOUS
 62
    4
 10
665.63834991834847
 20
705.2468596914099
 40
1.2083333333333177
 50
127.52351319811918
 51
52.476486793893116
  0
ARC
  8
_0-1_線色１__水色__
  6
CONTINUOUS
 62
    4
 10
667.11031006282292
 20
707.16352635801002
 40
1.2083333333333581
 50
307.52351319535012
 51
232.47648679666085
  0
ARC
  8
_0-1_線色１__水色__
  6
CONTINUOUS
 62
    4
 10
664.16638977414004
 20
707.16352635821465
 40
1.2083333333333581
 50
307.52351319535012
 51
232.47648679666085
  0
ARC
  8
_0-1_線色１__水色__
  6
CONTINUOUS
 62
    4
 10
680.35795136174238
 20
705.24685969161453
 40
1.2083333333333177
 50
127.52351319811918
 51
52.476486793893116
  0
ARC
  8
_0-1_線色１__水色__
  6
CONTINUOUS
 62
    4
 10
677.4140310730595
 20
705.24685969182144
 40
1.2083333333333177
 50
127.52351319811918
 51
52.476486793893116
  0
ARC
  8
_0-1_線色１__水色__
  6
CONTINUOUS
 62
    4
 10
678.88599121753623
 20
707.16352635841929
 40
1.2083333333333581
 50
307.52351319535012
 51
232.47648679666085
  0
ARC
  8
_0-1_線色１__水色__
  6
CONTINUOUS
 62
    4
 10
674.47011078437663
 20
705.24685969202608
 40
1.2083333333333177
 50
127.52351319811918
 51
52.476486793893116
  0
ARC
  8
_0-1_線色１__水色__
  6
CONTINUOUS
 62
    4
 10
675.94207092885108
 20
707.1635263586262
 40
1.2083333333333581
 50
307.52351319535012
 51
232.47648679666085
  0
ARC
  8
_0-1_線色１__水色__
  6
CONTINUOUS
 62
    4
 10
672.99815064016821
 20
707.16352635883084
 40
1.2083333333333581
 50
307.52351319535012
 51
232.47648679666085
  0
ARC
  8
_0-1_線色１__水色__
  6
CONTINUOUS
 62
    4
 10
689.18971222777054
 20
705.24685969223071
 40
1.2083333333333177
 50
127.52351319811918
 51
52.476486793893116
  0
ARC
  8
_0-1_線色１__水色__
  6
CONTINUOUS
 62
    4
 10
686.24579193908767
 20
705.24685969243762
 40
1.2083333333333177
 50
127.52351319811918
 51
52.476486793893116
  0
ARC
  8
_0-1_線色１__水色__
  6
CONTINUOUS
 62
    4
 10
687.71775208356439
 20
707.16352635903547
 40
1.2083333333333581
 50
307.52351319535012
 51
232.47648679666085
  0
ARC
  8
_0-1_線色１__水色__
  6
CONTINUOUS
 62
    4
 10
683.30187165040479
 20
705.24685969264226
 40
1.2083333333333177
 50
127.52351319811918
 51
52.476486793893116
  0
ARC
  8
_0-1_線色１__水色__
  6
CONTINUOUS
 62
    4
 10
684.77383179487924
 20
707.16352635924238
 40
1.2083333333333581
 50
307.52351319535012
 51
232.47648679666085
  0
ARC
  8
_0-1_線色１__水色__
  6
CONTINUOUS
 62
    4
 10
681.82991150619637
 20
707.16352635944702
 40
1.2083333333333581
 50
307.52351319535012
 51
232.47648679666085
  0
ARC
  8
_0-1_線色１__水色__
  6
CONTINUOUS
 62
    4
 10
698.0214730937987
 20
705.2468596928469
 40
1.2083333333333177
 50
127.52351319811918
 51
52.476486793893116
  0
ARC
  8
_0-1_線色１__水色__
  6
CONTINUOUS
 62
    4
 10
695.07755280511583
 20
705.24685969305381
 40
1.2083333333333177
 50
127.52351319811918
 51
52.476486793893116
  0
ARC
  8
_0-1_線色１__水色__
  6
CONTINUOUS
 62
    4
 10
696.54951294959255
 20
707.16352635965166
 40
1.2083333333333581
 50
307.52351319535012
 51
232.47648679666085
  0
ARC
  8
_0-1_線色１__水色__
  6
CONTINUOUS
 62
    4
 10
692.13363251643295
 20
705.24685969325844
 40
1.2083333333333177
 50
127.52351319811918
 51
52.476486793893116
  0
ARC
  8
_0-1_線色１__水色__
  6
CONTINUOUS
 62
    4
 10
693.6055926609074
 20
707.16352635985857
 40
1.2083333333333581
 50
307.52351319535012
 51
232.47648679666085
  0
ARC
  8
_0-1_線色１__水色__
  6
CONTINUOUS
 62
    4
 10
690.66167237222453
 20
707.1635263600632
 40
1.2083333333333581
 50
307.52351319535012
 51
232.47648679666085
  0
ARC
  8
_0-1_線色１__水色__
  6
CONTINUOUS
 62
    4
 10
706.85323395982687
 20
705.24685969346308
 40
1.2083333333333177
 50
127.52351319811918
 51
52.476486793893116
  0
ARC
  8
_0-1_線色１__水色__
  6
CONTINUOUS
 62
    4
 10
703.90931367114399
 20
705.24685969366999
 40
1.2083333333333177
 50
127.52351319811918
 51
52.476486793893116
  0
ARC
  8
_0-1_線色１__水色__
  6
CONTINUOUS
 62
    4
 10
705.38127381562072
 20
707.16352636026784
 40
1.2083333333333581
 50
307.52351319535012
 51
232.47648679666085
  0
ARC
  8
_0-1_線色１__水色__
  6
CONTINUOUS
 62
    4
 10
700.96539338246112
 20
705.24685969387463
 40
1.2083333333333177
 50
127.52351319811918
 51
52.476486793893116
  0
ARC
  8
_0-1_線色１__水色__
  6
CONTINUOUS
 62
    4
 10
702.43735352693557
 20
707.16352636047475
 40
1.2083333333333581
 50
307.52351319535012
 51
232.47648679666085
  0
ARC
  8
_0-1_線色１__水色__
  6
CONTINUOUS
 62
    4
 10
699.49343323825269
 20
707.16352636067938
 40
1.2083333333333581
 50
307.52351319535012
 51
232.47648679666085
  0
ARC
  8
_0-1_線色１__水色__
  6
CONTINUOUS
 62
    4
 10
715.68499482585503
 20
705.24685969407926
 40
1.2083333333333177
 50
127.52351319811918
 51
52.476486793893116
  0
ARC
  8
_0-1_線色１__水色__
  6
CONTINUOUS
 62
    4
 10
712.74107453717215
 20
705.24685969428617
 40
1.2083333333333177
 50
127.52351319811918
 51
52.476486793893116
  0
ARC
  8
_0-1_線色１__水色__
  6
CONTINUOUS
 62
    4
 10
714.21303468164888
 20
707.16352636088402
 40
1.2083333333333581
 50
307.52351319535012
 51
232.47648679666085
  0
ARC
  8
_0-1_線色１__水色__
  6
CONTINUOUS
 62
    4
 10
709.79715424848928
 20
705.24685969449081
 40
1.2083333333333177
 50
127.52351319811918
 51
52.476486793893116
  0
ARC
  8
_0-1_線色１__水色__
  6
CONTINUOUS
 62
    4
 10
711.26911439296373
 20
707.16352636109093
 40
1.2083333333333581
 50
307.52351319535012
 51
232.47648679666085
  0
ARC
  8
_0-1_線色１__水色__
  6
CONTINUOUS
 62
    4
 10
708.32519410428085
 20
707.16352636129557
 40
1.2083333333333581
 50
307.52351319535012
 51
232.47648679666085
  0
ARC
  8
_0-1_線色１__水色__
  6
CONTINUOUS
 62
    4
 10
724.51675569188319
 20
705.24685969469544
 40
1.2083333333333177
 50
127.52351319811918
 51
52.476486793893116
  0
ARC
  8
_0-1_線色１__水色__
  6
CONTINUOUS
 62
    4
 10
721.57283540320032
 20
705.24685969490235
 40
1.2083333333333177
 50
127.52351319811918
 51
52.476486793893116
  0
ARC
  8
_0-1_線色１__水色__
  6
CONTINUOUS
 62
    4
 10
723.04479554767704
 20
707.1635263615002
 40
1.2083333333333581
 50
307.52351319535012
 51
232.47648679666085
  0
ARC
  8
_0-1_線色１__水色__
  6
CONTINUOUS
 62
    4
 10
718.62891511451744
 20
705.24685969510699
 40
1.2083333333333177
 50
127.52351319811918
 51
52.476486793893116
  0
ARC
  8
_0-1_線色１__水色__
  6
CONTINUOUS
 62
    4
 10
720.10087525899189
 20
707.16352636170711
 40
1.2083333333333581
 50
307.52351319535012
 51
232.47648679666085
  0
ARC
  8
_0-1_線色１__水色__
  6
CONTINUOUS
 62
    4
 10
717.15695497030902
 20
707.16352636191175
 40
1.2083333333333581
 50
307.52351319535012
 51
232.47648679666085
  0
ARC
  8
_0-1_線色１__水色__
  6
CONTINUOUS
 62
    4
 10
733.34851655791135
 20
705.24685969531163
 40
1.2083333333333177
 50
127.52351319811918
 51
52.476486793893116
  0
ARC
  8
_0-1_線色１__水色__
  6
CONTINUOUS
 62
    4
 10
730.40459626922848
 20
705.24685969551854
 40
1.2083333333333177
 50
127.52351319811918
 51
52.476486793893116
  0
ARC
  8
_0-1_線色１__水色__
  6
CONTINUOUS
 62
    4
 10
731.8765564137052
 20
707.16352636211639
 40
1.2083333333333581
 50
307.52351319535012
 51
232.47648679666085
  0
ARC
  8
_0-1_線色１__水色__
  6
CONTINUOUS
 62
    4
 10
727.4606759805456
 20
705.24685969572317
 40
1.2083333333333177
 50
127.52351319811918
 51
52.476486793893116
  0
ARC
  8
_0-1_線色１__水色__
  6
CONTINUOUS
 62
    4
 10
728.93263612502005
 20
707.1635263623233
 40
1.2083333333333581
 50
307.52351319535012
 51
232.47648679666085
  0
ARC
  8
_0-1_線色１__水色__
  6
CONTINUOUS
 62
    4
 10
725.98871583633718
 20
707.16352636252793
 40
1.2083333333333581
 50
307.52351319535012
 51
232.47648679666085
  0
ARC
  8
_0-1_線色１__水色__
  6
CONTINUOUS
 62
    4
 10
742.18027742393951
 20
705.24685969592781
 40
1.2083333333333177
 50
127.52351319811918
 51
52.476486793893116
  0
ARC
  8
_0-1_線色１__水色__
  6
CONTINUOUS
 62
    4
 10
739.23635713525664
 20
705.24685969613472
 40
1.2083333333333177
 50
127.52351319811918
 51
52.476486793893116
  0
ARC
  8
_0-1_線色１__水色__
  6
CONTINUOUS
 62
    4
 10
740.70831727973336
 20
707.16352636273257
 40
1.2083333333333581
 50
307.52351319535012
 51
232.47648679666085
  0
ARC
  8
_0-1_線色１__水色__
  6
CONTINUOUS
 62
    4
 10
736.29243684657376
 20
705.24685969633936
 40
1.2083333333333177
 50
127.52351319811918
 51
52.476486793893116
  0
ARC
  8
_0-1_線色１__水色__
  6
CONTINUOUS
 62
    4
 10
737.76439699104822
 20
707.16352636293948
 40
1.2083333333333581
 50
307.52351319535012
 51
232.47648679666085
  0
ARC
  8
_0-1_線色１__水色__
  6
CONTINUOUS
 62
    4
 10
734.82047670236534
 20
707.16352636314411
 40
1.2083333333333581
 50
307.52351319535012
 51
232.47648679666085
  0
ARC
  8
_0-1_線色１__水色__
  6
CONTINUOUS
 62
    4
 10
751.01203828996768
 20
705.24685969654399
 40
1.2083333333333177
 50
127.52351319811918
 51
52.476486793893116
  0
ARC
  8
_0-1_線色１__水色__
  6
CONTINUOUS
 62
    4
 10
748.0681180012848
 20
705.2468596967509
 40
1.2083333333333177
 50
127.52351319811918
 51
52.476486793893116
  0
ARC
  8
_0-1_線色１__水色__
  6
CONTINUOUS
 62
    4
 10
749.54007814576153
 20
707.16352636334875
 40
1.2083333333333581
 50
307.52351319535012
 51
232.47648679666085
  0
ARC
  8
_0-1_線色１__水色__
  6
CONTINUOUS
 62
    4
 10
745.12419771260193
 20
705.24685969695554
 40
1.2083333333333177
 50
127.52351319811918
 51
52.476486793893116
  0
ARC
  8
_0-1_線色１__水色__
  6
CONTINUOUS
 62
    4
 10
746.59615785707638
 20
707.16352636355566
 40
1.2083333333333581
 50
307.52351319535012
 51
232.47648679666085
  0
ARC
  8
_0-1_線色１__水色__
  6
CONTINUOUS
 62
    4
 10
743.6522375683935
 20
707.1635263637603
 40
1.2083333333333581
 50
307.52351319535012
 51
232.47648679666085
  0
ARC
  8
_0-1_線色１__水色__
  6
CONTINUOUS
 62
    4
 10
759.84379915599584
 20
705.24685969716018
 40
1.2083333333333177
 50
127.52351319811918
 51
52.476486793893116
  0
ARC
  8
_0-1_線色１__水色__
  6
CONTINUOUS
 62
    4
 10
756.89987886731296
 20
705.24685969736709
 40
1.2083333333333177
 50
127.52351319811918
 51
52.476486793893116
  0
ARC
  8
_0-1_線色１__水色__
  6
CONTINUOUS
 62
    4
 10
758.37183901178969
 20
707.16352636396493
 40
1.2083333333333581
 50
307.52351319535012
 51
232.47648679666085
  0
ARC
  8
_0-1_線色１__水色__
  6
CONTINUOUS
 62
    4
 10
753.95595857863009
 20
705.24685969757172
 40
1.2083333333333177
 50
127.52351319811918
 51
52.476486793893116
  0
ARC
  8
_0-1_線色１__水色__
  6
CONTINUOUS
 62
    4
 10
755.42791872310454
 20
707.16352636417184
 40
1.2083333333333581
 50
307.52351319535012
 51
232.47648679666085
  0
ARC
  8
_0-1_線色１__水色__
  6
CONTINUOUS
 62
    4
 10
752.48399843442166
 20
707.16352636437648
 40
1.2083333333333581
 50
307.52351319535012
 51
232.47648679666085
  0
ARC
  8
_0-1_線色１__水色__
  6
CONTINUOUS
 62
    4
 10
768.675560022024
 20
705.24685969777636
 40
1.2083333333333177
 50
127.52351319811918
 51
52.476486793893116
  0
ARC
  8
_0-1_線色１__水色__
  6
CONTINUOUS
 62
    4
 10
765.73163973334113
 20
705.24685969798327
 40
1.2083333333333177
 50
127.52351319811918
 51
52.476486793893116
  0
ARC
  8
_0-1_線色１__水色__
  6
CONTINUOUS
 62
    4
 10
767.20359987781785
 20
707.16352636458112
 40
1.2083333333333581
 50
307.52351319535012
 51
232.47648679666085
  0
ARC
  8
_0-1_線色１__水色__
  6
CONTINUOUS
 62
    4
 10
762.78771944465825
 20
705.2468596981879
 40
1.2083333333333177
 50
127.52351319811918
 51
52.476486793893116
  0
ARC
  8
_0-1_線色１__水色__
  6
CONTINUOUS
 62
    4
 10
764.2596795891327
 20
707.16352636478803
 40
1.2083333333333581
 50
307.52351319535012
 51
232.47648679666085
  0
ARC
  8
_0-1_線色１__水色__
  6
CONTINUOUS
 62
    4
 10
761.31575930044983
 20
707.16352636499266
 40
1.2083333333333581
 50
307.52351319535012
 51
232.47648679666085
  0
ARC
  8
_0-1_線色１__水色__
  6
CONTINUOUS
 62
    4
 10
777.50732088805216
 20
705.24685969839254
 40
1.2083333333333177
 50
127.52351319811918
 51
52.476486793893116
  0
ARC
  8
_0-1_線色１__水色__
  6
CONTINUOUS
 62
    4
 10
774.56340059936929
 20
705.24685969859945
 40
1.2083333333333177
 50
127.52351319811918
 51
52.476486793893116
  0
ARC
  8
_0-1_線色１__水色__
  6
CONTINUOUS
 62
    4
 10
776.03536074384601
 20
707.1635263651973
 40
1.2083333333333581
 50
307.52351319535012
 51
232.47648679666085
  0
ARC
  8
_0-1_線色１__水色__
  6
CONTINUOUS
 62
    4
 10
771.61948031068641
 20
705.24685969880409
 40
1.2083333333333177
 50
127.52351319811918
 51
52.476486793893116
  0
ARC
  8
_0-1_線色１__水色__
  6
CONTINUOUS
 62
    4
 10
773.09144045516086
 20
707.16352636540421
 40
1.2083333333333581
 50
307.52351319535012
 51
232.47648679666085
  0
ARC
  8
_0-1_線色１__水色__
  6
CONTINUOUS
 62
    4
 10
770.14752016647799
 20
707.16352636560885
 40
1.2083333333333581
 50
307.52351319535012
 51
232.47648679666085
  0
ARC
  8
_0-1_線色１__水色__
  6
CONTINUOUS
 62
    4
 10
786.33908175408033
 20
705.24685969900872
 40
1.2083333333333177
 50
127.52351319811918
 51
52.476486793893116
  0
ARC
  8
_0-1_線色１__水色__
  6
CONTINUOUS
 62
    4
 10
783.39516146539745
 20
705.24685969921563
 40
1.2083333333333177
 50
127.52351319811918
 51
52.476486793893116
  0
ARC
  8
_0-1_線色１__水色__
  6
CONTINUOUS
 62
    4
 10
784.86712160987418
 20
707.16352636581348
 40
1.2083333333333581
 50
307.52351319535012
 51
232.47648679666085
  0
ARC
  8
_0-1_線色１__水色__
  6
CONTINUOUS
 62
    4
 10
780.45124117671457
 20
705.24685969942027
 40
1.2083333333333177
 50
127.52351319811918
 51
52.476486793893116
  0
ARC
  8
_0-1_線色１__水色__
  6
CONTINUOUS
 62
    4
 10
781.92320132118903
 20
707.16352636602039
 40
1.2083333333333581
 50
307.52351319535012
 51
232.47648679666085
  0
ARC
  8
_0-1_線色１__水色__
  6
CONTINUOUS
 62
    4
 10
778.97928103250615
 20
707.16352636622503
 40
1.2083333333333581
 50
307.52351319535012
 51
232.47648679666085
  0
ARC
  8
_0-1_線色１__水色__
  6
CONTINUOUS
 62
    4
 10
795.17084262010849
 20
705.24685969962491
 40
1.2083333333333177
 50
127.52351319811918
 51
52.476486793893116
  0
ARC
  8
_0-1_線色１__水色__
  6
CONTINUOUS
 62
    4
 10
792.22692233142561
 20
705.24685969983182
 40
1.2083333333333177
 50
127.52351319811918
 51
52.476486793893116
  0
ARC
  8
_0-1_線色１__水色__
  6
CONTINUOUS
 62
    4
 10
793.69888247590234
 20
707.16352636642966
 40
1.2083333333333581
 50
307.52351319535012
 51
232.47648679666085
  0
ARC
  8
_0-1_線色１__水色__
  6
CONTINUOUS
 62
    4
 10
789.28300204274274
 20
705.24685970003645
 40
1.2083333333333177
 50
127.52351319811918
 51
52.476486793893116
  0
ARC
  8
_0-1_線色１__水色__
  6
CONTINUOUS
 62
    4
 10
790.75496218721719
 20
707.16352636663657
 40
1.2083333333333581
 50
307.52351319535012
 51
232.47648679666085
  0
ARC
  8
_0-1_線色１__水色__
  6
CONTINUOUS
 62
    4
 10
787.81104189853431
 20
707.16352636684121
 40
1.2083333333333581
 50
307.52351319535012
 51
232.47648679666085
  0
ARC
  8
_0-1_線色１__水色__
  6
CONTINUOUS
 62
    4
 10
804.00260348613699
 20
705.24685970024109
 40
1.2083333333333177
 50
127.52351319811918
 51
52.476486793893116
  0
ARC
  8
_0-1_線色１__水色__
  6
CONTINUOUS
 62
    4
 10
801.05868319745412
 20
705.246859700448
 40
1.2083333333333177
 50
127.52351319811918
 51
52.476486793893116
  0
ARC
  8
_0-1_線色１__水色__
  6
CONTINUOUS
 62
    4
 10
802.53064334193084
 20
707.16352636704585
 40
1.2083333333333581
 50
307.52351319535012
 51
232.47648679666085
  0
ARC
  8
_0-1_線色１__水色__
  6
CONTINUOUS
 62
    4
 10
798.1147629087709
 20
705.24685970065264
 40
1.2083333333333177
 50
127.52351319811918
 51
52.476486793893116
  0
ARC
  8
_0-1_線色１__水色__
  6
CONTINUOUS
 62
    4
 10
799.58672305324535
 20
707.16352636725276
 40
1.2083333333333581
 50
307.52351319535012
 51
232.47648679666085
  0
ARC
  8
_0-1_線色１__水色__
  6
CONTINUOUS
 62
    4
 10
796.64280276456248
 20
707.16352636745739
 40
1.2083333333333581
 50
307.52351319535012
 51
232.47648679666085
  0
ARC
  8
_0-1_線色１__水色__
  6
CONTINUOUS
 62
    4
 10
812.83436435216515
 20
705.24685970085727
 40
1.2083333333333177
 50
127.52351319811918
 51
52.476486793893116
  0
ARC
  8
_0-1_線色１__水色__
  6
CONTINUOUS
 62
    4
 10
809.89044406348228
 20
705.24685970106418
 40
1.2083333333333177
 50
127.52351319811918
 51
52.476486793893116
  0
ARC
  8
_0-1_線色１__水色__
  6
CONTINUOUS
 62
    4
 10
811.362404207959
 20
707.16352636766203
 40
1.2083333333333581
 50
307.52351319535012
 51
232.47648679666085
  0
ARC
  8
_0-1_線色１__水色__
  6
CONTINUOUS
 62
    4
 10
806.9465237747994
 20
705.24685970126882
 40
1.2083333333333177
 50
127.52351319811918
 51
52.476486793893116
  0
ARC
  8
_0-1_線色１__水色__
  6
CONTINUOUS
 62
    4
 10
808.41848391927385
 20
707.16352636786894
 40
1.2083333333333581
 50
307.52351319535012
 51
232.47648679666085
  0
ARC
  8
_0-1_線色１__水色__
  6
CONTINUOUS
 62
    4
 10
805.47456363059098
 20
707.16352636807358
 40
1.2083333333333581
 50
307.52351319535012
 51
232.47648679666085
  0
ARC
  8
_0-1_線色１__水色__
  6
CONTINUOUS
 62
    4
 10
821.66612521819332
 20
705.24685970147345
 40
1.2083333333333177
 50
127.52351319811918
 51
52.476486793893116
  0
ARC
  8
_0-1_線色１__水色__
  6
CONTINUOUS
 62
    4
 10
818.72220492951044
 20
705.24685970168036
 40
1.2083333333333177
 50
127.52351319811918
 51
52.476486793893116
  0
ARC
  8
_0-1_線色１__水色__
  6
CONTINUOUS
 62
    4
 10
820.19416507398716
 20
707.16352636827821
 40
1.2083333333333581
 50
307.52351319535012
 51
232.47648679666085
  0
ARC
  8
_0-1_線色１__水色__
  6
CONTINUOUS
 62
    4
 10
815.77828464082756
 20
705.246859701885
 40
1.2083333333333177
 50
127.52351319811918
 51
52.476486793893116
  0
ARC
  8
_0-1_線色１__水色__
  6
CONTINUOUS
 62
    4
 10
817.25024478530202
 20
707.16352636848512
 40
1.2083333333333581
 50
307.52351319535012
 51
232.47648679666085
  0
ARC
  8
_0-1_線色１__水色__
  6
CONTINUOUS
 62
    4
 10
814.30632449661914
 20
707.16352636868976
 40
1.2083333333333581
 50
307.52351319535012
 51
232.47648679666085
  0
ARC
  8
_0-1_線色１__水色__
  6
CONTINUOUS
 62
    4
 10
830.49788608422148
 20
705.24685970208964
 40
1.2083333333333177
 50
127.52351319811918
 51
52.476486793893116
  0
ARC
  8
_0-1_線色１__水色__
  6
CONTINUOUS
 62
    4
 10
827.5539657955386
 20
705.24685970229655
 40
1.2083333333333177
 50
127.52351319811918
 51
52.476486793893116
  0
ARC
  8
_0-1_線色１__水色__
  6
CONTINUOUS
 62
    4
 10
829.02592594001533
 20
707.1635263688944
 40
1.2083333333333581
 50
307.52351319535012
 51
232.47648679666085
  0
ARC
  8
_0-1_線色１__水色__
  6
CONTINUOUS
 62
    4
 10
824.61004550685573
 20
705.24685970250118
 40
1.2083333333333177
 50
127.52351319811918
 51
52.476486793893116
  0
ARC
  8
_0-1_線色１__水色__
  6
CONTINUOUS
 62
    4
 10
826.08200565133018
 20
707.16352636910131
 40
1.2083333333333581
 50
307.52351319535012
 51
232.47648679666085
  0
ARC
  8
_0-1_線色１__水色__
  6
CONTINUOUS
 62
    4
 10
823.1380853626473
 20
707.16352636930594
 40
1.2083333333333581
 50
307.52351319535012
 51
232.47648679666085
  0
ARC
  8
_0-1_線色１__水色__
  6
CONTINUOUS
 62
    4
 10
839.32964695024964
 20
705.24685970270582
 40
1.2083333333333177
 50
127.52351319811918
 51
52.476486793893116
  0
ARC
  8
_0-1_線色１__水色__
  6
CONTINUOUS
 62
    4
 10
836.38572666156676
 20
705.24685970291273
 40
1.2083333333333177
 50
127.52351319811918
 51
52.476486793893116
  0
ARC
  8
_0-1_線色１__水色__
  6
CONTINUOUS
 62
    4
 10
837.85768680604349
 20
707.16352636951058
 40
1.2083333333333581
 50
307.52351319535012
 51
232.47648679666085
  0
ARC
  8
_0-1_線色１__水色__
  6
CONTINUOUS
 62
    4
 10
833.44180637288389
 20
705.24685970311737
 40
1.2083333333333177
 50
127.52351319811918
 51
52.476486793893116
  0
ARC
  8
_0-1_線色１__水色__
  6
CONTINUOUS
 62
    4
 10
834.91376651735834
 20
707.16352636971749
 40
1.2083333333333581
 50
307.52351319535012
 51
232.47648679666085
  0
ARC
  8
_0-1_線色１__水色__
  6
CONTINUOUS
 62
    4
 10
831.96984622867546
 20
707.16352636992212
 40
1.2083333333333581
 50
307.52351319535012
 51
232.47648679666085
  0
ARC
  8
_0-1_線色１__水色__
  6
CONTINUOUS
 62
    4
 10
848.1614078162778
 20
705.246859703322
 40
1.2083333333333177
 50
127.52351319811918
 51
52.476486793893116
  0
ARC
  8
_0-1_線色１__水色__
  6
CONTINUOUS
 62
    4
 10
845.21748752759493
 20
705.24685970352891
 40
1.2083333333333177
 50
127.52351319811918
 51
52.476486793893116
  0
ARC
  8
_0-1_線色１__水色__
  6
CONTINUOUS
 62
    4
 10
846.68944767207165
 20
707.16352637012676
 40
1.2083333333333581
 50
307.52351319535012
 51
232.47648679666085
  0
ARC
  8
_0-1_線色１__水色__
  6
CONTINUOUS
 62
    4
 10
842.27356723891205
 20
705.24685970373355
 40
1.2083333333333177
 50
127.52351319811918
 51
52.476486793893116
  0
ARC
  8
_0-1_線色１__水色__
  6
CONTINUOUS
 62
    4
 10
843.7455273833865
 20
707.16352637033367
 40
1.2083333333333581
 50
307.52351319535012
 51
232.47648679666085
  0
ARC
  8
_0-1_線色１__水色__
  6
CONTINUOUS
 62
    4
 10
840.80160709470363
 20
707.16352637053831
 40
1.2083333333333581
 50
307.52351319535012
 51
232.47648679666085
  0
ARC
  8
_0-1_線色１__水色__
  6
CONTINUOUS
 62
    4
 10
856.99316868230596
 20
705.24685970393818
 40
1.2083333333333177
 50
127.52351319811918
 51
52.476486793893116
  0
ARC
  8
_0-1_線色１__水色__
  6
CONTINUOUS
 62
    4
 10
854.04924839362309
 20
705.24685970414509
 40
1.2083333333333177
 50
127.52351319811918
 51
52.476486793893116
  0
ARC
  8
_0-1_線色１__水色__
  6
CONTINUOUS
 62
    4
 10
855.52120853809981
 20
707.16352637074294
 40
1.2083333333333581
 50
307.52351319535012
 51
232.47648679666085
  0
ARC
  8
_0-1_線色１__水色__
  6
CONTINUOUS
 62
    4
 10
851.10532810494021
 20
705.24685970434973
 40
1.2083333333333177
 50
127.52351319811918
 51
52.476486793893116
  0
ARC
  8
_0-1_線色１__水色__
  6
CONTINUOUS
 62
    4
 10
852.57728824941466
 20
707.16352637094985
 40
1.2083333333333581
 50
307.52351319535012
 51
232.47648679666085
  0
ARC
  8
_0-1_線色１__水色__
  6
CONTINUOUS
 62
    4
 10
849.63336796073179
 20
707.16352637115449
 40
1.2083333333333581
 50
307.52351319535012
 51
232.47648679666085
  0
ARC
  8
_0-1_線色１__水色__
  6
CONTINUOUS
 62
    4
 10
865.82492954833413
 20
705.24685970455437
 40
1.2083333333333177
 50
127.52351319811918
 51
52.476486793893116
  0
ARC
  8
_0-1_線色１__水色__
  6
CONTINUOUS
 62
    4
 10
862.88100925965125
 20
705.24685970476128
 40
1.2083333333333177
 50
127.52351319811918
 51
52.476486793893116
  0
ARC
  8
_0-1_線色１__水色__
  6
CONTINUOUS
 62
    4
 10
864.35296940412798
 20
707.16352637135913
 40
1.2083333333333581
 50
307.52351319535012
 51
232.47648679666085
  0
ARC
  8
_0-1_線色１__水色__
  6
CONTINUOUS
 62
    4
 10
859.93708897096838
 20
705.24685970496591
 40
1.2083333333333177
 50
127.52351319811918
 51
52.476486793893116
  0
ARC
  8
_0-1_線色１__水色__
  6
CONTINUOUS
 62
    4
 10
861.40904911544283
 20
707.16352637156604
 40
1.2083333333333581
 50
307.52351319535012
 51
232.47648679666085
  0
ARC
  8
_0-1_線色１__水色__
  6
CONTINUOUS
 62
    4
 10
858.46512882675995
 20
707.16352637177067
 40
1.2083333333333581
 50
307.52351319535012
 51
232.47648679666085
  0
ARC
  8
_0-1_線色１__水色__
  6
CONTINUOUS
 62
    4
 10
874.65669041436229
 20
705.24685970517055
 40
1.2083333333333177
 50
127.52351319811918
 51
52.476486793893116
  0
ARC
  8
_0-1_線色１__水色__
  6
CONTINUOUS
 62
    4
 10
871.71277012567941
 20
705.24685970537746
 40
1.2083333333333177
 50
127.52351319811918
 51
52.476486793893116
  0
ARC
  8
_0-1_線色１__水色__
  6
CONTINUOUS
 62
    4
 10
873.18473027015614
 20
707.16352637197531
 40
1.2083333333333581
 50
307.52351319535012
 51
232.47648679666085
  0
ARC
  8
_0-1_線色１__水色__
  6
CONTINUOUS
 62
    4
 10
868.76884983699654
 20
705.2468597055821
 40
1.2083333333333177
 50
127.52351319811918
 51
52.476486793893116
  0
ARC
  8
_0-1_線色１__水色__
  6
CONTINUOUS
 62
    4
 10
870.24080998147099
 20
707.16352637218222
 40
1.2083333333333581
 50
307.52351319535012
 51
232.47648679666085
  0
ARC
  8
_0-1_線色１__水色__
  6
CONTINUOUS
 62
    4
 10
867.29688969278811
 20
707.16352637238685
 40
1.2083333333333581
 50
307.52351319535012
 51
232.47648679666085
  0
ARC
  8
_0-1_線色１__水色__
  6
CONTINUOUS
 62
    4
 10
883.48845128039045
 20
705.24685970578673
 40
1.2083333333333177
 50
127.52351319811918
 51
52.476486793893116
  0
ARC
  8
_0-1_線色１__水色__
  6
CONTINUOUS
 62
    4
 10
880.54453099170757
 20
705.24685970599364
 40
1.2083333333333177
 50
127.52351319811918
 51
52.476486793893116
  0
ARC
  8
_0-1_線色１__水色__
  6
CONTINUOUS
 62
    4
 10
882.0164911361843
 20
707.16352637259149
 40
1.2083333333333581
 50
307.52351319535012
 51
232.47648679666085
  0
ARC
  8
_0-1_線色１__水色__
  6
CONTINUOUS
 62
    4
 10
877.6006107030247
 20
705.24685970619828
 40
1.2083333333333177
 50
127.52351319811918
 51
52.476486793893116
  0
ARC
  8
_0-1_線色１__水色__
  6
CONTINUOUS
 62
    4
 10
879.07257084749915
 20
707.1635263727984
 40
1.2083333333333581
 50
307.52351319535012
 51
232.47648679666085
  0
ARC
  8
_0-1_線色１__水色__
  6
CONTINUOUS
 62
    4
 10
876.12865055881628
 20
707.16352637300304
 40
1.2083333333333581
 50
307.52351319535012
 51
232.47648679666085
  0
ARC
  8
_0-1_線色１__水色__
  6
CONTINUOUS
 62
    4
 10
886.43237156905059
 20
705.24685970681219
 40
1.2083333333333177
 50
127.52351319811918
 51
52.476486793893116
  0
ARC
  8
_0-1_線色１__水色__
  6
CONTINUOUS
 62
    4
 10
884.96041142484444
 20
707.16352637361922
 40
1.2083333333333581
 50
307.52351319535012
 51
232.47648679666085
  0
ARC
  8
_0-1_線色１__水色__
  6
CONTINUOUS
 62
    4
 10
891.18666455986477
 20
705.78845360277626
 40
1.2083333333333581
 50
277.28416657148108
 51
202.23714017279181
  0
ARC
  8
_0-1_線色１__水色__
  6
CONTINUOUS
 62
    4
 10
888.94973634794746
 20
704.87388815814768
 40
1.2083333333333179
 50
97.284166574250108
 51
22.23714017002402
  0
ARC
  8
_0-1_線色１__水色__
  6
CONTINUOUS
 62
    4
 10
896.27334172524706
 20
702.82325848623998
 40
1.2083333333333581
 50
277.28416657148108
 51
202.23714017279181
  0
ARC
  8
_0-1_線色１__水色__
  6
CONTINUOUS
 62
    4
 10
891.49307493063907
 20
703.39129059987897
 40
1.2083333333333179
 50
97.284166574250108
 51
22.23714017002402
  0
ARC
  8
_0-1_線色１__水色__
  6
CONTINUOUS
 62
    4
 10
893.73000314255569
 20
704.30585604450869
 40
1.2083333333333581
 50
277.28416657148108
 51
202.23714017279181
  0
ARC
  8
_0-1_線色１__水色__
  6
CONTINUOUS
 62
    4
 10
894.03641351332999
 20
701.9086930416114
 40
1.2083333333333179
 50
97.284166574250108
 51
22.23714017002402
  0
ARC
  8
_0-1_線色１__水色__
  6
CONTINUOUS
 62
    4
 10
901.36001889062959
 20
699.85806336970484
 40
1.2083333333333581
 50
277.28416657148108
 51
202.23714017279181
  0
ARC
  8
_0-1_線色１__水色__
  6
CONTINUOUS
 62
    4
 10
896.57975209602137
 20
700.42609548334269
 40
1.2083333333333179
 50
97.284166574250108
 51
22.23714017002402
  0
ARC
  8
_0-1_線色１__水色__
  6
CONTINUOUS
 62
    4
 10
898.81668030793799
 20
701.34066092797241
 40
1.2083333333333581
 50
277.28416657148108
 51
202.23714017279181
  0
ARC
  8
_0-1_線色１__水色__
  6
CONTINUOUS
 62
    4
 10
899.12309067871229
 20
698.94349792507512
 40
1.2083333333333179
 50
97.284166574250108
 51
22.23714017002402
  0
LINE
  8
_0-2_線色２__白__
  6
CONTINUOUS
 62
    7
 10
940.09305738137755
 20
673.51980559168908
 11
887.80999966763352
 21
703.70544303677605
  0
ARC
  8
_0-1_線色１__水色__
  6
CONTINUOUS
 62
    4
 10
1208.72389100592
 20
703.39267028284837
 40
1.2083333333333179
 50
157.76285982997595
 51
82.715833425749906
  0
ARC
  8
_0-1_線色１__水色__
  6
CONTINUOUS
 62
    4
 10
1206.4869627940027
 20
704.30723572747695
 40
1.2083333333333581
 50
337.76285982720822
 51
262.71583342851898
  0
ARC
  8
_0-1_線色１__水色__
  6
CONTINUOUS
 62
    4
 10
1206.1805524232284
 20
701.91007272457966
 40
1.2083333333333179
 50
157.76285982997595
 51
82.715833425749906
  0
ARC
  8
_0-1_線色１__水色__
  6
CONTINUOUS
 62
    4
 10
1203.9436242113111
 20
702.82463816920938
 40
1.2083333333333581
 50
337.76285982720822
 51
262.71583342851898
  0
ARC
  8
_0-1_線色１__水色__
  6
CONTINUOUS
 62
    4
 10
1203.6372138405368
 20
700.42747516631209
 40
1.2083333333333179
 50
157.76285982997595
 51
82.715833425749906
  0
ARC
  8
_0-1_線色１__水色__
  6
CONTINUOUS
 62
    4
 10
1201.4002856286197
 20
701.34204061094181
 40
1.2083333333333581
 50
337.76285982720822
 51
262.71583342851898
  0
LINE
  8
_0-2_線色２__白__
  6
CONTINUOUS
 62
    7
 10
1211.0644246488737
 20
708.70519303677668
 11
1463.5176999999981
 21
708.70519303677668
  0
LINE
  8
_0-2_線色２__白__
  6
CONTINUOUS
 62
    7
 10
1212.404170611029
 20
703.70519303677668
 11
1463.5176999999981
 21
703.70519303677668
  0
LINE
  8
_0-2_線色２__白__
  6
CONTINUOUS
 62
    7
 10
1159.9004906492514
 20
673.39217927739753
 11
1212.404170611029
 21
703.70519303677668
  0
LINE
  8
_0-9_他
  6
CENTER1
 62
    9
 10
1049.9999999999995
 20
667.89005664778699
 11
1049.9999999999995
 21
846.01371281646664
  0
LINE
  8
_0-8_笠木他
  6
CONTINUOUS
 62
    4
 10
1154.4720000000002
 20
632.67179303451996
 11
1154.4720000000002
 21
664.40519303451936
  0
LINE
  8
_0-8_笠木他
  6
CONTINUOUS
 62
    4
 10
1152.9939999999992
 20
630.11699303451962
 11
1154.4720000000002
 21
632.67179303451996
  0
LINE
  8
_0-8_笠木他
  6
CONTINUOUS
 62
    4
 10
1151.5179999999991
 20
632.67179303451996
 11
1151.5179999999991
 21
664.40519303451936
  0
LINE
  8
_0-8_笠木他
  6
CONTINUOUS
 62
    4
 10
1152.9939999999992
 20
630.11699303451962
 11
1151.5179999999991
 21
632.67179303451996
  0
LINE
  8
_0-8_笠木他
  6
CONTINUOUS
 62
    4
 10
1151.5179999999991
 20
651.18719303451996
 11
1154.4720000000002
 21
652.89119303451969
  0
LINE
  8
_0-8_笠木他
  6
CONTINUOUS
 62
    4
 10
1151.5179999999991
 20
653.45919303451922
 11
1154.4720000000002
 21
655.16519303451958
  0
LINE
  8
_0-8_笠木他
  6
CONTINUOUS
 62
    4
 10
1151.5179999999991
 20
655.73119303451961
 11
1154.4720000000002
 21
657.43319303451983
  0
LINE
  8
_0-8_笠木他
  6
CONTINUOUS
 62
    4
 10
1151.5179999999991
 20
658.00319303452
 11
1154.4720000000002
 21
659.70719303451972
  0
LINE
  8
_0-8_笠木他
  6
CONTINUOUS
 62
    4
 10
1151.5179999999991
 20
660.27719303451988
 11
1154.4720000000002
 21
661.98119303451961
  0
LINE
  8
_0-8_笠木他
  6
CONTINUOUS
 62
    4
 10
1151.5179999999991
 20
662.54919303451913
 11
1154.4720000000002
 21
664.25519303451949
  0
LINE
  8
_0-8_笠木他
  6
CONTINUOUS
 62
    4
 10
1151.5179999999991
 20
639.81919303452003
 11
1154.4720000000002
 21
641.52579303452001
  0
LINE
  8
_0-8_笠木他
  6
CONTINUOUS
 62
    4
 10
1151.5179999999991
 20
642.09359303452004
 11
1154.4720000000002
 21
643.79959303451926
  0
LINE
  8
_0-8_笠木他
  6
CONTINUOUS
 62
    4
 10
1151.5179999999991
 20
644.3673930345193
 11
1154.4720000000002
 21
646.06919303452003
  0
LINE
  8
_0-8_笠木他
  6
CONTINUOUS
 62
    4
 10
1151.5179999999991
 20
646.63839303451994
 11
1154.4720000000002
 21
648.34299303451928
  0
LINE
  8
_0-8_笠木他
  6
CONTINUOUS
 62
    4
 10
1151.5179999999991
 20
648.91279303451995
 11
1154.4720000000002
 21
650.6171930345198
  0
LINE
  8
_0-8_笠木他
  6
CONTINUOUS
 62
    4
 10
1151.5179999999991
 20
633.00259303451924
 11
1154.4720000000002
 21
634.70659303451896
  0
LINE
  8
_0-8_笠木他
  6
CONTINUOUS
 62
    4
 10
1151.5179999999991
 20
635.27159303451924
 11
1154.4720000000002
 21
636.97819303451922
  0
LINE
  8
_0-8_笠木他
  6
CONTINUOUS
 62
    4
 10
1151.5179999999991
 20
637.54539303451963
 11
1154.4720000000002
 21
639.25199303451961
  0
LINE
  8
_0-a_文字
  6
CONTINUOUS
 62
    7
 10
1227.1135817934814
 20
618.70519203677134
 11
1241.5471936083011
 21
593.70544303677605
  0
LINE
  8
_0-a_文字
  6
CONTINUOUS
 62
    7
 10
1241.5471936083011
 20
593.70544303677605
 11
1261.5471936083011
 21
593.70544303677605
  0
ARC
  8
_0-1_線色１__水色__
  6
CONTINUOUS
 62
    4
 10
939.81650800185344
 20
675.22193699243132
 40
1.2083333333333179
 50
97.284166574250108
 51
281.91681413658057
  0
ARC
  8
_0-1_線色１__水色__
  6
CONTINUOUS
 62
    4
 10
939.51009763107913
 20
677.61909999532861
 40
1.2083333333333581
 50
357.55441065725131
 51
202.23714017279181
  0
ARC
  8
_0-1_線色１__水色__
  6
CONTINUOUS
 62
    4
 10
939.51009763107913
 20
677.61909999532861
 40
1.2083333333333581
 50
277.28416657148108
 51
297.83922767077894
  0
ARC
  8
_0-1_線色１__水色__
  6
CONTINUOUS
 62
    4
 10
937.27316941915115
 20
676.70453455072618
 40
1.2083333333333179
 50
97.284166574250108
 51
22.23714017002402
  0
ARC
  8
_0-1_線色１__水色__
  6
CONTINUOUS
 62
    4
 10
932.18649225377567
 20
679.6697296673193
 40
1.2083333333333179
 50
97.284166574250108
 51
22.23714017002402
  0
ARC
  8
_0-1_線色１__水色__
  6
CONTINUOUS
 62
    4
 10
934.72983083647796
 20
678.18713210902445
 40
1.2083333333333179
 50
97.284166574250108
 51
22.23714017002402
  0
ARC
  8
_0-1_線色１__水色__
  6
CONTINUOUS
 62
    4
 10
936.96675904840595
 20
679.10169755362688
 40
1.2083333333333581
 50
277.28416657148108
 51
202.23714017279181
  0
ARC
  8
_0-1_線色１__水色__
  6
CONTINUOUS
 62
    4
 10
934.42342046570366
 20
680.58429511192173
 40
1.2083333333333581
 50
277.28416657148108
 51
202.23714017279181
  0
ARC
  8
_0-1_線色１__水色__
  6
CONTINUOUS
 62
    4
 10
929.64315367110225
 20
681.15232722561871
 40
1.2083333333333179
 50
97.284166574250108
 51
22.23714017002402
  0
ARC
  8
_0-1_線色１__水色__
  6
CONTINUOUS
 62
    4
 10
901.66642926140389
 20
697.46090036680755
 40
1.2083333333333179
 50
97.284166574250108
 51
22.23714017002402
  0
ARC
  8
_0-1_線色１__水色__
  6
CONTINUOUS
 62
    4
 10
903.90335747332051
 20
698.37546581143727
 40
1.2083333333333581
 50
277.28416657148108
 51
202.23714017279181
  0
ARC
  8
_0-1_線色１__水色__
  6
CONTINUOUS
 62
    4
 10
904.20976784409481
 20
695.97830280853998
 40
1.2083333333333179
 50
97.284166574250108
 51
22.23714017002402
  0
ARC
  8
_0-1_線色１__水色__
  6
CONTINUOUS
 62
    4
 10
906.44669605601189
 20
696.89286825316969
 40
1.2083333333333581
 50
277.28416657148108
 51
202.23714017279181
  0
ARC
  8
_0-1_線色１__水色__
  6
CONTINUOUS
 62
    4
 10
911.53337322141419
 20
693.92767313657998
 40
1.2083333333333581
 50
277.28416657148108
 51
202.23714017279181
  0
ARC
  8
_0-1_線色１__水色__
  6
CONTINUOUS
 62
    4
 10
906.75310642678619
 20
694.49570525027241
 40
1.2083333333333179
 50
97.284166574250108
 51
22.23714017002402
  0
ARC
  8
_0-1_線色１__水色__
  6
CONTINUOUS
 62
    4
 10
909.29644500948848
 20
693.01310769197755
 40
1.2083333333333179
 50
97.284166574250108
 51
22.23714017002402
  0
ARC
  8
_0-1_線色１__水色__
  6
CONTINUOUS
 62
    4
 10
908.99003463871418
 20
695.41027069487484
 40
1.2083333333333581
 50
277.28416657148108
 51
202.23714017279181
  0
ARC
  8
_0-1_線色１__水色__
  6
CONTINUOUS
 62
    4
 10
916.62005038681878
 20
690.96247801999027
 40
1.2083333333333581
 50
277.28416657148108
 51
202.23714017279181
  0
ARC
  8
_0-1_線色１__水色__
  6
CONTINUOUS
 62
    4
 10
911.8397835921885
 20
691.5305101336827
 40
1.2083333333333179
 50
97.284166574250108
 51
22.23714017002402
  0
ARC
  8
_0-1_線色１__水色__
  6
CONTINUOUS
 62
    4
 10
914.38312217489079
 20
690.04791257538784
 40
1.2083333333333179
 50
97.284166574250108
 51
22.23714017002402
  0
ARC
  8
_0-1_線色１__水色__
  6
CONTINUOUS
 62
    4
 10
914.07671180411648
 20
692.44507557828513
 40
1.2083333333333581
 50
277.28416657148108
 51
202.23714017279181
  0
ARC
  8
_0-1_線色１__水色__
  6
CONTINUOUS
 62
    4
 10
921.70672755222336
 20
687.99728290340056
 40
1.2083333333333581
 50
277.28416657148108
 51
202.23714017279181
  0
ARC
  8
_0-1_線色１__水色__
  6
CONTINUOUS
 62
    4
 10
916.92646075759308
 20
688.56531501709298
 40
1.2083333333333179
 50
97.284166574250108
 51
22.23714017002402
  0
ARC
  8
_0-1_線色１__水色__
  6
CONTINUOUS
 62
    4
 10
919.46979934029537
 20
687.08271745879813
 40
1.2083333333333179
 50
97.284166574250108
 51
22.23714017002402
  0
ARC
  8
_0-1_線色１__水色__
  6
CONTINUOUS
 62
    4
 10
919.16338896952107
 20
689.47988046169542
 40
1.2083333333333581
 50
277.28416657148108
 51
202.23714017279181
  0
ARC
  8
_0-1_線色１__水色__
  6
CONTINUOUS
 62
    4
 10
926.79340471762566
 20
685.03208778681085
 40
1.2083333333333581
 50
277.28416657148108
 51
202.23714017279181
  0
ARC
  8
_0-1_線色１__水色__
  6
CONTINUOUS
 62
    4
 10
922.01313792299766
 20
685.60011990050327
 40
1.2083333333333179
 50
97.284166574250108
 51
22.23714017002402
  0
ARC
  8
_0-1_線色１__水色__
  6
CONTINUOUS
 62
    4
 10
924.55647650569995
 20
684.11752234220842
 40
1.2083333333333179
 50
97.284166574250108
 51
22.23714017002402
  0
ARC
  8
_0-1_線色１__水色__
  6
CONTINUOUS
 62
    4
 10
924.25006613492337
 20
686.5146853451057
 40
1.2083333333333581
 50
277.28416657148108
 51
202.23714017279181
  0
ARC
  8
_0-1_線色１__水色__
  6
CONTINUOUS
 62
    4
 10
931.88008188303024
 20
682.06689267022114
 40
1.2083333333333581
 50
277.28416657148108
 51
202.23714017279181
  0
ARC
  8
_0-1_線色１__水色__
  6
CONTINUOUS
 62
    4
 10
927.09981508839996
 20
682.63492478391356
 40
1.2083333333333179
 50
97.284166574250108
 51
22.23714017002402
  0
ARC
  8
_0-1_線色１__水色__
  6
CONTINUOUS
 62
    4
 10
929.33674330032795
 20
683.54949022851599
 40
1.2083333333333581
 50
277.28416657148108
 51
202.23714017279181
  0
ARC
  8
_0-1_線色１__水色__
  6
CONTINUOUS
 62
    4
 10
1160.4004579346486
 20
675.22331667540755
 40
1.2083333333333179
 50
247.48889267266551
 51
82.715833425749906
  0
ARC
  8
_0-9_他
  6
CONTINUOUS
 62
    4
 10
971.10914799999989
 20
693.69404246323199
 40
5.125858
 50
277.84106700000001
 51
339.13405
  0
LINE
  8
_0-9_他
  6
CONTINUOUS
 62
    4
 10
974.9957999999998
 20
682.08171446323206
 11
954.9959999999993
 21
684.53771446323174
  0
ARC
  8
_0-9_他
  6
CONTINUOUS
 62
    4
 10
1049.9953060000003
 20
782.08971246323188
 40
47.492325999999998
 50
89.998234999999994
 51
119.79324199999999
  0
ARC
  8
_0-9_他
  6
CONTINUOUS
 62
    4
 10
1049.9967539999993
 20
782.08422246323209
 40
47.497818000000002
 50
60.208500000000008
 51
89.999983000000014
  0
LINE
  8
_0-9_他
  6
CONTINUOUS
 62
    4
 10
1026.3978000000002
 20
823.30371446323113
 11
974.9957999999998
 21
682.08171446323206
  0
LINE
  8
_0-9_他
  6
CONTINUOUS
 62
    4
 10
974.9957999999998
 20
682.08171446323206
 11
1124.998
 21
682.08171446323206
  0
LINE
  8
_0-9_他
  6
CONTINUOUS
 62
    4
 10
1124.998
 20
682.08171446323206
 11
1073.5959999999995
 21
823.30371446323113
  0
ARC
  8
_0-9_他
  6
CONTINUOUS
 62
    4
 10
1049.996595999999
 20
782.08721046323205
 40
49.995294000000001
 50
89.999802000000003
 51
120.853427
  0
ARC
  8
_0-9_他
  6
CONTINUOUS
 62
    4
 10
1049.997409999999
 20
782.08897046323216
 40
49.993535999999999
 50
59.145996999999994
 51
90.000733999999994
  0
LINE
  8
_0-9_他
  6
CONTINUOUS
 62
    4
 10
1075.636
 20
825.00771446323199
 11
1124.096
 21
691.86771446323121
  0
LINE
  8
_0-9_他
  6
CONTINUOUS
 62
    4
 10
1124.998
 20
682.08171446323206
 11
1144.998
 21
684.53771446323174
  0
LINE
  8
_0-9_他
  6
CONTINUOUS
 62
    4
 10
1144.998
 20
684.53771446323174
 11
1144.998
 21
686.55171446323209
  0
LINE
  8
_0-9_他
  6
CONTINUOUS
 62
    4
 10
1144.998
 20
686.55171446323209
 11
1128.1860000000001
 21
688.61571446323126
  0
ARC
  8
_0-9_他
  6
CONTINUOUS
 62
    4
 10
1128.8753779999997
 20
693.68222446323159
 40
5.1129300000000013
 50
200.779495
 51
262.240726
  0
LINE
  8
_0-9_他
  6
CONTINUOUS
 62
    4
 10
954.9959999999993
 20
686.55171446323209
 11
971.80839999999932
 21
688.61571446323126
  0
LINE
  8
_0-9_他
  6
CONTINUOUS
 62
    4
 10
975.89879999999937
 20
691.86771446323121
 11
1024.3568
 21
825.00771446323199
  0
LINE
  8
_0-9_他
  6
DASHED1
 62
    4
 10
983.49599999999953
 20
690.01971446323125
 11
987.0071999999999
 21
690.44971446323132
  0
LINE
  8
_0-9_他
  6
DASHED1
 62
    4
 10
983.49599999999953
 20
690.59171446323205
 11
983.49599999999953
 21
690.01971446323125
  0
LINE
  8
_0-9_他
  6
DASHED1
 62
    4
 10
976.49699999999996
 20
689.16171446323176
 11
976.49699999999996
 21
690.59171446323205
  0
LINE
  8
_0-9_他
  6
DASHED1
 62
    4
 10
976.49699999999996
 20
689.16171446323176
 11
971.80839999999932
 21
688.61571446323126
  0
LINE
  8
_0-9_他
  6
DASHED1
 62
    4
 10
988.22819999999922
 20
725.74771446323155
 11
986.99619999999925
 21
690.44971446323132
  0
LINE
  8
_0-9_他
  6
DASHED1
 62
    4
 10
988.70499999999936
 20
682.08171446323206
 11
990.16019999999969
 21
723.7437144632321
  0
LINE
  8
_0-9_他
  6
CONTINUOUS
 62
    4
 10
954.9959999999993
 20
684.53771446323174
 11
954.9959999999993
 21
686.55171446323209
  0
ARC
  8
_0-1_線色１__水色__
  6
CONTINUOUS
 62
    4
 10
1201.0938752578454
 20
698.94487760804452
 40
1.2083333333333179
 50
157.76285982997595
 51
82.715833425749906
  0
ARC
  8
_0-1_線色１__水色__
  6
CONTINUOUS
 62
    4
 10
1198.8569470459283
 20
699.8594430526731
 40
1.2083333333333581
 50
337.76285982720822
 51
262.71583342851898
  0
ARC
  8
_0-1_線色１__水色__
  6
CONTINUOUS
 62
    4
 10
1198.550536675154
 20
697.46228004977581
 40
1.2083333333333179
 50
157.76285982997595
 51
82.715833425749906
  0
ARC
  8
_0-1_線色１__水色__
  6
CONTINUOUS
 62
    4
 10
1196.3136084632367
 20
698.37684549440553
 40
1.2083333333333581
 50
337.76285982720822
 51
262.71583342851898
  0
ARC
  8
_0-1_線色１__水色__
  6
CONTINUOUS
 62
    4
 10
1196.0071980924624
 20
695.97968249150824
 40
1.2083333333333179
 50
157.76285982997595
 51
82.715833425749906
  0
ARC
  8
_0-1_線色１__水色__
  6
CONTINUOUS
 62
    4
 10
1193.7702698805458
 20
696.89424793613796
 40
1.2083333333333581
 50
337.76285982720822
 51
262.71583342851898
  0
ARC
  8
_0-1_線色１__水色__
  6
CONTINUOUS
 62
    4
 10
1188.6835927151435
 20
693.92905281954825
 40
1.2083333333333581
 50
337.76285982720822
 51
262.71583342851898
  0
ARC
  8
_0-1_線色１__水色__
  6
CONTINUOUS
 62
    4
 10
1193.4638595097715
 20
694.49708493324067
 40
1.2083333333333179
 50
157.76285982997595
 51
82.715833425749906
  0
ARC
  8
_0-1_線色１__水色__
  6
CONTINUOUS
 62
    4
 10
1190.9205209270692
 20
693.01448737494582
 40
1.2083333333333179
 50
157.76285982997595
 51
82.715833425749906
  0
ARC
  8
_0-1_線色１__水色__
  6
CONTINUOUS
 62
    4
 10
1191.2269312978435
 20
695.4116503778431
 40
1.2083333333333581
 50
337.76285982720822
 51
262.71583342851898
  0
ARC
  8
_0-1_線色１__水色__
  6
CONTINUOUS
 62
    4
 10
1183.5969155497389
 20
690.96385770295853
 40
1.2083333333333581
 50
337.76285982720822
 51
262.71583342851898
  0
ARC
  8
_0-1_線色１__水色__
  6
CONTINUOUS
 62
    4
 10
1188.3771823443692
 20
691.53188981665096
 40
1.2083333333333179
 50
157.76285982997595
 51
82.715833425749906
  0
ARC
  8
_0-1_線色１__水色__
  6
CONTINUOUS
 62
    4
 10
1185.8338437616669
 20
690.0492922583561
 40
1.2083333333333179
 50
157.76285982997595
 51
82.715833425749906
  0
ARC
  8
_0-1_線色１__水色__
  6
CONTINUOUS
 62
    4
 10
1186.1402541324412
 20
692.44645526125339
 40
1.2083333333333581
 50
337.76285982720822
 51
262.71583342851898
  0
ARC
  8
_0-1_線色１__水色__
  6
CONTINUOUS
 62
    4
 10
1178.5102383843343
 20
687.99866258636882
 40
1.2083333333333581
 50
337.76285982720822
 51
262.71583342851898
  0
ARC
  8
_0-1_線色１__水色__
  6
CONTINUOUS
 62
    4
 10
1183.2905051789646
 20
688.56669470006125
 40
1.2083333333333179
 50
157.76285982997595
 51
82.715833425749906
  0
ARC
  8
_0-1_線色１__水色__
  6
CONTINUOUS
 62
    4
 10
1180.7471665962623
 20
687.08409714176639
 40
1.2083333333333179
 50
157.76285982997595
 51
82.715833425749906
  0
ARC
  8
_0-1_線色１__水色__
  6
CONTINUOUS
 62
    4
 10
1181.0535769670366
 20
689.48126014466368
 40
1.2083333333333581
 50
337.76285982720822
 51
262.71583342851898
  0
ARC
  8
_0-1_線色１__水色__
  6
CONTINUOUS
 62
    4
 10
1173.423561218932
 20
685.03346746977911
 40
1.2083333333333581
 50
337.76285982720822
 51
262.71583342851898
  0
ARC
  8
_0-1_線色１__水色__
  6
CONTINUOUS
 62
    4
 10
1178.20382801356
 20
685.60149958347154
 40
1.2083333333333179
 50
157.76285982997595
 51
82.715833425749906
  0
ARC
  8
_0-1_線色１__水色__
  6
CONTINUOUS
 62
    4
 10
1175.6604894308578
 20
684.11890202517668
 40
1.2083333333333179
 50
157.76285982997595
 51
82.715833425749906
  0
ARC
  8
_0-1_線色１__水色__
  6
CONTINUOUS
 62
    4
 10
1175.9668998016343
 20
686.51606502807397
 40
1.2083333333333581
 50
337.76285982720822
 51
262.71583342851898
  0
ARC
  8
_0-1_線色１__水色__
  6
CONTINUOUS
 62
    4
 10
1168.3368840535275
 20
682.0682723531894
 40
1.2083333333333581
 50
337.76285982720822
 51
262.71583342851898
  0
ARC
  8
_0-1_線色１__水色__
  6
CONTINUOUS
 62
    4
 10
1173.1171508481577
 20
682.63630446688182
 40
1.2083333333333179
 50
157.76285982997595
 51
82.715833425749906
  0
ARC
  8
_0-1_線色１__水色__
  6
CONTINUOUS
 62
    4
 10
1170.5738122654554
 20
681.15370690858697
 40
1.2083333333333179
 50
157.76285982997595
 51
82.715833425749906
  0
ARC
  8
_0-1_線色１__水色__
  6
CONTINUOUS
 62
    4
 10
1170.8802226362297
 20
683.55086991148426
 40
1.2083333333333581
 50
337.76285982720822
 51
262.71583342851898
  0
ARC
  8
_0-1_線色１__水色__
  6
CONTINUOUS
 62
    4
 10
1168.0304736827532
 20
679.67110935029211
 40
1.2083333333333179
 50
157.76285982997595
 51
82.715833425749906
  0
ARC
  8
_0-1_線色１__水色__
  6
CONTINUOUS
 62
    4
 10
1162.9437965173486
 20
676.7059142337024
 40
1.2083333333333179
 50
157.76285982997595
 51
82.715833425749906
  0
ARC
  8
_0-1_線色１__水色__
  6
CONTINUOUS
 62
    4
 10
1165.4871351000509
 20
678.18851179199726
 40
1.2083333333333179
 50
157.76285982997595
 51
82.715833425749906
  0
ARC
  8
_0-1_線色１__水色__
  6
CONTINUOUS
 62
    4
 10
1163.2502068881251
 20
679.10307723659969
 40
1.2083333333333581
 50
337.76285982720822
 51
262.71583342851898
  0
ARC
  8
_0-1_線色１__水色__
  6
CONTINUOUS
 62
    4
 10
1165.7935454708252
 20
680.58567479489454
 40
1.2083333333333581
 50
337.76285982720822
 51
262.71583342851898
  0
LINE
  8
_0-4_線色４__黄__
  6
CONTINUOUS
 62
    2
 10
943.8784668667796
 20
682.88130379009147
 11
967.44276150619442
 21
679.98500714446266
  0
LINE
  8
_0-4_線色４__黄__
  6
CONTINUOUS
 62
    2
 10
1156.2685267125885
 20
682.84226930467128
 11
1133.0525732251217
 21
680.02868635523612
  0
ARC
  8
_0-8_笠木他
  6
CONTINUOUS
 62
    3
 10
1157.9473519999992
 20
676.01605903452025
 40
2.056718
 50
8.2393704744888883
 51
88.363974071815662
  0
ARC
  8
_0-8_笠木他
  6
CONTINUOUS
 62
    3
 10
1158.1335880000001
 20
676.05256903452016
 40
1.8671960000000001
 50
1.6604121580210378
 51
7.9495804554603344
  0
LINE
  8
_0-8_笠木他
  6
CONTINUOUS
 62
    3
 10
1159.9999999999995
 20
675.29719303451941
 11
1159.9999999999995
 21
676.10667216450622
  0
LINE
  8
_0-8_笠木他
  6
CONTINUOUS
 62
    3
 10
1158.0060716260764
 20
678.0719386363063
 11
1122.9839999999995
 21
673.77119303451934
  0
LINE
  8
_0-5_金属
  6
CONTINUOUS
 62
    7
 10
637.08244999999943
 20
619.90564303677559
 11
660.96454999999901
 21
619.90564303677559
  0
LINE
  8
_0-5_金属
  6
CONTINUOUS
 62
    7
 10
637.08244999999943
 20
618.70544303677605
 11
660.93424999999934
 21
618.70544303677605
  0
LINE
  8
_0-5_金属
  6
CONTINUOUS
 62
    7
 10
1439.035699999999
 20
619.90564303677559
 11
1463.5176999999981
 21
619.90564303677559
  0
LINE
  8
_0-5_金属
  6
CONTINUOUS
 62
    7
 10
1439.0659499999988
 20
618.70544303677605
 11
1463.5176999999981
 21
618.70544303677605
  0
LINE
  8
ADD_LINE
  6
DOT
 62
    4
 10
749.99999999999909
 20
684.79899303677655
 11
749.99999999999909
 21
574.31828440017227
  0
LINE
  8
ADD_LINE
  6
DOT
 62
    4
 10
1349.9999999999995
 20
684.79899303677655
 11
1349.9999999999995
 21
574.31828440017227
  0
LINE
  8
ADD_LINE
  6
DOT
 62
    4
 10
1199.9996999999989
 20
650.41749303677591
 11
1199.9996999999989
 21
574.31828440017227
  0
LINE
  8
ADD_LINE
  6
DOT
 62
    4
 10
899.99969999999905
 20
650.41749303677591
 11
899.99969999999905
 21
574.31828440017227
  0
ARC
  8
_0-5_金属
  6
CONTINUOUS
 62
    7
 10
736.25409999999897
 20
665.705193036776
 40
1.7999992
 50
44.883395999999991
 51
90.000528000000003
  0
ARC
  8
_0-5_金属
  6
CONTINUOUS
 62
    7
 10
736.25429999999847
 20
665.705193036776
 40
3.0000000000000004
 50
44.884706999999999
 51
90.002222000000003
  0
ARC
  8
_0-5_金属
  6
CONTINUOUS
 62
    7
 10
763.74654999999871
 20
665.705193036776
 40
3.0000000000000004
 50
90.00194900000001
 51
135.11829000000003
  0
ARC
  8
_0-5_金属
  6
CONTINUOUS
 62
    7
 10
763.74654999999871
 20
665.705193036776
 40
1.7999992
 50
90.003315000000001
 51
135.11932999999999
  0
ARC
  8
_0-5_金属
  6
CONTINUOUS
 62
    7
 10
750.00044999999795
 20
658.70499303677605
 40
1.79999825
 50
224.88334
 51
315.42811999999998
  0
ARC
  8
_0-5_金属
  6
CONTINUOUS
 62
    7
 10
750.00044999999795
 20
658.70499303677605
 40
2.9999989999999999
 50
224.88334
 51
315.11671000000001
  0
ARC
  8
_0-5_金属
  6
CONTINUOUS
 62
    7
 10
887.9996999999986
 20
621.90564303677604
 40
3.1999998000000001
 50
270.00006999999994
 51
359.99997999999999
  0
ARC
  8
_0-5_金属
  6
CONTINUOUS
 62
    7
 10
887.9996999999986
 20
621.90564303677604
 40
1.9999990000000001
 50
270.00006999999994
 51
359.99997999999999
  0
ARC
  8
_0-5_金属
  6
CONTINUOUS
 62
    7
 10
887.39984999999876
 20
627.30554303677593
 40
1.9999504000000001
 50
89.999927
 51
259.48462000000001
  0
ARC
  8
_0-5_金属
  6
CONTINUOUS
 62
    7
 10
887.39984999999876
 20
627.30554303677593
 40
3.1999511500000004
 50
89.999927
 51
259.48473000000001
  0
ARC
  8
_0-5_金属
  6
CONTINUOUS
 62
    7
 10
887.9996999999986
 20
621.90564303677604
 40
1.9999990000000001
 50
359.99999000000003
 51
79.498920999999982
  0
ARC
  8
_0-5_金属
  6
CONTINUOUS
 62
    7
 10
887.9996999999986
 20
621.90564303677604
 40
3.1999998000000001
 50
359.99999000000003
 51
79.493674999999982
  0
ARC
  8
_0-5_金属
  6
CONTINUOUS
 62
    7
 10
810.96974999999873
 20
665.7054430367765
 40
3.0000000000000004
 50
35.949770999999998
 51
89.999654000000007
  0
ARC
  8
_0-5_金属
  6
CONTINUOUS
 62
    7
 10
810.96974999999873
 20
665.7054430367765
 40
1.7999992
 50
35.949661999999996
 51
89.999489999999994
  0
ARC
  8
_0-5_金属
  6
CONTINUOUS
 62
    7
 10
839.03564999999901
 20
621.70544303677673
 40
2.9999989999999999
 50
215.78405000000001
 51
270.00022999999999
  0
ARC
  8
_0-5_金属
  6
CONTINUOUS
 62
    7
 10
839.03564999999901
 20
621.70544303677673
 40
1.7999992
 50
215.78405000000001
 51
270.00022999999999
  0
ARC
  8
_0-5_金属
  6
CONTINUOUS
 62
    7
 10
818.99979999999857
 20
649.70544303677627
 40
1.9000091499999998
 50
94.580906999999996
 51
179.9999
  0
ARC
  8
_0-5_金属
  6
CONTINUOUS
 62
    7
 10
818.79984999999863
 20
654.70544303677627
 40
1.8999938500000002
 50
274.57776999999999
 51
359.99995999999999
  0
ARC
  8
_0-5_金属
  6
CONTINUOUS
 62
    7
 10
819.09984999999949
 20
649.70544303677627
 40
3.2000122000000002
 50
180.00009000000003
 51
215.78394000000003
  0
ARC
  8
_0-5_金属
  6
CONTINUOUS
 62
    7
 10
818.79984999999863
 20
654.70544303677627
 40
3.0999907999999996
 50
274.58181000000002
 51
359.99996000000004
  0
ARC
  8
_0-5_金属
  6
CONTINUOUS
 62
    7
 10
818.99979999999857
 20
649.70544303677627
 40
3.1000213500000005
 50
94.576591000000008
 51
179.99990000000003
  0
ARC
  8
_0-5_金属
  6
CONTINUOUS
 62
    7
 10
819.09984999999949
 20
649.70544303677627
 40
2.0000114
 50
180.00009000000003
 51
216.07594000000003
  0
ARC
  8
_0-5_金属
  6
CONTINUOUS
 62
    7
 10
818.69994999999847
 20
654.70544303677627
 40
1.9999961500000007
 50
0.000035
 51
35.949717000000007
  0
ARC
  8
_0-5_金属
  6
CONTINUOUS
 62
    7
 10
818.69994999999847
 20
654.70544303677627
 40
3.1999969500000001
 50
0.000035
 51
35.949935000000004
  0
ARC
  8
_0-5_金属
  6
CONTINUOUS
 62
    7
 10
689.03019999999879
 20
665.7054430367765
 40
3.0000000000000004
 50
90.000200000000021
 51
144.05016000000001
  0
ARC
  8
_0-5_金属
  6
CONTINUOUS
 62
    7
 10
689.03019999999879
 20
665.7054430367765
 40
1.7999992
 50
90.000364000000005
 51
144.05026999999998
  0
ARC
  8
_0-5_金属
  6
CONTINUOUS
 62
    7
 10
660.9642999999985
 20
621.7056930367761
 40
2.9999989999999999
 50
269.99990000000003
 51
324.21602000000001
  0
ARC
  8
_0-5_金属
  6
CONTINUOUS
 62
    7
 10
660.9642999999985
 20
621.7056930367761
 40
1.7999992
 50
269.99990000000003
 51
324.21602000000001
  0
ARC
  8
_0-5_金属
  6
CONTINUOUS
 62
    7
 10
680.99994999999831
 20
649.70544303677627
 40
1.9000091499999998
 50
359.99999000000003
 51
85.418945999999991
  0
ARC
  8
_0-5_金属
  6
CONTINUOUS
 62
    7
 10
681.20009999999888
 20
654.70544303677627
 40
1.8999938500000002
 50
180.00009000000003
 51
265.42237
  0
ARC
  8
_0-5_金属
  6
CONTINUOUS
 62
    7
 10
680.90009999999916
 20
649.70569303677564
 40
3.2000122000000002
 50
324.21614
 51
359.99997999999999
  0
ARC
  8
_0-5_金属
  6
CONTINUOUS
 62
    7
 10
681.20009999999888
 20
654.70544303677627
 40
3.0999907999999996
 50
180.00009000000003
 51
265.41831999999999
  0
ARC
  8
_0-5_金属
  6
CONTINUOUS
 62
    7
 10
680.99994999999831
 20
649.70544303677627
 40
3.1000213500000005
 50
359.99999000000003
 51
85.42326300000002
  0
ARC
  8
_0-5_金属
  6
CONTINUOUS
 62
    7
 10
680.90009999999916
 20
649.70569303677564
 40
2.0000114
 50
323.92412999999999
 51
359.99997999999999
  0
ARC
  8
_0-5_金属
  6
CONTINUOUS
 62
    7
 10
681.29999999999905
 20
654.70544303677627
 40
1.9999961500000007
 50
144.05027000000001
 51
179.99995999999999
  0
ARC
  8
_0-5_金属
  6
CONTINUOUS
 62
    7
 10
681.29999999999905
 20
654.70544303677627
 40
3.1999969500000001
 50
144.05005000000003
 51
179.99995999999999
  0
LINE
  8
_0-5_金属
  6
CONTINUOUS
 62
    7
 10
747.87474999999881
 20
656.58779303677591
 11
737.52939999999876
 21
666.97534303677628
  0
LINE
  8
_0-5_金属
  6
CONTINUOUS
 62
    7
 10
748.72509999999829
 20
657.43474303677601
 11
738.37979999999811
 21
667.82229303677639
  0
LINE
  8
_0-5_金属
  6
CONTINUOUS
 62
    7
 10
762.47104999999829
 20
666.97514303677565
 11
752.12609999999836
 21
656.58794303677666
  0
LINE
  8
_0-5_金属
  6
CONTINUOUS
 62
    7
 10
761.62084999999843
 20
667.82189303677626
 11
751.27584999999863
 21
657.43469303677614
  0
LINE
  8
_0-5_金属
  6
CONTINUOUS
 62
    7
 10
894.19989999999927
 20
630.50549303677656
 11
894.19989999999927
 21
629.30554303677638
  0
LINE
  8
_0-5_金属
  6
CONTINUOUS
 62
    7
 10
887.39984999999876
 20
629.30554303677638
 11
894.19989999999927
 21
629.30554303677638
  0
LINE
  8
_0-5_金属
  6
CONTINUOUS
 62
    7
 10
886.81574999999896
 20
624.15929303677615
 11
888.36404999999843
 21
623.87204303677606
  0
LINE
  8
_0-5_金属
  6
CONTINUOUS
 62
    7
 10
887.03469999999868
 20
625.33939303677641
 11
888.58299999999929
 21
625.05209303677645
  0
LINE
  8
_0-5_金属
  6
CONTINUOUS
 62
    7
 10
763.26419999999894
 20
667.50549303677587
 11
810.96979999999974
 21
667.50549303677587
  0
LINE
  8
_0-5_金属
  6
CONTINUOUS
 62
    7
 10
763.57484999999906
 20
668.70544303677605
 11
810.96979999999974
 21
668.70544303677605
  0
LINE
  8
_0-5_金属
  6
CONTINUOUS
 62
    7
 10
839.03569999999888
 20
619.90564303677559
 11
887.9996999999986
 21
619.90564303677559
  0
LINE
  8
_0-5_金属
  6
CONTINUOUS
 62
    7
 10
812.42679999999893
 20
666.76219303677669
 11
820.31894999999906
 21
655.87954303677577
  0
LINE
  8
_0-5_金属
  6
CONTINUOUS
 62
    7
 10
837.57529999999917
 20
620.65319303677654
 11
817.47739999999851
 21
648.5361930367759
  0
LINE
  8
_0-5_金属
  6
CONTINUOUS
 62
    7
 10
818.84809999999959
 20
651.59949303677593
 11
819.04744999999878
 21
651.61544303677658
  0
LINE
  8
_0-5_金属
  6
CONTINUOUS
 62
    7
 10
818.7524999999988
 20
652.79574303677634
 11
818.95154999999875
 21
652.81164303677599
  0
LINE
  8
_0-5_金属
  6
CONTINUOUS
 62
    7
 10
836.60189999999886
 20
619.95154303677566
 11
816.50394999999946
 21
647.83454303677615
  0
LINE
  8
_0-5_金属
  6
CONTINUOUS
 62
    7
 10
813.39819999999861
 20
667.46664303677619
 11
821.29034999999874
 21
656.58404303677628
  0
LINE
  8
_0-5_金属
  6
CONTINUOUS
 62
    7
 10
839.06594999999868
 20
618.70544303677605
 11
887.9996999999986
 21
618.70544303677605
  0
LINE
  8
_0-5_金属
  6
CONTINUOUS
 62
    7
 10
689.03044999999815
 20
667.50549303677587
 11
736.30719999999906
 21
667.50549303677587
  0
LINE
  8
_0-5_金属
  6
CONTINUOUS
 62
    7
 10
689.03044999999815
 20
668.70544303677605
 11
736.25894999999809
 21
668.70519303677668
  0
LINE
  8
_0-5_金属
  6
CONTINUOUS
 62
    7
 10
679.68094999999857
 20
655.87979303677628
 11
687.57294999999795
 21
666.76224303677657
  0
LINE
  8
_0-5_金属
  6
CONTINUOUS
 62
    7
 10
682.52239999999938
 20
648.53614303677602
 11
662.42449999999872
 21
620.65319303677654
  0
LINE
  8
_0-5_金属
  6
CONTINUOUS
 62
    7
 10
680.95254999999861
 20
651.61544303677658
 11
681.15209999999843
 21
651.59944303677605
  0
LINE
  8
_0-5_金属
  6
CONTINUOUS
 62
    7
 10
681.04864999999927
 20
652.81159303677612
 11
681.24749999999858
 21
652.79569303677647
  0
LINE
  8
_0-5_金属
  6
CONTINUOUS
 62
    7
 10
683.49599999999805
 20
647.83434303677666
 11
663.3981499999984
 21
619.95139303677604
  0
LINE
  8
_0-5_金属
  6
CONTINUOUS
 62
    7
 10
678.7095499999989
 20
656.58429303677565
 11
686.60169999999789
 21
667.46689303677556
  0
ARC
  8
_0-5_金属
  6
CONTINUOUS
 62
    7
 10
1336.2540999999992
 20
665.705193036776
 40
1.7999992
 50
44.883395999999991
 51
90.000528000000003
  0
ARC
  8
_0-5_金属
  6
CONTINUOUS
 62
    7
 10
1336.2542999999987
 20
665.705193036776
 40
3.0000000000000004
 50
44.884706999999999
 51
90.002222000000003
  0
ARC
  8
_0-5_金属
  6
CONTINUOUS
 62
    7
 10
1363.7465499999989
 20
665.705193036776
 40
3.0000000000000004
 50
90.00194900000001
 51
135.11829000000003
  0
ARC
  8
_0-5_金属
  6
CONTINUOUS
 62
    7
 10
1363.7465499999989
 20
665.705193036776
 40
1.7999992
 50
90.003315000000001
 51
135.11932999999999
  0
ARC
  8
_0-5_金属
  6
CONTINUOUS
 62
    7
 10
1350.0004499999982
 20
658.70499303677605
 40
1.79999825
 50
224.88334
 51
315.42811999999998
  0
ARC
  8
_0-5_金属
  6
CONTINUOUS
 62
    7
 10
1350.0004499999982
 20
658.70499303677605
 40
2.9999989999999999
 50
224.88334
 51
315.11671000000001
  0
ARC
  8
_0-5_金属
  6
CONTINUOUS
 62
    7
 10
887.40104999999915
 20
627.30554303677593
 40
4.4001951000000004
 50
180.00009000000003
 51
216.22041000000002
  0
ARC
  8
_0-5_金属
  6
CONTINUOUS
 62
    7
 10
887.40104999999915
 20
627.30554303677593
 40
3.2001952999999999
 50
180.00009000000003
 51
216.22260000000003
  0
ARC
  8
_0-5_金属
  6
CONTINUOUS
 62
    7
 10
886.2005999999991
 20
628.5054930367761
 40
1.9999990000000001
 50
89.999927
 51
179.99990000000003
  0
ARC
  8
_0-5_金属
  6
CONTINUOUS
 62
    7
 10
886.2005999999991
 20
628.5054930367761
 40
3.1999998000000001
 50
89.999927
 51
179.99990000000003
  0
ARC
  8
_0-5_金属
  6
CONTINUOUS
 62
    7
 10
913.80044999999939
 20
628.5054930367761
 40
3.1999998000000001
 50
303.11781999999999
 51
359.99995999999999
  0
ARC
  8
_0-5_金属
  6
CONTINUOUS
 62
    7
 10
913.80044999999939
 20
628.5054930367761
 40
1.9999990000000001
 50
303.11781999999999
 51
359.99995999999999
  0
ARC
  8
_0-5_金属
  6
CONTINUOUS
 62
    7
 10
913.20059999999955
 20
621.90564303677604
 40
2
 50
123.11782000000001
 51
269.99982999999997
  0
ARC
  8
_0-5_金属
  6
CONTINUOUS
 62
    7
 10
913.80044999999939
 20
628.5054930367761
 40
1.9999990000000001
 50
0.000035
 51
89.999927
  0
ARC
  8
_0-5_金属
  6
CONTINUOUS
 62
    7
 10
913.80044999999939
 20
628.5054930367761
 40
3.1999998000000001
 50
0.000035
 51
89.999927
  0
ARC
  8
_0-5_金属
  6
CONTINUOUS
 62
    7
 10
913.20059999999955
 20
621.90564303677604
 40
3.2000007500000005
 50
123.11782000000001
 51
269.99982999999997
  0
ARC
  8
_0-5_金属
  6
CONTINUOUS
 62
    7
 10
1410.9697499999988
 20
665.7054430367765
 40
3.0000000000000004
 50
35.949770999999998
 51
89.999654000000007
  0
ARC
  8
_0-5_金属
  6
CONTINUOUS
 62
    7
 10
1410.9697499999988
 20
665.7054430367765
 40
1.7999992
 50
35.949661999999996
 51
89.999489999999994
  0
ARC
  8
_0-5_金属
  6
CONTINUOUS
 62
    7
 10
1439.0356499999989
 20
621.70544303677673
 40
2.9999989999999999
 50
215.78405000000001
 51
270.00022999999999
  0
ARC
  8
_0-5_金属
  6
CONTINUOUS
 62
    7
 10
1439.0356499999989
 20
621.70544303677673
 40
1.7999992
 50
215.78405000000001
 51
270.00022999999999
  0
ARC
  8
_0-5_金属
  6
CONTINUOUS
 62
    7
 10
1418.9997999999987
 20
649.70544303677627
 40
1.9000091499999998
 50
94.580906999999996
 51
179.9999
  0
ARC
  8
_0-5_金属
  6
CONTINUOUS
 62
    7
 10
1418.7998499999985
 20
654.70544303677627
 40
1.8999938500000002
 50
274.57776999999999
 51
359.99995999999999
  0
ARC
  8
_0-5_金属
  6
CONTINUOUS
 62
    7
 10
1419.0998499999996
 20
649.70544303677627
 40
3.2000122000000002
 50
180.00009000000003
 51
215.78394000000003
  0
ARC
  8
_0-5_金属
  6
CONTINUOUS
 62
    7
 10
1418.7998499999985
 20
654.70544303677627
 40
3.0999907999999996
 50
274.58181000000002
 51
359.99996000000004
  0
ARC
  8
_0-5_金属
  6
CONTINUOUS
 62
    7
 10
1418.9997999999987
 20
649.70544303677627
 40
3.1000213500000005
 50
94.576591000000008
 51
179.99990000000003
  0
ARC
  8
_0-5_金属
  6
CONTINUOUS
 62
    7
 10
1419.0998499999996
 20
649.70544303677627
 40
2.0000114
 50
180.00009000000003
 51
216.07594000000003
  0
ARC
  8
_0-5_金属
  6
CONTINUOUS
 62
    7
 10
1418.6999499999984
 20
654.70544303677627
 40
1.9999961500000007
 50
0.000035
 51
35.949717000000007
  0
ARC
  8
_0-5_金属
  6
CONTINUOUS
 62
    7
 10
1418.6999499999984
 20
654.70544303677627
 40
3.1999969500000001
 50
0.000035
 51
35.949935000000004
  0
ARC
  8
_0-5_金属
  6
CONTINUOUS
 62
    7
 10
1186.2000999999991
 20
628.5054930367761
 40
3.1999998000000001
 50
180.00009000000003
 51
236.88223000000005
  0
ARC
  8
_0-5_金属
  6
CONTINUOUS
 62
    7
 10
1186.2000999999991
 20
628.5054930367761
 40
1.9999990000000001
 50
180.00009000000003
 51
236.88223000000005
  0
ARC
  8
_0-5_金属
  6
CONTINUOUS
 62
    7
 10
1186.7999999999988
 20
621.90564303677604
 40
2
 50
270.00011999999998
 51
56.882114999999992
  0
ARC
  8
_0-5_金属
  6
CONTINUOUS
 62
    7
 10
1186.2000999999991
 20
628.5054930367761
 40
1.9999990000000001
 50
89.999927
 51
179.99990000000003
  0
ARC
  8
_0-5_金属
  6
CONTINUOUS
 62
    7
 10
1186.2000999999991
 20
628.5054930367761
 40
3.1999998000000001
 50
89.999927
 51
179.99990000000003
  0
ARC
  8
_0-5_金属
  6
CONTINUOUS
 62
    7
 10
1186.7999999999988
 20
621.90564303677604
 40
3.2000007500000005
 50
270.00011999999998
 51
56.882114999999992
  0
ARC
  8
_0-5_金属
  6
CONTINUOUS
 62
    7
 10
1289.0301999999992
 20
665.7054430367765
 40
3.0000000000000004
 50
90.000200000000021
 51
144.05016000000001
  0
ARC
  8
_0-5_金属
  6
CONTINUOUS
 62
    7
 10
1289.0301999999992
 20
665.7054430367765
 40
1.7999992
 50
90.000364000000005
 51
144.05026999999998
  0
ARC
  8
_0-5_金属
  6
CONTINUOUS
 62
    7
 10
1260.9642999999987
 20
621.7056930367761
 40
2.9999989999999999
 50
269.99990000000003
 51
324.21602000000001
  0
ARC
  8
_0-5_金属
  6
CONTINUOUS
 62
    7
 10
1260.9642999999987
 20
621.7056930367761
 40
1.7999992
 50
269.99990000000003
 51
324.21602000000001
  0
ARC
  8
_0-5_金属
  6
CONTINUOUS
 62
    7
 10
1280.9999499999985
 20
649.70544303677627
 40
1.9000091499999998
 50
359.99999000000003
 51
85.418945999999991
  0
ARC
  8
_0-5_金属
  6
CONTINUOUS
 62
    7
 10
1281.2000999999991
 20
654.70544303677627
 40
1.8999938500000002
 50
180.00009000000003
 51
265.42237
  0
ARC
  8
_0-5_金属
  6
CONTINUOUS
 62
    7
 10
1280.9000999999994
 20
649.70569303677564
 40
3.2000122000000002
 50
324.21614
 51
359.99997999999999
  0
ARC
  8
_0-5_金属
  6
CONTINUOUS
 62
    7
 10
1281.2000999999991
 20
654.70544303677627
 40
3.0999907999999996
 50
180.00009000000003
 51
265.41831999999999
  0
ARC
  8
_0-5_金属
  6
CONTINUOUS
 62
    7
 10
1280.9999499999985
 20
649.70544303677627
 40
3.1000213500000005
 50
359.99999000000003
 51
85.42326300000002
  0
ARC
  8
_0-5_金属
  6
CONTINUOUS
 62
    7
 10
1280.9000999999994
 20
649.70569303677564
 40
2.0000114
 50
323.92412999999999
 51
359.99997999999999
  0
ARC
  8
_0-5_金属
  6
CONTINUOUS
 62
    7
 10
1281.2999999999993
 20
654.70544303677627
 40
1.9999961500000007
 50
144.05027000000001
 51
179.99995999999999
  0
ARC
  8
_0-5_金属
  6
CONTINUOUS
 62
    7
 10
1281.2999999999993
 20
654.70544303677627
 40
3.1999969500000001
 50
144.05005000000003
 51
179.99995999999999
  0
ARC
  8
_0-5_金属
  6
CONTINUOUS
 62
    7
 10
1213.7999999999993
 20
628.5054930367761
 40
3.1999998000000001
 50
303.11786999999998
 51
359.99997999999999
  0
ARC
  8
_0-5_金属
  6
CONTINUOUS
 62
    7
 10
1213.7999999999993
 20
628.5054930367761
 40
1.9999990000000001
 50
303.11786999999998
 51
359.99997999999999
  0
ARC
  8
_0-5_金属
  6
CONTINUOUS
 62
    7
 10
1213.2000999999996
 20
621.90564303677604
 40
2
 50
123.11782000000001
 51
269.99988999999999
  0
ARC
  8
_0-5_金属
  6
CONTINUOUS
 62
    7
 10
1213.7999999999993
 20
628.5054930367761
 40
1.9999990000000001
 50
359.99999000000003
 51
89.999927
  0
ARC
  8
_0-5_金属
  6
CONTINUOUS
 62
    7
 10
1213.7999999999993
 20
628.5054930367761
 40
3.1999998000000001
 50
359.99999000000003
 51
89.999927
  0
ARC
  8
_0-5_金属
  6
CONTINUOUS
 62
    7
 10
1213.2000999999996
 20
621.90564303677604
 40
3.2000007500000005
 50
123.11782000000001
 51
269.99988999999999
  0
LINE
  8
_0-5_金属
  6
CONTINUOUS
 62
    7
 10
1347.874749999999
 20
656.58779303677591
 11
1337.529399999999
 21
666.97534303677628
  0
LINE
  8
_0-5_金属
  6
CONTINUOUS
 62
    7
 10
1348.7250999999987
 20
657.43474303677601
 11
1338.3797999999983
 21
667.82229303677639
  0
LINE
  8
_0-5_金属
  6
CONTINUOUS
 62
    7
 10
1362.4710499999987
 20
666.97514303677565
 11
1352.1260999999986
 21
656.58794303677666
  0
LINE
  8
_0-5_金属
  6
CONTINUOUS
 62
    7
 10
1361.6208499999989
 20
667.82189303677626
 11
1351.2758499999991
 21
657.43469303677614
  0
LINE
  8
_0-5_金属
  6
CONTINUOUS
 62
    7
 10
887.40099999999927
 20
627.3055930367758
 11
883.85119999999972
 21
624.70554303677602
  0
LINE
  8
_0-5_金属
  6
CONTINUOUS
 62
    7
 10
883.00139999999885
 20
627.3055930367758
 11
887.40154999999902
 21
627.3055930367758
  0
LINE
  8
_0-5_金属
  6
CONTINUOUS
 62
    7
 10
883.85154999999884
 20
624.70594303677615
 11
884.81979999999965
 21
625.41514303677616
  0
LINE
  8
_0-5_金属
  6
CONTINUOUS
 62
    7
 10
883.00114999999835
 20
628.5054930367761
 11
883.00114999999835
 21
627.30554303677593
  0
LINE
  8
_0-5_金属
  6
CONTINUOUS
 62
    7
 10
884.20109999999966
 20
628.5054930367761
 11
884.20109999999966
 21
627.30554303677593
  0
LINE
  8
_0-5_金属
  6
CONTINUOUS
 62
    7
 10
886.20084999999847
 20
630.50549303677656
 11
900.00089999999943
 21
630.50549303677656
  0
LINE
  8
_0-5_金属
  6
CONTINUOUS
 62
    7
 10
886.20084999999847
 20
631.70544303677559
 11
900.00089999999943
 21
631.70544303677559
  0
LINE
  8
_0-5_金属
  6
CONTINUOUS
 62
    7
 10
900.00089999999943
 20
630.50549303677656
 11
913.80069999999876
 21
630.50549303677656
  0
LINE
  8
_0-5_金属
  6
CONTINUOUS
 62
    7
 10
915.54879999999855
 20
625.82549303677581
 11
912.1078499999993
 21
623.58084303677572
  0
LINE
  8
_0-5_金属
  6
CONTINUOUS
 62
    7
 10
914.8931999999985
 20
626.83054303677579
 11
911.45219999999938
 21
624.58584303677583
  0
LINE
  8
_0-5_金属
  6
CONTINUOUS
 62
    7
 10
900.00089999999943
 20
631.70544303677559
 11
913.80069999999876
 21
631.70544303677559
  0
LINE
  8
_0-5_金属
  6
CONTINUOUS
 62
    7
 10
1363.2641999999992
 20
667.50549303677587
 11
1410.9697999999999
 21
667.50549303677587
  0
LINE
  8
_0-5_金属
  6
CONTINUOUS
 62
    7
 10
1363.5748499999995
 20
668.70544303677605
 11
1410.9697999999999
 21
668.70544303677605
  0
LINE
  8
_0-5_金属
  6
CONTINUOUS
 62
    7
 10
1412.4267999999988
 20
666.76219303677669
 11
1420.3189499999989
 21
655.87954303677577
  0
LINE
  8
_0-5_金属
  6
CONTINUOUS
 62
    7
 10
1437.5752999999991
 20
620.65319303677654
 11
1417.4773999999984
 21
648.5361930367759
  0
LINE
  8
_0-5_金属
  6
CONTINUOUS
 62
    7
 10
1418.8480999999997
 20
651.59949303677593
 11
1419.0474499999987
 21
651.61544303677658
  0
LINE
  8
_0-5_金属
  6
CONTINUOUS
 62
    7
 10
1418.7524999999987
 20
652.79574303677634
 11
1418.9515499999989
 21
652.81164303677599
  0
LINE
  8
_0-5_金属
  6
CONTINUOUS
 62
    7
 10
1436.6018999999987
 20
619.95154303677566
 11
1416.5039499999993
 21
647.83454303677615
  0
LINE
  8
_0-5_金属
  6
CONTINUOUS
 62
    7
 10
1413.3981999999987
 20
667.46664303677619
 11
1421.2903499999989
 21
656.58404303677628
  0
LINE
  8
_0-5_金属
  6
CONTINUOUS
 62
    7
 10
1186.2003499999996
 20
630.50549303677656
 11
1200.0003999999985
 21
630.50549303677656
  0
LINE
  8
_0-5_金属
  6
CONTINUOUS
 62
    7
 10
1187.8929499999986
 20
623.58074303677597
 11
1184.4519999999984
 21
625.82544303677594
  0
LINE
  8
_0-5_金属
  6
CONTINUOUS
 62
    7
 10
1188.5485999999987
 20
624.58584303677583
 11
1185.1076499999995
 21
626.83049303677592
  0
LINE
  8
_0-5_金属
  6
CONTINUOUS
 62
    7
 10
1186.2003499999996
 20
631.70544303677559
 11
1200.0003999999985
 21
631.70544303677559
  0
LINE
  8
_0-5_金属
  6
CONTINUOUS
 62
    7
 10
1289.0304499999984
 20
667.50549303677587
 11
1336.3071999999993
 21
667.50549303677587
  0
LINE
  8
_0-5_金属
  6
CONTINUOUS
 62
    7
 10
1289.0304499999984
 20
668.70544303677605
 11
1336.2589499999985
 21
668.70519303677668
  0
LINE
  8
_0-5_金属
  6
CONTINUOUS
 62
    7
 10
1213.2003499999992
 20
619.90564303677559
 11
1260.9645499999992
 21
619.90564303677559
  0
LINE
  8
_0-5_金属
  6
CONTINUOUS
 62
    7
 10
1279.680949999999
 20
655.87979303677628
 11
1287.5729499999984
 21
666.76224303677657
  0
LINE
  8
_0-5_金属
  6
CONTINUOUS
 62
    7
 10
1282.5223999999998
 20
648.53614303677602
 11
1262.4244999999992
 21
620.65319303677654
  0
LINE
  8
_0-5_金属
  6
CONTINUOUS
 62
    7
 10
1280.9525499999991
 20
651.61544303677658
 11
1281.1520999999989
 21
651.59944303677605
  0
LINE
  8
_0-5_金属
  6
CONTINUOUS
 62
    7
 10
1281.0486499999997
 20
652.81159303677612
 11
1281.247499999999
 21
652.79569303677647
  0
LINE
  8
_0-5_金属
  6
CONTINUOUS
 62
    7
 10
1283.4959999999983
 20
647.83434303677666
 11
1263.3981499999986
 21
619.95139303677604
  0
LINE
  8
_0-5_金属
  6
CONTINUOUS
 62
    7
 10
1278.7095499999991
 20
656.58429303677565
 11
1286.6016999999983
 21
667.46689303677556
  0
LINE
  8
_0-5_金属
  6
CONTINUOUS
 62
    7
 10
1213.2003499999992
 20
618.70544303677605
 11
1260.9342499999998
 21
618.70544303677605
  0
LINE
  8
_0-5_金属
  6
CONTINUOUS
 62
    7
 10
1200.0003999999985
 20
630.50549303677656
 11
1213.8001999999988
 21
630.50549303677656
  0
LINE
  8
_0-5_金属
  6
CONTINUOUS
 62
    7
 10
1215.5485499999991
 20
625.82544303677594
 11
1212.1073999999994
 21
623.58064303677622
  0
LINE
  8
_0-5_金属
  6
CONTINUOUS
 62
    7
 10
1214.892949999999
 20
626.83044303677605
 11
1211.4517999999994
 21
624.58569303677621
  0
LINE
  8
_0-5_金属
  6
CONTINUOUS
 62
    7
 10
1200.0003999999985
 20
631.70544303677559
 11
1213.8001999999988
 21
631.70544303677559
  0
LINE
  8
ADD_LINE
  6
DOT
 62
    4
 10
1049.9999999999995
 20
658.73647987245192
 11
1049.9999999999995
 21
567.75977191885715
  0
LINE
  8
_0-8_笠木他
  6
CONTINUOUS
 62
    4
 10
994.00179999999921
 20
598.07019303452023
 11
1106.001999999999
 21
598.07019303452023
  0
LINE
  8
_0-8_笠木他
  6
CONTINUOUS
 62
    4
 10
1098.9999999999991
 20
647.22919303451988
 11
1001.0003999999998
 21
647.22919303451988
  0
LINE
  8
_0-8_笠木他
  6
CONTINUOUS
 62
    4
 10
1001.0003999999998
 20
643.21719303451971
 11
1098.9999999999991
 21
643.21719303451971
  0
LINE
  8
ADD_LINE
  6
DOT
 62
    4
 10
979.99999999999943
 20
695.46649959448757
 11
979.99999999999943
 21
667.63719303451978
  0
LINE
  8
_0-8_笠木他
  6
CONTINUOUS
 62
    4
 10
982.4941999999993
 20
690.6144995944868
 11
982.4941999999993
 21
670.0711930345193
  0
LINE
  8
_0-8_笠木他
  6
CONTINUOUS
 62
    4
 10
981.87719999999956
 20
690.6144995944868
 11
981.87719999999956
 21
670.0711930345193
  0
LINE
  8
_0-8_笠木他
  6
CONTINUOUS
 62
    4
 10
978.12259999999981
 20
690.6144995944868
 11
978.12259999999981
 21
670.0711930345193
  0
LINE
  8
_0-8_笠木他
  6
CONTINUOUS
 62
    4
 10
982.49999999999943
 20
670.0711930345193
 11
977.49979999999994
 21
670.0711930345193
  0
LINE
  8
_0-8_笠木他
  6
CONTINUOUS
 62
    4
 10
977.49979999999994
 20
670.0711930345193
 11
977.49979999999994
 21
690.6144995944868
  0
LINE
  8
_0-8_笠木他
  6
CONTINUOUS
 62
    4
 10
978.12259999999981
 20
669.57919303452002
 11
977.49979999999994
 21
670.0711930345193
  0
LINE
  8
_0-8_笠木他
  6
CONTINUOUS
 62
    4
 10
981.87719999999956
 20
669.57919303452002
 11
978.12259999999981
 21
669.57919303452002
  0
LINE
  8
_0-8_笠木他
  6
CONTINUOUS
 62
    4
 10
982.49999999999943
 20
670.0711930345193
 11
981.87719999999956
 21
669.57919303452002
  0
ARC
  8
_0-8_笠木他
  6
CONTINUOUS
 62
    4
 10
952.52264799999978
 20
688.61125959448771
 40
0.5176979999999999
 50
6.8111549999999994
 51
88.547381000000001
  0
LINE
  8
_0-8_笠木他
  6
CONTINUOUS
 62
    4
 10
950.78899999999919
 20
689.12849959448693
 11
952.53579999999999
 21
689.12849959448693
  0
ARC
  8
_0-8_笠木他
  6
CONTINUOUS
 62
    4
 10
950.80576399999984
 20
688.61249759448754
 40
0.5165619999999999
 50
91.848979000000014
 51
175.30911900000004
  0
LINE
  8
_0-8_笠木他
  6
CONTINUOUS
 62
    4
 10
949.9959999999993
 20
683.01249959448739
 11
950.29099999999914
 21
688.65449959448767
  0
ARC
  8
_0-8_笠木他
  6
CONTINUOUS
 62
    4
 10
951.03042799999969
 20
683.04380559448703
 40
1.0348960000000003
 50
181.78119200000003
 51
261.29768799999999
  0
LINE
  8
_0-8_笠木他
  6
CONTINUOUS
 62
    4
 10
989.9959999999993
 20
677.21649959448712
 11
950.87379999999996
 21
682.02049959448743
  0
LINE
  8
_0-8_笠木他
  6
CONTINUOUS
 62
    4
 10
989.9959999999993
 20
680.24249959448696
 11
989.9959999999993
 21
677.21649959448712
  0
LINE
  8
_0-8_笠木他
  6
CONTINUOUS
 62
    4
 10
985.16279999999995
 20
680.83249959448779
 11
989.9959999999993
 21
680.24249959448696
  0
LINE
  8
_0-8_笠木他
  6
CONTINUOUS
 62
    4
 10
984.66939999999965
 20
686.48249959448719
 11
985.16279999999995
 21
680.83249959448779
  0
LINE
  8
_0-8_笠木他
  6
CONTINUOUS
 62
    4
 10
975.32179999999983
 20
686.48249959448719
 11
984.66939999999965
 21
686.48249959448719
  0
LINE
  8
_0-8_笠木他
  6
CONTINUOUS
 62
    4
 10
974.93699999999933
 20
682.08849959448742
 11
975.32179999999983
 21
686.48249959448719
  0
LINE
  8
_0-8_笠木他
  6
CONTINUOUS
 62
    4
 10
953.37979999999959
 20
684.73649959448778
 11
974.93699999999933
 21
682.08849959448742
  0
LINE
  8
_0-8_笠木他
  6
CONTINUOUS
 62
    4
 10
953.03659999999979
 20
688.6724995944877
 11
953.37979999999959
 21
684.73649959448778
  0
LINE
  8
_0-8_笠木他
  6
CONTINUOUS
 62
    4
 10
977.74679999999933
 20
693.91449959448721
 11
982.48279999999966
 21
693.91449959448721
  0
ARC
  8
_0-8_笠木他
  6
CONTINUOUS
 62
    4
 10
978.27706599999999
 20
691.17985159448779
 40
2.7851520000000001
 50
100.97566500000001
 51
178.67830499999997
  0
LINE
  8
_0-8_笠木他
  6
CONTINUOUS
 62
    4
 10
975.49259999999947
 20
690.6144995944868
 11
975.49259999999947
 21
691.24449959448668
  0
LINE
  8
_0-8_笠木他
  6
CONTINUOUS
 62
    4
 10
984.49259999999924
 20
690.6144995944868
 11
975.49259999999947
 21
690.6144995944868
  0
LINE
  8
_0-8_笠木他
  6
CONTINUOUS
 62
    4
 10
984.49259999999924
 20
690.96849959448775
 11
984.49259999999924
 21
690.6144995944868
  0
ARC
  8
_0-8_笠木他
  6
CONTINUOUS
 62
    4
 10
980.26388999999938
 20
691.0359735944877
 40
4.2293260000000004
 50
359.08564999999999
 51
23.044018000000015
  0
ARC
  8
_0-8_笠木他
  6
CONTINUOUS
 62
    4
 10
982.43736599999977
 20
692.09599559448691
 40
1.81863
 50
19.113645000000002
 51
88.568511999999998
  0
LINE
  8
_0-8_笠木他
  6
DASHED1
 62
    4
 10
982.7463999999992
 20
686.48249959448719
 11
982.7463999999992
 21
690.61449959448794
  0
LINE
  8
_0-8_笠木他
  6
DASHED1
 62
    4
 10
984.99660000000006
 20
686.48249959448719
 11
985.37980000000005
 21
682.10449959448795
  0
LINE
  8
_0-8_笠木他
  6
DASHED1
 62
    4
 10
974.9957999999998
 20
686.48249959448719
 11
984.99660000000006
 21
686.48249959448719
  0
LINE
  8
_0-8_笠木他
  6
DASHED1
 62
    4
 10
974.9957999999998
 20
686.48249959448719
 11
974.61700000000008
 21
682.15049959448777
  0
LINE
  8
_0-8_笠木他
  6
DASHED1
 62
    4
 10
977.24659999999915
 20
690.61449959448794
 11
977.24659999999915
 21
686.48249959448719
  0
LINE
  8
_0-8_笠木他
  6
DASHED1
 62
    4
 10
976.49699999999996
 20
690.61449959448794
 11
983.49599999999953
 21
690.61449959448794
  0
LINE
  8
_0-8_笠木他
  6
CONTINUOUS
 62
    4
 10
982.49999999999943
 20
673.09529014215116
 11
982.49999999999943
 21
655.35919303451976
  0
LINE
  8
_0-8_笠木他
  6
DASHED1
 62
    4
 10
978.00059999999974
 20
651.50119303451959
 11
980.00020000000006
 21
650.34119303451973
  0
LINE
  8
_0-8_笠木他
  6
DASHED1
 62
    4
 10
980.00020000000006
 20
650.34119303451973
 11
982.00120000000027
 21
651.50119303451959
  0
LINE
  8
_0-8_笠木他
  6
CONTINUOUS
 62
    4
 10
1130.5
 20
663.2831930345202
 11
1124.9999999999995
 21
663.2831930345202
  0
LINE
  8
_0-8_笠木他
  6
CONTINUOUS
 62
    4
 10
1128
 20
668.29719303452009
 11
1125.5
 21
666.84719303452027
  0
LINE
  8
_0-8_笠木他
  6
CONTINUOUS
 62
    4
 10
1130.5
 20
666.84719303452027
 11
1128
 21
668.29719303452009
  0
LINE
  8
_0-8_笠木他
  6
CONTINUOUS
 62
    4
 10
982.00120000000027
 20
655.35919303451976
 11
982.49999999999943
 21
655.35919303451976
  0
LINE
  8
_0-8_笠木他
  6
CONTINUOUS
 62
    4
 10
982.00120000000027
 20
651.50119303451959
 11
982.00120000000027
 21
655.35919303451976
  0
LINE
  8
_0-8_笠木他
  6
CONTINUOUS
 62
    4
 10
977.50039999999956
 20
655.35919303451976
 11
977.50039999999956
 21
673.71119303451962
  0
LINE
  8
_0-8_笠木他
  6
CONTINUOUS
 62
    4
 10
978.00059999999974
 20
655.35919303451976
 11
977.50039999999956
 21
655.35919303451976
  0
LINE
  8
_0-8_笠木他
  6
CONTINUOUS
 62
    4
 10
978.00059999999974
 20
651.50119303451959
 11
978.00059999999974
 21
655.35919303451976
  0
LINE
  8
_0-8_笠木他
  6
CONTINUOUS
 62
    4
 10
1124.9999999999995
 20
663.2831930345202
 11
1124.9999999999995
 21
648.23119303451961
  0
LINE
  8
_0-8_笠木他
  6
CONTINUOUS
 62
    4
 10
1125.5
 20
666.84919303451977
 11
1125.5
 21
648.23119303451961
  0
LINE
  8
_0-8_笠木他
  6
CONTINUOUS
 62
    4
 10
1128
 20
668.29719303452009
 11
1125.5
 21
666.84919303451977
  0
LINE
  8
_0-8_笠木他
  6
CONTINUOUS
 62
    4
 10
1130.5
 20
648.23119303451961
 11
1130.5
 21
666.84919303451977
  0
LINE
  8
_0-8_笠木他
  6
CONTINUOUS
 62
    4
 10
1131.001999999999
 20
663.28119303451956
 11
1130.5
 21
663.28119303451956
  0
LINE
  8
_0-8_笠木他
  6
CONTINUOUS
 62
    4
 10
1131.001999999999
 20
648.23119303451961
 11
1131.001999999999
 21
663.2831930345202
  0
LINE
  8
_0-8_笠木他
  6
CONTINUOUS
 62
    4
 10
1154.962
 20
673.75719303451945
 11
1154.962
 21
664.89719303451977
  0
LINE
  8
_0-8_笠木他
  6
CONTINUOUS
 62
    4
 10
1151.0259999999998
 20
673.75719303451945
 11
1151.0259999999998
 21
664.89719303451977
  0
LINE
  8
_0-8_笠木他
  6
CONTINUOUS
 62
    4
 10
1156.6859999999992
 20
676.21719303451925
 11
1154.962
 21
673.75719303451945
  0
LINE
  8
_0-8_笠木他
  6
CONTINUOUS
 62
    4
 10
1156.6859999999992
 20
676.21719303451925
 11
1152.9939999999992
 21
676.21719303451925
  0
LINE
  8
_0-8_笠木他
  6
CONTINUOUS
 62
    4
 10
1154.962
 20
673.75719303451945
 11
1151.0259999999998
 21
673.75719303451945
  0
LINE
  8
_0-8_笠木他
  6
CONTINUOUS
 62
    4
 10
1149.3040000000001
 20
676.21719303451925
 11
1151.0259999999998
 21
673.75719303451945
  0
LINE
  8
_0-8_笠木他
  6
CONTINUOUS
 62
    4
 10
1149.3040000000001
 20
676.21719303451925
 11
1152.9939999999992
 21
676.21719303451925
  0
LINE
  8
_0-8_笠木他
  6
CONTINUOUS
 62
    4
 10
1153.3879999999995
 20
676.21719303451925
 11
1153.3879999999995
 21
673.75719303451945
  0
LINE
  8
_0-8_笠木他
  6
CONTINUOUS
 62
    4
 10
1152.6019999999999
 20
676.21719303451925
 11
1152.6019999999999
 21
673.75719303451945
  0
LINE
  8
_0-8_笠木他
  6
CONTINUOUS
 62
    4
 10
1154.962
 20
664.89719303451977
 11
1154.4720000000002
 21
664.40519303451936
  0
LINE
  8
_0-8_笠木他
  6
CONTINUOUS
 62
    4
 10
1151.0259999999998
 20
664.89719303451977
 11
1151.5179999999991
 21
664.40519303451936
  0
LINE
  8
_0-8_笠木他
  6
CONTINUOUS
 62
    3
 10
1098.9999999999991
 20
643.21719303451971
 11
1103.4300000000003
 21
643.21719303451971
  0
LINE
  8
_0-8_笠木他
  6
CONTINUOUS
 62
    3
 10
1098.9999999999991
 20
647.22919303451988
 11
1098.9999999999991
 21
643.21719303451971
  0
LINE
  8
_0-8_笠木他
  6
CONTINUOUS
 62
    3
 10
1001.0003999999998
 20
643.21719303451971
 11
1001.0003999999998
 21
647.22919303451988
  0
ARC
  8
_0-8_笠木他
  6
CONTINUOUS
 62
    3
 10
1154.0445919999997
 20
671.55206103452031
 40
3.1274700000000011
 50
2.8632759999999999
 51
6.6640059999999997
  0
ARC
  8
_0-8_笠木他
  6
CONTINUOUS
 62
    3
 10
1154.0726
 20
671.43438703451977
 40
3.1156240000000013
 50
8.8737189999999995
 51
94.862954000000002
  0
LINE
  8
_0-8_笠木他
  6
CONTINUOUS
 62
    3
 10
1157.1679999999997
 20
671.70919303451967
 11
1157.2440000000001
 21
670.7691930345203
  0
ARC
  8
_0-8_笠木他
  6
CONTINUOUS
 62
    3
 10
1157.755858
 20
670.82048703452017
 40
0.5145459999999999
 50
185.80330100000003
 51
268.46932399999997
  0
LINE
  8
_0-8_笠木他
  6
CONTINUOUS
 62
    3
 10
1104.9700000000003
 20
601.79659303451956
 11
1103.5989080971722
 21
600.40202803831619
  0
LINE
  8
_0-8_笠木他
  6
CONTINUOUS
 62
    3
 10
1103.5989080971722
 20
600.40202803831619
 11
1106.001999999999
 21
598.07019303452023
  0
LINE
  8
_0-8_笠木他
  6
CONTINUOUS
 62
    3
 10
1120.349999999999
 20
655.02519303451948
 11
1098.9999999999991
 21
647.22919303451988
  0
LINE
  8
_0-8_笠木他
  6
CONTINUOUS
 62
    3
 10
1121.2319999999995
 20
671.88919303451996
 11
1120.349999999999
 21
655.02519303451948
  0
ARC
  8
_0-8_笠木他
  6
CONTINUOUS
 62
    3
 10
1123.2840579999997
 20
671.73552903451935
 40
2.0583239999999998
 50
98.373173000000008
 51
175.72923200000002
  0
LINE
  8
_0-8_笠木他
  6
CONTINUOUS
 62
    3
 10
1159.7639999999997
 20
670.77919303452006
 11
1159.9999999999995
 21
675.29719303451941
  0
ARC
  8
_0-8_笠木他
  6
CONTINUOUS
 62
    3
 10
1159.2485900000001
 20
670.82280503451955
 40
0.5169359999999999
 50
271.80308500000001
 51
355.19273199999998
  0
LINE
  8
_0-8_笠木他
  6
CONTINUOUS
 62
    3
 10
1157.7420000000002
 20
670.30519303451968
 11
1159.2640000000001
 21
670.30519303451968
  0
LINE
  8
_0-8_笠木他
  6
CONTINUOUS
 62
    3
 10
1136.1039999999998
 20
672.35719303451958
 11
1153.8079999999995
 21
674.53919303451983
  0
LINE
  8
_0-8_笠木他
  6
CONTINUOUS
 62
    3
 10
1133.9999999999991
 20
648.23119303451961
 11
1136.1039999999998
 21
672.35719303451958
  0
LINE
  8
_0-8_笠木他
  6
CONTINUOUS
 62
    3
 10
1113.8740000000003
 20
648.23119303451961
 11
1133.9999999999991
 21
648.23119303451961
  0
LINE
  8
_0-8_笠木他
  6
CONTINUOUS
 62
    3
 10
1111.0160000000001
 20
599.0535930345203
 11
1111.8400000000001
 21
646.22519303451952
  0
ARC
  8
_0-8_笠木他
  6
CONTINUOUS
 62
    3
 10
1109.980192
 20
599.10749903451972
 40
1.03789
 50
272.06517599999995
 51
357.01875799999999
  0
LINE
  8
_0-8_笠木他
  6
CONTINUOUS
 62
    3
 10
1106.001999999999
 20
598.07019303452023
 11
1110.0179999999996
 21
598.07019303452023
  0
LINE
  8
_0-8_笠木他
  6
CONTINUOUS
 62
    3
 10
1103.4580000000001
 20
634.54719303452009
 11
1102.3579999999997
 21
634.54719303452009
  0
LINE
  8
_0-8_笠木他
  6
CONTINUOUS
 62
    3
 10
1103.4580000000001
 20
643.21719303451971
 11
1103.4580000000001
 21
634.54719303452009
  0
LINE
  8
_0-8_笠木他
  6
CONTINUOUS
 62
    3
 10
1103.848
 20
633.21319303451958
 11
1102.598
 21
631.94139303452005
  0
LINE
  8
_0-8_笠木他
  6
CONTINUOUS
 62
    3
 10
1102.5039999999995
 20
634.56019303452024
 11
1103.848
 21
633.21319303451958
  0
LINE
  8
_0-8_笠木他
  6
CONTINUOUS
 62
    3
 10
1103.942
 20
630.59359303452027
 11
1102.692
 21
629.32499303451948
  0
LINE
  8
_0-8_笠木他
  6
CONTINUOUS
 62
    3
 10
1102.598
 20
631.94139303452005
 11
1103.942
 21
630.59359303452027
  0
LINE
  8
_0-8_笠木他
  6
CONTINUOUS
 62
    3
 10
1104.0339999999997
 20
627.97459303451944
 11
1102.788
 21
626.70739303451967
  0
LINE
  8
_0-8_笠木他
  6
CONTINUOUS
 62
    3
 10
1102.692
 20
629.32499303451948
 11
1104.0339999999997
 21
627.97459303451944
  0
LINE
  8
_0-8_笠木他
  6
CONTINUOUS
 62
    3
 10
1104.1280000000002
 20
625.35839303451951
 11
1102.8820000000001
 21
624.08859303451948
  0
LINE
  8
_0-8_笠木他
  6
CONTINUOUS
 62
    3
 10
1102.788
 20
626.70739303451967
 11
1104.1280000000002
 21
625.35839303451951
  0
LINE
  8
_0-8_笠木他
  6
CONTINUOUS
 62
    3
 10
1104.2199999999998
 20
622.74139303451932
 11
1102.9739999999997
 21
621.46959303451979
  0
LINE
  8
_0-8_笠木他
  6
CONTINUOUS
 62
    3
 10
1102.8820000000001
 20
624.08859303451948
 11
1104.2199999999998
 21
622.74139303451932
  0
LINE
  8
_0-8_笠木他
  6
CONTINUOUS
 62
    3
 10
1104.3139999999999
 20
620.12179303452001
 11
1103.0680000000002
 21
618.85199303451998
  0
LINE
  8
_0-8_笠木他
  6
CONTINUOUS
 62
    3
 10
1102.9739999999997
 20
621.46959303451979
 11
1104.3139999999999
 21
620.12179303452001
  0
LINE
  8
_0-8_笠木他
  6
CONTINUOUS
 62
    3
 10
1104.4059999999995
 20
617.50219303451956
 11
1103.1599999999999
 21
616.23499303451979
  0
LINE
  8
_0-8_笠木他
  6
CONTINUOUS
 62
    3
 10
1103.0680000000002
 20
618.85199303451998
 11
1104.4059999999995
 21
617.50219303451956
  0
LINE
  8
_0-8_笠木他
  6
CONTINUOUS
 62
    3
 10
1104.5039999999999
 20
614.88519303451938
 11
1103.2539999999999
 21
613.6159930345201
  0
LINE
  8
_0-8_笠木他
  6
CONTINUOUS
 62
    3
 10
1103.1599999999999
 20
616.23499303451979
 11
1104.5039999999999
 21
614.88519303451938
  0
LINE
  8
_0-8_笠木他
  6
CONTINUOUS
 62
    3
 10
1104.597999999999
 20
612.26899303451944
 11
1103.347999999999
 21
610.99699303451928
  0
LINE
  8
_0-8_笠木他
  6
CONTINUOUS
 62
    3
 10
1103.2539999999999
 20
613.6159930345201
 11
1104.597999999999
 21
612.26899303451944
  0
LINE
  8
_0-8_笠木他
  6
CONTINUOUS
 62
    3
 10
1104.6900000000001
 20
609.64939303452013
 11
1103.4400000000001
 21
608.37739303451997
  0
LINE
  8
_0-8_笠木他
  6
CONTINUOUS
 62
    3
 10
1103.347999999999
 20
610.99699303451928
 11
1104.6900000000001
 21
609.64939303452013
  0
LINE
  8
_0-8_笠木他
  6
CONTINUOUS
 62
    3
 10
1104.7840000000001
 20
607.03039303451931
 11
1103.5340000000001
 21
605.76039303451978
  0
LINE
  8
_0-8_笠木他
  6
CONTINUOUS
 62
    3
 10
1103.4400000000001
 20
608.37739303451997
 11
1104.7840000000001
 21
607.03039303451931
  0
LINE
  8
_0-8_笠木他
  6
CONTINUOUS
 62
    3
 10
1104.8759999999997
 20
604.41339303452025
 11
1103.6259999999997
 21
603.14419303451984
  0
LINE
  8
_0-8_笠木他
  6
CONTINUOUS
 62
    3
 10
1103.5340000000001
 20
605.76039303451978
 11
1104.8759999999997
 21
604.41339303452025
  0
LINE
  8
_0-8_笠木他
  6
CONTINUOUS
 62
    3
 10
1103.6259999999997
 20
603.14419303451984
 11
1104.9700000000003
 21
601.79659303451956
  0
LINE
  8
_0-8_笠木他
  6
CONTINUOUS
 62
    3
 10
1111.8400000000001
 20
646.22519303451952
 11
1113.8740000000003
 21
648.23119303451961
  0
LINE
  8
_0-8_笠木他
  6
CONTINUOUS
 62
    3
 10
997.49179999999967
 20
634.54719303452009
 11
996.14879999999914
 21
633.1979930345193
  0
LINE
  8
_0-8_笠木他
  6
CONTINUOUS
 62
    3
 10
996.5415999999999
 20
634.54719303452009
 11
997.49179999999967
 21
634.54719303452009
  0
LINE
  8
_0-8_笠木他
  6
CONTINUOUS
 62
    3
 10
996.57260000000008
 20
643.21719303451971
 11
1001.0003999999998
 21
643.21719303451971
  0
LINE
  8
_0-8_笠木他
  6
CONTINUOUS
 62
    3
 10
996.39406818966222
 20
600.39556940459363
 11
994.00179999999921
 21
598.07019303452023
  0
LINE
  8
_0-8_笠木他
  6
CONTINUOUS
 62
    3
 10
995.02999999999986
 20
601.78059303452017
 11
996.39406818966222
 21
600.39556940459363
  0
LINE
  8
_0-8_笠木他
  6
CONTINUOUS
 62
    3
 10
946.19459999999947
 20
674.53919303451983
 11
974.80979999999988
 21
671.01519303451994
  0
LINE
  8
_0-8_笠木他
  6
CONTINUOUS
 62
    3
 10
945.98459999999989
 20
674.55719303451986
 11
946.19459999999947
 21
674.53919303451983
  0
ARC
  8
_0-8_笠木他
  6
CONTINUOUS
 62
    3
 10
945.9467479999995
 20
671.42928903451946
 40
3.1283379999999998
 50
89.307868999999997
 51
174.88332299999999
  0
LINE
  8
_0-8_笠木他
  6
CONTINUOUS
 62
    3
 10
942.75719999999922
 20
670.77319303451929
 11
942.83079999999984
 21
671.70919303451967
  0
ARC
  8
_0-8_笠木他
  6
CONTINUOUS
 62
    3
 10
942.24290599999961
 20
670.82483103452034
 40
0.5168899999999999
 50
271.78269899999998
 51
354.19964099999999
  0
LINE
  8
_0-8_笠木他
  6
CONTINUOUS
 62
    3
 10
940.73419999999999
 20
670.30719303452031
 11
942.25899999999967
 21
670.30719303452031
  0
ARC
  8
_0-8_笠木他
  6
CONTINUOUS
 62
    3
 10
942.07578399999932
 20
675.99694103452009
 40
2.076578
 50
92.112883999999994
 51
178.084249
  0
ARC
  8
_0-8_笠木他
  6
CONTINUOUS
 62
    3
 10
942.00886599999933
 20
676.56083903452043
 40
1.511298
 50
81.161677999999995
 51
90.365513000000007
  0
LINE
  8
_0-8_笠木他
  6
CONTINUOUS
 62
    3
 10
1001.0003999999998
 20
647.22919303451988
 11
986.77679999999953
 21
652.42119303451943
  0
LINE
  8
_0-8_笠木他
  6
CONTINUOUS
 62
    3
 10
989.98359999999991
 20
598.07019303452023
 11
994.00179999999921
 21
598.07019303452023
  0
ARC
  8
_0-8_笠木他
  6
CONTINUOUS
 62
    3
 10
990.02177399999994
 20
599.11056303451971
 40
1.0409820000000001
 50
183.14121900000001
 51
267.89328999999998
  0
LINE
  8
_0-8_笠木他
  6
CONTINUOUS
 62
    3
 10
988.15959999999961
 20
646.22519303451952
 11
988.9823999999993
 21
599.0535930345203
  0
LINE
  8
_0-8_笠木他
  6
CONTINUOUS
 62
    3
 10
986.12559999999974
 20
648.23119303451961
 11
988.15959999999961
 21
646.22519303451952
  0
LINE
  8
_0-8_笠木他
  6
CONTINUOUS
 62
    3
 10
975.99980000000016
 20
648.23119303451961
 11
986.12559999999974
 21
648.23119303451961
  0
LINE
  8
_0-8_笠木他
  6
CONTINUOUS
 62
    3
 10
974.80979999999988
 20
671.01519303451994
 11
975.99980000000016
 21
648.23119303451961
  0
LINE
  8
_0-8_笠木他
  6
CONTINUOUS
 62
    3
 10
996.14879999999914
 20
633.1979930345193
 11
997.39879999999914
 21
631.9281930345204
  0
LINE
  8
_0-8_笠木他
  6
CONTINUOUS
 62
    3
 10
996.05579999999975
 20
630.58039303451949
 11
997.30359999999962
 21
629.30859303451996
  0
LINE
  8
_0-8_笠木他
  6
CONTINUOUS
 62
    3
 10
997.39879999999914
 20
631.9281930345204
 11
996.05579999999975
 21
630.58039303451949
  0
LINE
  8
_0-8_笠木他
  6
CONTINUOUS
 62
    3
 10
995.96279999999922
 20
627.9615930345193
 11
997.21060000000023
 21
626.69159303451977
  0
LINE
  8
_0-8_笠木他
  6
CONTINUOUS
 62
    3
 10
997.30359999999962
 20
629.30859303451996
 11
995.96279999999922
 21
627.9615930345193
  0
LINE
  8
_0-8_笠木他
  6
CONTINUOUS
 62
    3
 10
995.86979999999983
 20
625.34259303451961
 11
997.1175999999997
 21
624.07539303451983
  0
LINE
  8
_0-8_笠木他
  6
CONTINUOUS
 62
    3
 10
997.21060000000023
 20
626.69159303451977
 11
995.86979999999983
 21
625.34259303451961
  0
LINE
  8
_0-8_笠木他
  6
CONTINUOUS
 62
    3
 10
995.7767999999993
 20
622.72559303451942
 11
997.02459999999917
 21
621.45639303452015
  0
LINE
  8
_0-8_笠木他
  6
CONTINUOUS
 62
    3
 10
997.1175999999997
 20
624.07539303451983
 11
995.7767999999993
 21
622.72559303451942
  0
LINE
  8
_0-8_笠木他
  6
CONTINUOUS
 62
    3
 10
995.68379999999991
 20
620.10879303451986
 11
996.93159999999978
 21
618.8367930345197
  0
LINE
  8
_0-8_笠木他
  6
CONTINUOUS
 62
    3
 10
997.02459999999917
 20
621.45639303452015
 11
995.68379999999991
 21
620.10879303451986
  0
LINE
  8
_0-8_笠木他
  6
CONTINUOUS
 62
    3
 10
995.58879999999988
 20
617.48979303452018
 11
996.83859999999925
 21
616.21719303451925
  0
LINE
  8
_0-8_笠木他
  6
CONTINUOUS
 62
    3
 10
996.93159999999978
 20
618.8367930345197
 11
995.58879999999988
 21
617.48979303452018
  0
LINE
  8
_0-8_笠木他
  6
CONTINUOUS
 62
    3
 10
995.49559999999985
 20
614.86999303452023
 11
996.74559999999985
 21
613.6001930345202
  0
LINE
  8
_0-8_笠木他
  6
CONTINUOUS
 62
    3
 10
996.83859999999925
 20
616.21719303451925
 11
995.49559999999985
 21
614.86999303452023
  0
LINE
  8
_0-8_笠木他
  6
CONTINUOUS
 62
    3
 10
995.4019999999997
 20
612.25239303451929
 11
996.65180000000021
 21
610.98399303452027
  0
LINE
  8
_0-8_笠木他
  6
CONTINUOUS
 62
    3
 10
996.74559999999985
 20
613.6001930345202
 11
995.4019999999997
 21
612.25239303451929
  0
LINE
  8
_0-8_笠木他
  6
CONTINUOUS
 62
    3
 10
995.30899999999917
 20
609.63619303451935
 11
996.55879999999968
 21
608.36439303451982
  0
LINE
  8
_0-8_笠木他
  6
CONTINUOUS
 62
    3
 10
996.65180000000021
 20
610.98399303452027
 11
995.30899999999917
 21
609.63619303451935
  0
LINE
  8
_0-8_笠木他
  6
CONTINUOUS
 62
    3
 10
995.21599999999978
 20
607.01719303451966
 11
996.46579999999915
 21
605.74539303452013
  0
LINE
  8
_0-8_笠木他
  6
CONTINUOUS
 62
    3
 10
996.55879999999968
 20
608.36439303451982
 11
995.21599999999978
 21
607.01719303451966
  0
LINE
  8
_0-8_笠木他
  6
CONTINUOUS
 62
    3
 10
995.12299999999925
 20
604.39819303451998
 11
996.37279999999976
 21
603.12839303451995
  0
LINE
  8
_0-8_笠木他
  6
CONTINUOUS
 62
    3
 10
996.46579999999915
 20
605.74539303452013
 11
995.12299999999925
 21
604.39819303451998
  0
LINE
  8
_0-8_笠木他
  6
CONTINUOUS
 62
    3
 10
996.37279999999976
 20
603.12839303451995
 11
995.02999999999986
 21
601.78059303452017
  0
LINE
  8
_0-8_笠木他
  6
CONTINUOUS
 62
    3
 10
940.00039999999956
 20
676.06719303451939
 11
940.00039999999956
 21
675.30119303451954
  0
LINE
  8
_0-8_笠木他
  6
CONTINUOUS
 62
    3
 10
985.00179999999943
 20
672.78919303452028
 11
942.24099999999964
 21
678.05319303451995
  0
LINE
  8
_0-8_笠木他
  6
CONTINUOUS
 62
    3
 10
986.77679999999953
 20
652.42119303451943
 11
985.00179999999943
 21
672.78919303452028
  0
ARC
  8
_0-8_笠木他
  6
CONTINUOUS
 62
    3
 10
940.75007799999923
 20
670.82430503452031
 40
0.5163579999999999
 50
184.51944900000001
 51
268.235434
  0
LINE
  8
_0-8_笠木他
  6
CONTINUOUS
 62
    3
 10
940.00039999999956
 20
675.30119303451954
 11
940.23539999999969
 21
670.7831930345202
  0
LINE
  8
_0-8_笠木他
  6
CONTINUOUS
 62
    3
 10
996.57260000000008
 20
643.21719303451971
 11
996.5415999999999
 21
634.54719303452009
  0
LINE
  8
_0-2_線色２__白__
  6
CONTINUOUS
 62
    7
 10
1133.0525732251217
 20
680.02868635523612
 11
1133.654130604034
 21
675.06500539048091
  0
LINE
  8
_0-2_線色２__白__
  6
CONTINUOUS
 62
    7
 10
967.44276150619442
 20
679.98500714446266
 11
966.83279962149697
 21
675.02235195805099
  0
LINE
  8
_0-2_線色２__白__
  6
CONTINUOUS
 62
    7
 10
967.44276150619442
 20
679.98500714446266
 11
973.46774560502035
 21
679.24447399876783
  0
LINE
  8
_0-2_線色２__白__
  6
CONTINUOUS
 62
    7
 10
1133.0525732251217
 20
680.02868635523612
 11
1127.0263437650967
 21
679.29835682269015
  0
LINE
  8
_0-2_線色２__白__
  6
CONTINUOUS
 62
    7
 10
1127.0367715224174
 20
679.29962058126137
 11
1127.0281289384754
 21
679.28362667153863
  0
LINE
  8
_0-2_線色２__白__
  6
CONTINUOUS
 62
    7
 10
1122.9967648725644
 20
673.88453088399444
 11
1122.9843252378705
 21
673.77191258392315
  0
LINE
  8
_0-2_線色２__白__
  6
CONTINUOUS
 62
    7
 10
1123.0194487450717
 20
674.07834277344421
 11
1122.9967648725644
 21
673.88453088399444
  0
LINE
  8
_0-2_線色２__白__
  6
CONTINUOUS
 62
    7
 10
1123.0455665800323
 20
674.27116134780761
 11
1123.0194487450717
 21
674.07834277344421
  0
LINE
  8
_0-2_線色２__白__
  6
CONTINUOUS
 62
    7
 10
1123.0772917714053
 20
674.46235792664822
 11
1123.0455665800323
 21
674.27116134780761
  0
LINE
  8
_0-2_線色２__白__
  6
CONTINUOUS
 62
    7
 10
1123.1167977131477
 20
674.65130382953078
 11
1123.0772917714053
 21
674.46235792664822
  0
LINE
  8
_0-2_線色２__白__
  6
CONTINUOUS
 62
    7
 10
1123.1662577992183
 20
674.83737037602225
 11
1123.1167977131477
 21
674.65130382953078
  0
LINE
  8
_0-2_線色２__白__
  6
CONTINUOUS
 62
    7
 10
1123.2003620683058
 20
674.94372191910372
 11
1123.1662577992183
 21
674.83737037602225
  0
LINE
  8
_0-2_線色２__白__
  6
CONTINUOUS
 62
    7
 10
1123.2275196757355
 20
675.01918912801955
 11
1123.2003620683058
 21
674.94372191910372
  0
LINE
  8
_0-2_線色２__白__
  6
CONTINUOUS
 62
    7
 10
1123.279460319585
 20
675.14766516236079
 11
1123.2275196757355
 21
675.01918912801955
  0
LINE
  8
_0-2_線色２__白__
  6
CONTINUOUS
 62
    7
 10
1123.3373934578381
 20
675.27396436142624
 11
1123.279460319585
 21
675.14766516236079
  0
LINE
  8
_0-2_線色２__白__
  6
CONTINUOUS
 62
    7
 10
1123.4007551926618
 20
675.3979691850742
 11
1123.3373934578381
 21
675.27396436142624
  0
LINE
  8
_0-2_線色２__白__
  6
CONTINUOUS
 62
    7
 10
1123.4689816262262
 20
675.51956209316643
 11
1123.4007551926618
 21
675.3979691850742
  0
LINE
  8
_0-2_線色２__白__
  6
CONTINUOUS
 62
    7
 10
1123.5415088606987
 20
675.63862554556238
 11
1123.4689816262262
 21
675.51956209316643
  0
LINE
  8
_0-2_線色２__白__
  6
CONTINUOUS
 62
    7
 10
1123.5853230786015
 20
675.70647703442489
 11
1123.5415088606987
 21
675.63862554556238
  0
LINE
  8
_0-2_線色２__白__
  6
CONTINUOUS
 62
    7
 10
1123.6631935427638
 20
675.8208780399292
 11
1123.5853230786015
 21
675.70647703442489
  0
LINE
  8
_0-2_線色２__白__
  6
CONTINUOUS
 62
    7
 10
1123.8044739216421
 20
676.01254492509213
 11
1123.6631935427638
 21
675.8208780399292
  0
LINE
  8
_0-2_線色２__白__
  6
CONTINUOUS
 62
    7
 10
1123.9532537516923
 20
676.1982801335779
 11
1123.8044739216421
 21
676.01254492509213
  0
LINE
  8
_0-2_線色２__白__
  6
CONTINUOUS
 62
    7
 10
1124.1079192685884
 20
676.37939394386592
 11
1123.9532537516923
 21
676.1982801335779
  0
LINE
  8
_0-2_線色２__白__
  6
CONTINUOUS
 62
    7
 10
1124.266856708005
 20
676.5571966344379
 11
1124.1079192685884
 21
676.37939394386592
  0
LINE
  8
_0-2_線色２__白__
  6
CONTINUOUS
 62
    7
 10
1124.4284523056172
 20
676.7329984837744
 11
1124.266856708005
 21
676.5571966344379
  0
LINE
  8
_0-2_線色２__白__
  6
CONTINUOUS
 62
    7
 10
1124.5227598132576
 20
676.83456308878988
 11
1124.4284523056172
 21
676.7329984837744
  0
LINE
  8
_0-2_線色２__白__
  6
CONTINUOUS
 62
    7
 10
1124.5980264747568
 20
676.91546335492887
 11
1124.5227598132576
 21
676.83456308878988
  0
LINE
  8
_0-2_線色２__白__
  6
CONTINUOUS
 62
    7
 10
1124.7283707064735
 20
677.05435421816276
 11
1124.5980264747568
 21
676.91546335492887
  0
LINE
  8
_0-2_線色２__白__
  6
CONTINUOUS
 62
    7
 10
1124.8602274653408
 20
677.19154699028707
 11
1124.7283707064735
 21
677.05435421816276
  0
LINE
  8
_0-2_線色２__白__
  6
CONTINUOUS
 62
    7
 10
1124.9945104557492
 20
677.32593902524115
 11
1124.8602274653408
 21
677.19154699028707
  0
LINE
  8
_0-2_線色２__白__
  6
CONTINUOUS
 62
    7
 10
1125.1321333820911
 20
677.45642767696893
 11
1124.9945104557492
 21
677.32593902524115
  0
LINE
  8
_0-2_線色２__白__
  6
CONTINUOUS
 62
    7
 10
1125.2740099487594
 20
677.58191029940861
 11
1125.1321333820911
 21
677.45642767696893
  0
LINE
  8
_0-2_線色２__白__
  6
CONTINUOUS
 62
    7
 10
1125.3586074224675
 20
677.65196195792043
 11
1125.2740099487594
 21
677.58191029940861
  0
LINE
  8
_0-2_線色２__白__
  6
CONTINUOUS
 62
    7
 10
1125.4429564525544
 20
677.71827876823693
 11
1125.3586074224675
 21
677.65196195792043
  0
LINE
  8
_0-2_線色２__白__
  6
CONTINUOUS
 62
    7
 10
1125.5915286765339
 20
677.82891411631056
 11
1125.4429564525544
 21
677.71827876823693
  0
LINE
  8
_0-2_線色２__白__
  6
CONTINUOUS
 62
    7
 10
1125.7423443844632
 20
677.93694384615208
 11
1125.5915286765339
 21
677.82891411631056
  0
LINE
  8
_0-2_線色２__白__
  6
CONTINUOUS
 62
    7
 10
1125.8933863413704
 20
678.04479000906269
 11
1125.7423443844632
 21
677.93694384615208
  0
LINE
  8
_0-2_線色２__白__
  6
CONTINUOUS
 62
    7
 10
1126.0426373122823
 20
678.15487465634249
 11
1125.8933863413704
 21
678.04479000906269
  0
LINE
  8
_0-2_線色２__白__
  6
CONTINUOUS
 62
    7
 10
1126.1880800622257
 20
678.2696198392938
 11
1126.0426373122823
 21
678.15487465634249
  0
LINE
  8
_0-2_線色２__白__
  6
CONTINUOUS
 62
    7
 10
1126.2698970348697
 20
678.33926191700868
 11
1126.1880800622257
 21
678.2696198392938
  0
LINE
  8
_0-2_線色２__白__
  6
CONTINUOUS
 62
    7
 10
1126.3189759461145
 20
678.38335424782429
 11
1126.2698970348697
 21
678.33926191700868
  0
LINE
  8
_0-2_線色２__白__
  6
CONTINUOUS
 62
    7
 10
1126.4014943661955
 20
678.46177965729623
 11
1126.3189759461145
 21
678.38335424782429
  0
LINE
  8
_0-2_線色２__白__
  6
CONTINUOUS
 62
    7
 10
1126.4813245599335
 20
678.54306607123192
 11
1126.4014943661955
 21
678.46177965729623
  0
LINE
  8
_0-2_線色２__白__
  6
CONTINUOUS
 62
    7
 10
1126.558432222942
 20
678.6270016027953
 11
1126.4813245599335
 21
678.54306607123192
  0
LINE
  8
_0-2_線色２__白__
  6
CONTINUOUS
 62
    7
 10
1126.632783050834
 20
678.7133743651458
 11
1126.558432222942
 21
678.6270016027953
  0
LINE
  8
_0-2_線色２__白__
  6
CONTINUOUS
 62
    7
 10
1126.7043427392227
 20
678.80197247144736
 11
1126.632783050834
 21
678.7133743651458
  0
LINE
  8
_0-2_線色２__白__
  6
CONTINUOUS
 62
    7
 10
1126.7445549406552
 20
678.85429553126698
 11
1126.7043427392227
 21
678.80197247144736
  0
LINE
  8
_0-2_線色２__白__
  6
CONTINUOUS
 62
    7
 10
1126.854754316372
 20
679.00792259793946
 11
1126.7445549406552
 21
678.85429553126698
  0
LINE
  8
_0-2_線色２__白__
  6
CONTINUOUS
 62
    7
 10
1127.0281289384754
 20
679.28362667153863
 11
1126.854754316372
 21
679.00792259793946
  0
LINE
  8
_0-2_線色２__白__
  6
CONTINUOUS
 62
    7
 10
973.45732000266651
 20
679.24575541362003
 11
973.46593549054637
 21
679.22974689170189
  0
LINE
  8
_0-2_線色２__白__
  6
CONTINUOUS
 62
    7
 10
977.48815108804195
 20
673.82383223807835
 11
977.50039999999956
 21
673.71119303451962
  0
LINE
  8
_0-2_線色２__白__
  6
CONTINUOUS
 62
    7
 10
977.46579544407155
 20
674.01768226192814
 11
977.48815108804195
 21
673.82383223807835
  0
LINE
  8
_0-2_線色２__白__
  6
CONTINUOUS
 62
    7
 10
977.4400041605179
 20
674.21054478709891
 11
977.46579544407155
 21
674.01768226192814
  0
LINE
  8
_0-2_線色２__白__
  6
CONTINUOUS
 62
    7
 10
977.40860278194589
 20
674.40179481442385
 11
977.4400041605179
 21
674.21054478709891
  0
LINE
  8
_0-2_線色２__白__
  6
CONTINUOUS
 62
    7
 10
977.36941685292413
 20
674.59080734473844
 11
977.40860278194589
 21
674.40179481442385
  0
LINE
  8
_0-2_線色２__白__
  6
CONTINUOUS
 62
    7
 10
977.32027191801899
 20
674.776957378877
 11
977.36941685292413
 21
674.59080734473844
  0
LINE
  8
_0-2_線色２__白__
  6
CONTINUOUS
 62
    7
 10
977.28634779076572
 20
674.88336652076043
 11
977.32027191801899
 21
674.776957378877
  0
LINE
  8
_0-2_線色２__白__
  6
CONTINUOUS
 62
    7
 10
977.25931801648335
 20
674.95887960945936
 11
977.28634779076572
 21
674.88336652076043
  0
LINE
  8
_0-2_線色２__白__
  6
CONTINUOUS
 62
    7
 10
977.20759500507961
 20
675.08744341453337
 11
977.25931801648335
 21
674.95887960945936
  0
LINE
  8
_0-2_線色２__白__
  6
CONTINUOUS
 62
    7
 10
977.14987582166827
 20
675.21384053498593
 11
977.20759500507961
 21
675.08744341453337
  0
LINE
  8
_0-2_線色２__白__
  6
CONTINUOUS
 62
    7
 10
977.08672416423383
 20
675.33795247595492
 11
977.14987582166827
 21
675.21384053498593
  0
LINE
  8
_0-2_線色２__白__
  6
CONTINUOUS
 62
    7
 10
977.01870373075849
 20
675.4596607425816
 11
977.08672416423383
 21
675.33795247595492
  0
LINE
  8
_0-2_線色２__白__
  6
CONTINUOUS
 62
    7
 10
976.9463782192264
 20
675.57884684000157
 11
977.01870373075849
 21
675.4596607425816
  0
LINE
  8
_0-2_線色２__白__
  6
CONTINUOUS
 62
    7
 10
976.90267896208979
 20
675.64677242543837
 11
976.9463782192264
 21
675.57884684000157
  0
LINE
  8
_0-2_線色２__白__
  6
CONTINUOUS
 62
    7
 10
976.82500233326266
 20
675.76130513073792
 11
976.90267896208979
 21
675.64677242543837
  0
LINE
  8
_0-2_線色２__白__
  6
CONTINUOUS
 62
    7
 10
976.68404672066595
 20
675.95321098161719
 11
976.82500233326266
 21
675.76130513073792
  0
LINE
  8
_0-2_線色２__白__
  6
CONTINUOUS
 62
    7
 10
976.53558162310242
 20
676.13919786369877
 11
976.68404672066595
 21
675.95321098161719
  0
LINE
  8
_0-2_線色２__白__
  6
CONTINUOUS
 62
    7
 10
976.38122302137594
 20
676.32057332087754
 11
976.53558162310242
 21
676.13919786369877
  0
LINE
  8
_0-2_線色２__白__
  6
CONTINUOUS
 62
    7
 10
976.22258689629007
 20
676.49864489705067
 11
976.38122302137594
 21
676.32057332087754
  0
LINE
  8
_0-2_線色２__白__
  6
CONTINUOUS
 62
    7
 10
976.06128922864718
 20
676.67472013611189
 11
976.22258689629007
 21
676.49864489705067
  0
LINE
  8
_0-2_線色２__白__
  6
CONTINUOUS
 62
    7
 10
975.96715384308231
 20
676.77644429339068
 11
976.06128922864718
 21
676.67472013611189
  0
LINE
  8
_0-2_線色２__白__
  6
CONTINUOUS
 62
    7
 10
975.89202428390422
 20
676.85747189814435
 11
975.96715384308231
 21
676.77644429339068
  0
LINE
  8
_0-2_線色２__白__
  6
CONTINUOUS
 62
    7
 10
975.76191543324603
 20
676.99658328377552
 11
975.89202428390422
 21
676.85747189814435
  0
LINE
  8
_0-2_線色２__白__
  6
CONTINUOUS
 62
    7
 10
975.63029118210238
 20
677.13399914200465
 11
975.76191543324603
 21
676.99658328377552
  0
LINE
  8
_0-2_線色２__白__
  6
CONTINUOUS
 62
    7
 10
975.49623596020069
 20
677.26861837559852
 11
975.63029118210238
 21
677.13399914200465
  0
LINE
  8
_0-2_線色２__白__
  6
CONTINUOUS
 62
    7
 10
975.35883419726645
 20
677.39933988732048
 11
975.49623596020069
 21
677.26861837559852
  0
LINE
  8
_0-2_線色２__白__
  6
CONTINUOUS
 62
    7
 10
975.21717032302467
 20
677.5250625799373
 11
975.35883419726645
 21
677.39933988732048
  0
LINE
  8
_0-2_線色２__白__
  6
CONTINUOUS
 62
    7
 10
975.13269159426591
 20
677.59525739317439
 11
975.21717032302467
 21
677.5250625799373
  0
LINE
  8
_0-2_線色２__白__
  6
CONTINUOUS
 62
    7
 10
975.04845498427721
 20
677.66171694286243
 11
975.13269159426591
 21
677.59525739317439
  0
LINE
  8
_0-2_線色２__白__
  6
CONTINUOUS
 62
    7
 10
974.90007032033623
 20
677.77260372065314
 11
975.04845498427721
 21
677.66171694286243
  0
LINE
  8
_0-2_線色２__白__
  6
CONTINUOUS
 62
    7
 10
974.74943776337545
 20
677.88088868300349
 11
974.90007032033623
 21
677.77260372065314
  0
LINE
  8
_0-2_線色２__白__
  6
CONTINUOUS
 62
    7
 10
974.59857864691401
 20
677.98899046181134
 11
974.74943776337545
 21
677.88088868300349
  0
LINE
  8
_0-2_線色２__白__
  6
CONTINUOUS
 62
    7
 10
974.44951430447134
 20
678.09932768896886
 11
974.59857864691401
 21
677.98899046181134
  0
LINE
  8
_0-2_線色２__白__
  6
CONTINUOUS
 62
    7
 10
974.30426606956667
 20
678.21431899637389
 11
974.44951430447134
 21
678.09932768896886
  0
LINE
  8
_0-2_線色２__白__
  6
CONTINUOUS
 62
    7
 10
974.22256714431171
 20
678.28409952097388
 11
974.30426606956667
 21
678.21431899637389
  0
LINE
  8
_0-2_線色２__白__
  6
CONTINUOUS
 62
    7
 10
974.17356296824096
 20
678.32827489752333
 11
974.22256714431171
 21
678.28409952097388
  0
LINE
  8
_0-2_線色２__白__
  6
CONTINUOUS
 62
    7
 10
974.09117747002051
 20
678.40683992909874
 11
974.17356296824096
 21
678.32827489752333
  0
LINE
  8
_0-2_線色２__白__
  6
CONTINUOUS
 62
    7
 10
974.0114850390396
 20
678.48826140886388
 11
974.09117747002051
 21
678.40683992909874
  0
LINE
  8
_0-2_線色２__白__
  6
CONTINUOUS
 62
    7
 10
973.934519620831
 20
678.57232739219455
 11
974.0114850390396
 21
678.48826140886388
  0
LINE
  8
_0-2_線色２__白__
  6
CONTINUOUS
 62
    7
 10
973.86031516093021
 20
678.65882593446656
 11
973.934519620831
 21
678.57232739219455
  0
LINE
  8
_0-2_線色２__白__
  6
CONTINUOUS
 62
    7
 10
973.78890560487002
 20
678.74754509105458
 11
973.86031516093021
 21
678.65882593446656
  0
LINE
  8
_0-2_線色２__白__
  6
CONTINUOUS
 62
    7
 10
973.74878206360108
 20
678.79993617015259
 11
973.78890560487002
 21
678.74754509105458
  0
LINE
  8
_0-2_線色２__白__
  6
CONTINUOUS
 62
    7
 10
973.63884299396341
 20
678.95374962531889
 11
973.74878206360108
 21
678.79993617015259
  0
LINE
  8
_0-2_線色２__白__
  6
CONTINUOUS
 62
    7
 10
973.46593549054637
 20
679.22974689170189
 11
973.63884299396341
 21
678.95374962531889
  0
ARC
  8
_0-8_笠木他
  6
CONTINUOUS
 62
    4
 10
1148.9652599999995
 20
683.04167159448696
 40
1.0326679999999999
 50
278.67704700000002
 51
358.33346399999999
  0
LINE
  8
_0-8_笠木他
  6
CONTINUOUS
 62
    4
 10
1149.6800000000003
 20
689.12849959448693
 11
1149.998
 21
683.01249959448739
  0
LINE
  8
_0-8_笠木他
  6
CONTINUOUS
 62
    4
 10
1146.9979999999991
 20
689.12849959448693
 11
1149.6800000000003
 21
689.12849959448693
  0
LINE
  8
_0-8_笠木他
  6
CONTINUOUS
 62
    4
 10
1146.596
 20
684.52649959448706
 11
1146.9979999999991
 21
689.12849959448693
  0
LINE
  8
_0-8_笠木他
  6
CONTINUOUS
 62
    4
 10
1109.998
 20
680.24249959448696
 11
1146.596
 21
684.52649959448706
  0
LINE
  8
_0-8_笠木他
  6
CONTINUOUS
 62
    4
 10
1109.998
 20
677.21649959448712
 11
1109.998
 21
680.24249959448696
  0
LINE
  8
_0-8_笠木他
  6
CONTINUOUS
 62
    4
 10
1149.1219999999994
 20
682.02049959448743
 11
1109.998
 21
677.21649959448712
  0
ARC
  8
_0-1_線色１__水色__
  6
CONTINUOUS
 62
    4
 10
1160.7068683054229
 20
677.62047967830483
 40
1.2083333333333581
 50
337.76285982720822
 51
194.27754654500092
  0
ARC
  8
_0-1_線色１__水色__
  6
CONTINUOUS
 62
    4
 10
1160.7068683054229
 20
677.62047967830483
 40
1.2083333333333581
 50
226.07106695664211
 51
262.71583342851892
  0
LINE
  8
_0-d_断熱__ハッチ
  6
CONTINUOUS
 62
    4
 10
637.08244999999829
 20
673.70726323841893
 11
642.08427020164231
 21
668.70544303677491
  0
LINE
  8
_0-d_断熱__ハッチ
  6
CONTINUOUS
 62
    4
 10
637.08244999999943
 20
701.99153448587538
 11
670.36854144909876
 21
668.70544303677605
  0
LINE
  8
_0-d_断熱__ハッチ
  6
CONTINUOUS
 62
    4
 10
663.65281269656543
 20
703.70544303677605
 11
698.6528126965643
 21
668.70544303677718
  0
LINE
  8
_0-d_断熱__ハッチ
  6
CONTINUOUS
 62
    4
 10
691.93708394402483
 20
703.70544303677491
 11
726.93708394402529
 21
668.70544303677491
  0
LINE
  8
_0-d_断熱__ハッチ
  6
CONTINUOUS
 62
    4
 10
720.22135519149197
 20
703.70544303677377
 11
753.62160519374947
 21
670.3051930345174
  0
LINE
  8
_0-d_断熱__ハッチ
  6
CONTINUOUS
 62
    4
 10
748.50562643894614
 20
703.70544303677718
 11
781.90587644120365
 21
670.30519303451968
  0
LINE
  8
_0-d_断熱__ハッチ
  6
CONTINUOUS
 62
    4
 10
776.78989768641395
 20
703.70544303677605
 11
810.19014768867294
 21
670.3051930345174
  0
LINE
  8
_0-d_断熱__ハッチ
  6
CONTINUOUS
 62
    4
 10
805.07416893387222
 20
703.70544303677605
 11
838.47441893612825
 21
670.30519303451968
  0
LINE
  8
_0-d_断熱__ハッチ
  6
CONTINUOUS
 62
    4
 10
833.35844018134117
 20
703.70544303677377
 11
866.75869018359572
 21
670.30519303451854
  0
LINE
  8
_0-d_断熱__ハッチ
  6
CONTINUOUS
 62
    4
 10
861.64271142879329
 20
703.70544303677946
 11
895.04296143105194
 21
670.30519303451968
  0
LINE
  8
_0-d_断熱__ハッチ
  6
CONTINUOUS
 62
    4
 10
892.81883524543014
 20
700.81359046760838
 11
923.32723267851918
 21
670.30519303451968
  0
LINE
  8
_0-d_断熱__ハッチ
  6
CONTINUOUS
 62
    4
 10
928.23120282953801
 20
670.30519303451968
 11
934.61092562942895
 21
676.68491583441039
  0
LINE
  8
_0-d_断熱__ハッチ
  6
CONTINUOUS
 62
    4
 10
899.9469315820761
 20
670.30519303451968
 11
916.67941618606756
 21
687.0376776385109
  0
LINE
  8
_0-d_断熱__ハッチ
  6
CONTINUOUS
 62
    4
 10
871.66266033461397
 20
670.30519303451968
 11
898.74790674270548
 21
697.39043944261141
  0
LINE
  8
_0-d_断熱__ハッチ
  6
CONTINUOUS
 62
    4
 10
843.37838908715548
 20
670.30519303451854
 11
876.77863908941561
 21
703.70544303677832
  0
LINE
  8
_0-d_断熱__ハッチ
  6
CONTINUOUS
 62
    4
 10
815.09411783968994
 20
670.30519303451968
 11
848.49436784194631
 21
703.70544303677605
  0
LINE
  8
_0-d_断熱__ハッチ
  6
CONTINUOUS
 62
    4
 10
786.80984659223236
 20
670.30519303451968
 11
820.2100965944885
 21
703.70544303677605
  0
LINE
  8
_0-d_断熱__ハッチ
  6
CONTINUOUS
 62
    4
 10
758.52557534476341
 20
670.3051930345174
 11
791.92582534701978
 21
703.70544303677377
  0
LINE
  8
_0-d_断熱__ハッチ
  6
CONTINUOUS
 62
    4
 10
728.64155409956629
 20
668.70544303677718
 11
763.64155409956675
 21
703.70544303677832
  0
LINE
  8
_0-d_断熱__ハッチ
  6
CONTINUOUS
 62
    4
 10
700.35728285210007
 20
668.70544303677832
 11
735.35728285209893
 21
703.70544303677718
  0
LINE
  8
_0-d_断熱__ハッチ
  6
CONTINUOUS
 62
    4
 10
672.07301160463908
 20
668.70544303677491
 11
707.07301160464021
 21
703.70544303677605
  0
LINE
  8
_0-d_断熱__ハッチ
  6
CONTINUOUS
 62
    4
 10
643.78874035717422
 20
668.70544303677718
 11
678.7887403571724
 21
703.70544303677491
  0
LINE
  8
_0-d_断熱__ハッチ
  6
CONTINUOUS
 62
    4
 10
637.08244999999715
 20
690.28342392705724
 11
650.50446910971823
 21
703.70544303677832
  0
ARC
  8
_0-1_線色１__水色__
  6
CONTINUOUS
 62
    4
 10
1209.0303013766943
 20
705.78983328574566
 40
1.2083333333333581
 50
337.76285982720822
 51
262.71583342851898
  0
ARC
  8
_0-1_線色１__水色__
  6
CONTINUOUS
 62
    4
 10
1464.121346309762
 20
705.24685970804342
 40
1.2083333333333179
 50
127.52351320610693
 51
240.02848683856323
  0
ARC
  8
_0-1_線色１__水色__
  6
CONTINUOUS
 62
    4
 10
1462.6493861653103
 20
707.1635263758759
 40
1.2083333333333581
 50
44.060610405113813
 51
232.47648680464988
  0
ARC
  8
_0-1_線色１__水色__
  6
CONTINUOUS
 62
    4
 10
1462.6493861653103
 20
707.1635263758759
 40
1.2083333333333581
 50
307.52351320333918
 51
315.93938959488617
  0
ARC
  8
_0-1_線色１__水色__
  6
CONTINUOUS
 62
    4
 10
1461.1774260210791
 20
705.24685970804342
 40
1.2083333333333179
 50
127.52351320610693
 51
52.47648680188081
  0
ARC
  8
_0-1_線色１__水色__
  6
CONTINUOUS
 62
    4
 10
1447.9297847218936
 20
707.1635263758759
 40
1.2083333333333581
 50
307.52351320333912
 51
232.47648680464988
  0
ARC
  8
_0-1_線色１__水色__
  6
CONTINUOUS
 62
    4
 10
1459.7054658766274
 20
707.1635263758759
 40
1.2083333333333581
 50
307.52351320333912
 51
232.47648680464988
  0
ARC
  8
_0-1_線色１__水色__
  6
CONTINUOUS
 62
    4
 10
1458.2335057323962
 20
705.24685970804342
 40
1.2083333333333179
 50
127.52351320610693
 51
52.47648680188081
  0
ARC
  8
_0-1_線色１__水色__
  6
CONTINUOUS
 62
    4
 10
1456.7615455879445
 20
707.1635263758759
 40
1.2083333333333581
 50
307.52351320333912
 51
232.47648680464988
  0
ARC
  8
_0-1_線色１__水色__
  6
CONTINUOUS
 62
    4
 10
1455.2895854437133
 20
705.24685970804342
 40
1.2083333333333179
 50
127.52351320610693
 51
52.47648680188081
  0
ARC
  8
_0-1_線色１__水色__
  6
CONTINUOUS
 62
    4
 10
1453.8176252992594
 20
707.1635263758759
 40
1.2083333333333581
 50
307.52351320333912
 51
232.47648680464988
  0
ARC
  8
_0-1_線色１__水色__
  6
CONTINUOUS
 62
    4
 10
1452.3456651550282
 20
705.24685970804342
 40
1.2083333333333179
 50
127.52351320610693
 51
52.47648680188081
  0
ARC
  8
_0-1_線色１__水色__
  6
CONTINUOUS
 62
    4
 10
1450.8737050105765
 20
707.1635263758759
 40
1.2083333333333581
 50
307.52351320333912
 51
232.47648680464988
  0
ARC
  8
_0-1_線色１__水色__
  6
CONTINUOUS
 62
    4
 10
1449.4017448663453
 20
705.24685970804342
 40
1.2083333333333179
 50
127.52351320610693
 51
52.47648680188081
  0
ARC
  8
_0-1_線色１__水色__
  6
CONTINUOUS
 62
    4
 10
1409.6588209692504
 20
707.1635263758759
 40
1.2083333333333581
 50
307.52351320333912
 51
232.47648680464988
  0
ARC
  8
_0-1_線色１__水色__
  6
CONTINUOUS
 62
    4
 10
1444.9858644332107
 20
707.1635263758759
 40
1.2083333333333581
 50
307.52351320333912
 51
232.47648680464988
  0
ARC
  8
_0-1_線色１__水色__
  6
CONTINUOUS
 62
    4
 10
1446.4578245776624
 20
705.24685970804342
 40
1.2083333333333179
 50
127.52351320610693
 51
52.47648680188081
  0
ARC
  8
_0-1_線色１__水色__
  6
CONTINUOUS
 62
    4
 10
1443.5139042892206
 20
705.24685970804342
 40
1.2083333333333179
 50
127.52351320610693
 51
52.47648680188081
  0
ARC
  8
_0-1_線色１__水色__
  6
CONTINUOUS
 62
    4
 10
1442.0419441447689
 20
707.1635263758759
 40
1.2083333333333581
 50
307.52351320333912
 51
232.47648680464988
  0
ARC
  8
_0-1_線色１__水色__
  6
CONTINUOUS
 62
    4
 10
1440.5699840005377
 20
705.24685970804342
 40
1.2083333333333179
 50
127.52351320610693
 51
52.47648680188081
  0
ARC
  8
_0-1_線色１__水色__
  6
CONTINUOUS
 62
    4
 10
1439.0980238560837
 20
707.1635263758759
 40
1.2083333333333581
 50
307.52351320333912
 51
232.47648680464988
  0
ARC
  8
_0-1_線色１__水色__
  6
CONTINUOUS
 62
    4
 10
1437.6260637118526
 20
705.24685970804342
 40
1.2083333333333179
 50
127.52351320610693
 51
52.47648680188081
  0
ARC
  8
_0-1_線色１__水色__
  6
CONTINUOUS
 62
    4
 10
1436.1541035674009
 20
707.1635263758759
 40
1.2083333333333581
 50
307.52351320333912
 51
232.47648680464988
  0
ARC
  8
_0-1_線色１__水色__
  6
CONTINUOUS
 62
    4
 10
1434.6821434231697
 20
705.24685970804342
 40
1.2083333333333179
 50
127.52351320610693
 51
52.47648680188081
  0
ARC
  8
_0-1_線色１__水色__
  6
CONTINUOUS
 62
    4
 10
1433.210183278718
 20
707.1635263758759
 40
1.2083333333333581
 50
307.52351320333912
 51
232.47648680464988
  0
ARC
  8
_0-1_線色１__水色__
  6
CONTINUOUS
 62
    4
 10
1431.7382231344868
 20
705.24685970804342
 40
1.2083333333333179
 50
127.52351320610693
 51
52.47648680188081
  0
ARC
  8
_0-1_線色１__水色__
  6
CONTINUOUS
 62
    4
 10
1430.2662629900351
 20
707.1635263758759
 40
1.2083333333333581
 50
307.52351320333912
 51
232.47648680464988
  0
ARC
  8
_0-1_線色１__水色__
  6
CONTINUOUS
 62
    4
 10
1428.7943028458039
 20
705.24685970804342
 40
1.2083333333333179
 50
127.52351320610693
 51
52.47648680188081
  0
ARC
  8
_0-1_線色１__水色__
  6
CONTINUOUS
 62
    4
 10
1427.32234270135
 20
707.1635263758759
 40
1.2083333333333581
 50
307.52351320333912
 51
232.47648680464988
  0
ARC
  8
_0-1_線色１__水色__
  6
CONTINUOUS
 62
    4
 10
1425.8503825571188
 20
705.24685970804342
 40
1.2083333333333179
 50
127.52351320610693
 51
52.47648680188081
  0
ARC
  8
_0-1_線色１__水色__
  6
CONTINUOUS
 62
    4
 10
1424.3784224126671
 20
707.1635263758759
 40
1.2083333333333581
 50
307.52351320333912
 51
232.47648680464988
  0
ARC
  8
_0-1_線色１__水色__
  6
CONTINUOUS
 62
    4
 10
1422.9064622684359
 20
705.24685970804342
 40
1.2083333333333179
 50
127.52351320610693
 51
52.47648680188081
  0
ARC
  8
_0-1_線色１__水色__
  6
CONTINUOUS
 62
    4
 10
1421.4345021239842
 20
707.1635263758759
 40
1.2083333333333581
 50
307.52351320333912
 51
232.47648680464988
  0
ARC
  8
_0-1_線色１__水色__
  6
CONTINUOUS
 62
    4
 10
1419.962541979753
 20
705.24685970804342
 40
1.2083333333333179
 50
127.52351320610693
 51
52.47648680188081
  0
ARC
  8
_0-1_線色１__水色__
  6
CONTINUOUS
 62
    4
 10
1418.4905818353013
 20
707.1635263758759
 40
1.2083333333333581
 50
307.52351320333912
 51
232.47648680464988
  0
ARC
  8
_0-1_線色１__水色__
  6
CONTINUOUS
 62
    4
 10
1417.0186216910702
 20
705.24685970804342
 40
1.2083333333333179
 50
127.52351320610693
 51
52.47648680188081
  0
ARC
  8
_0-1_線色１__水色__
  6
CONTINUOUS
 62
    4
 10
1415.5466615466162
 20
707.1635263758759
 40
1.2083333333333581
 50
307.52351320333912
 51
232.47648680464988
  0
ARC
  8
_0-1_線色１__水色__
  6
CONTINUOUS
 62
    4
 10
1414.074701402385
 20
705.24685970804342
 40
1.2083333333333179
 50
127.52351320610693
 51
52.47648680188081
  0
ARC
  8
_0-1_線色１__水色__
  6
CONTINUOUS
 62
    4
 10
1412.6027412579333
 20
707.1635263758759
 40
1.2083333333333581
 50
307.52351320333912
 51
232.47648680464988
  0
ARC
  8
_0-1_線色１__水色__
  6
CONTINUOUS
 62
    4
 10
1411.1307811137021
 20
705.24685970804342
 40
1.2083333333333179
 50
127.52351320610693
 51
52.47648680188081
  0
ARC
  8
_0-1_線色１__水色__
  6
CONTINUOUS
 62
    4
 10
1371.3878572166072
 20
707.1635263758759
 40
1.2083333333333581
 50
307.52351320333912
 51
232.47648680464988
  0
ARC
  8
_0-1_線色１__水色__
  6
CONTINUOUS
 62
    4
 10
1406.7149006805676
 20
707.1635263758759
 40
1.2083333333333581
 50
307.52351320333912
 51
232.47648680464988
  0
ARC
  8
_0-1_線色１__水色__
  6
CONTINUOUS
 62
    4
 10
1408.1868608250193
 20
705.24685970804342
 40
1.2083333333333179
 50
127.52351320610693
 51
52.47648680188081
  0
ARC
  8
_0-1_線色１__水色__
  6
CONTINUOUS
 62
    4
 10
1405.2429405365774
 20
705.24685970804342
 40
1.2083333333333179
 50
127.52351320610693
 51
52.47648680188081
  0
ARC
  8
_0-1_線色１__水色__
  6
CONTINUOUS
 62
    4
 10
1403.7709803921257
 20
707.1635263758759
 40
1.2083333333333581
 50
307.52351320333912
 51
232.47648680464988
  0
ARC
  8
_0-1_線色１__水色__
  6
CONTINUOUS
 62
    4
 10
1402.2990202478945
 20
705.24685970804342
 40
1.2083333333333179
 50
127.52351320610693
 51
52.47648680188081
  0
ARC
  8
_0-1_線色１__水色__
  6
CONTINUOUS
 62
    4
 10
1400.8270601034405
 20
707.1635263758759
 40
1.2083333333333581
 50
307.52351320333912
 51
232.47648680464988
  0
ARC
  8
_0-1_線色１__水色__
  6
CONTINUOUS
 62
    4
 10
1399.3550999592094
 20
705.24685970804342
 40
1.2083333333333179
 50
127.52351320610693
 51
52.47648680188081
  0
ARC
  8
_0-1_線色１__水色__
  6
CONTINUOUS
 62
    4
 10
1397.8831398147577
 20
707.1635263758759
 40
1.2083333333333581
 50
307.52351320333912
 51
232.47648680464988
  0
ARC
  8
_0-1_線色１__水色__
  6
CONTINUOUS
 62
    4
 10
1396.4111796705265
 20
705.24685970804342
 40
1.2083333333333179
 50
127.52351320610693
 51
52.47648680188081
  0
ARC
  8
_0-1_線色１__水色__
  6
CONTINUOUS
 62
    4
 10
1394.9392195260748
 20
707.1635263758759
 40
1.2083333333333581
 50
307.52351320333912
 51
232.47648680464988
  0
ARC
  8
_0-1_線色１__水色__
  6
CONTINUOUS
 62
    4
 10
1393.4672593818436
 20
705.24685970804342
 40
1.2083333333333179
 50
127.52351320610693
 51
52.47648680188081
  0
ARC
  8
_0-1_線色１__水色__
  6
CONTINUOUS
 62
    4
 10
1391.9952992373919
 20
707.1635263758759
 40
1.2083333333333581
 50
307.52351320333912
 51
232.47648680464988
  0
ARC
  8
_0-1_線色１__水色__
  6
CONTINUOUS
 62
    4
 10
1390.5233390931608
 20
705.24685970804342
 40
1.2083333333333179
 50
127.52351320610693
 51
52.47648680188081
  0
ARC
  8
_0-1_線色１__水色__
  6
CONTINUOUS
 62
    4
 10
1389.0513789487068
 20
707.1635263758759
 40
1.2083333333333581
 50
307.52351320333912
 51
232.47648680464988
  0
ARC
  8
_0-1_線色１__水色__
  6
CONTINUOUS
 62
    4
 10
1387.5794188044756
 20
705.24685970804342
 40
1.2083333333333179
 50
127.52351320610693
 51
52.47648680188081
  0
ARC
  8
_0-1_線色１__水色__
  6
CONTINUOUS
 62
    4
 10
1386.1074586600239
 20
707.1635263758759
 40
1.2083333333333581
 50
307.52351320333912
 51
232.47648680464988
  0
ARC
  8
_0-1_線色１__水色__
  6
CONTINUOUS
 62
    4
 10
1384.6354985157927
 20
705.24685970804342
 40
1.2083333333333179
 50
127.52351320610693
 51
52.47648680188081
  0
ARC
  8
_0-1_線色１__水色__
  6
CONTINUOUS
 62
    4
 10
1383.163538371341
 20
707.1635263758759
 40
1.2083333333333581
 50
307.52351320333912
 51
232.47648680464988
  0
ARC
  8
_0-1_線色１__水色__
  6
CONTINUOUS
 62
    4
 10
1381.6915782271099
 20
705.24685970804342
 40
1.2083333333333179
 50
127.52351320610693
 51
52.47648680188081
  0
ARC
  8
_0-1_線色１__水色__
  6
CONTINUOUS
 62
    4
 10
1380.2196180826581
 20
707.1635263758759
 40
1.2083333333333581
 50
307.52351320333912
 51
232.47648680464988
  0
ARC
  8
_0-1_線色１__水色__
  6
CONTINUOUS
 62
    4
 10
1378.747657938427
 20
705.24685970804342
 40
1.2083333333333179
 50
127.52351320610693
 51
52.47648680188081
  0
ARC
  8
_0-1_線色１__水色__
  6
CONTINUOUS
 62
    4
 10
1377.275697793973
 20
707.1635263758759
 40
1.2083333333333581
 50
307.52351320333912
 51
232.47648680464988
  0
ARC
  8
_0-1_線色１__水色__
  6
CONTINUOUS
 62
    4
 10
1375.8037376497418
 20
705.24685970804342
 40
1.2083333333333179
 50
127.52351320610693
 51
52.47648680188081
  0
ARC
  8
_0-1_線色１__水色__
  6
CONTINUOUS
 62
    4
 10
1374.3317775052901
 20
707.1635263758759
 40
1.2083333333333581
 50
307.52351320333912
 51
232.47648680464988
  0
ARC
  8
_0-1_線色１__水色__
  6
CONTINUOUS
 62
    4
 10
1372.859817361059
 20
705.24685970804342
 40
1.2083333333333179
 50
127.52351320610693
 51
52.47648680188081
  0
ARC
  8
_0-1_線色１__水色__
  6
CONTINUOUS
 62
    4
 10
1333.1168934639641
 20
707.1635263758759
 40
1.2083333333333581
 50
307.52351320333912
 51
232.47648680464988
  0
ARC
  8
_0-1_線色１__水色__
  6
CONTINUOUS
 62
    4
 10
1368.4439369279244
 20
707.1635263758759
 40
1.2083333333333581
 50
307.52351320333912
 51
232.47648680464988
  0
ARC
  8
_0-1_線色１__水色__
  6
CONTINUOUS
 62
    4
 10
1369.9158970723761
 20
705.24685970804342
 40
1.2083333333333179
 50
127.52351320610693
 51
52.47648680188081
  0
ARC
  8
_0-1_線色１__水色__
  6
CONTINUOUS
 62
    4
 10
1366.9719767839342
 20
705.24685970804342
 40
1.2083333333333179
 50
127.52351320610693
 51
52.47648680188081
  0
ARC
  8
_0-1_線色１__水色__
  6
CONTINUOUS
 62
    4
 10
1365.5000166394825
 20
707.1635263758759
 40
1.2083333333333581
 50
307.52351320333912
 51
232.47648680464988
  0
ARC
  8
_0-1_線色１__水色__
  6
CONTINUOUS
 62
    4
 10
1364.0280564952513
 20
705.24685970804342
 40
1.2083333333333179
 50
127.52351320610693
 51
52.47648680188081
  0
ARC
  8
_0-1_線色１__水色__
  6
CONTINUOUS
 62
    4
 10
1362.5560963507974
 20
707.1635263758759
 40
1.2083333333333581
 50
307.52351320333912
 51
232.47648680464988
  0
ARC
  8
_0-1_線色１__水色__
  6
CONTINUOUS
 62
    4
 10
1361.0841362065662
 20
705.24685970804342
 40
1.2083333333333179
 50
127.52351320610693
 51
52.47648680188081
  0
ARC
  8
_0-1_線色１__水色__
  6
CONTINUOUS
 62
    4
 10
1359.6121760621145
 20
707.1635263758759
 40
1.2083333333333581
 50
307.52351320333912
 51
232.47648680464988
  0
ARC
  8
_0-1_線色１__水色__
  6
CONTINUOUS
 62
    4
 10
1358.1402159178833
 20
705.24685970804342
 40
1.2083333333333179
 50
127.52351320610693
 51
52.47648680188081
  0
ARC
  8
_0-1_線色１__水色__
  6
CONTINUOUS
 62
    4
 10
1356.6682557734316
 20
707.1635263758759
 40
1.2083333333333581
 50
307.52351320333912
 51
232.47648680464988
  0
ARC
  8
_0-1_線色１__水色__
  6
CONTINUOUS
 62
    4
 10
1355.1962956292004
 20
705.24685970804342
 40
1.2083333333333179
 50
127.52351320610693
 51
52.47648680188081
  0
ARC
  8
_0-1_線色１__水色__
  6
CONTINUOUS
 62
    4
 10
1353.7243354847487
 20
707.1635263758759
 40
1.2083333333333581
 50
307.52351320333912
 51
232.47648680464988
  0
ARC
  8
_0-1_線色１__水色__
  6
CONTINUOUS
 62
    4
 10
1352.2523753405176
 20
705.24685970804342
 40
1.2083333333333179
 50
127.52351320610693
 51
52.47648680188081
  0
ARC
  8
_0-1_線色１__水色__
  6
CONTINUOUS
 62
    4
 10
1350.7804151960636
 20
707.1635263758759
 40
1.2083333333333581
 50
307.52351320333912
 51
232.47648680464988
  0
ARC
  8
_0-1_線色１__水色__
  6
CONTINUOUS
 62
    4
 10
1349.3084550518324
 20
705.24685970804342
 40
1.2083333333333179
 50
127.52351320610693
 51
52.47648680188081
  0
ARC
  8
_0-1_線色１__水色__
  6
CONTINUOUS
 62
    4
 10
1347.8364949073807
 20
707.1635263758759
 40
1.2083333333333581
 50
307.52351320333912
 51
232.47648680464988
  0
ARC
  8
_0-1_線色１__水色__
  6
CONTINUOUS
 62
    4
 10
1346.3645347631495
 20
705.24685970804342
 40
1.2083333333333179
 50
127.52351320610693
 51
52.47648680188081
  0
ARC
  8
_0-1_線色１__水色__
  6
CONTINUOUS
 62
    4
 10
1344.8925746186978
 20
707.1635263758759
 40
1.2083333333333581
 50
307.52351320333912
 51
232.47648680464988
  0
ARC
  8
_0-1_線色１__水色__
  6
CONTINUOUS
 62
    4
 10
1343.4206144744667
 20
705.24685970804342
 40
1.2083333333333179
 50
127.52351320610693
 51
52.47648680188081
  0
ARC
  8
_0-1_線色１__水色__
  6
CONTINUOUS
 62
    4
 10
1341.948654330015
 20
707.1635263758759
 40
1.2083333333333581
 50
307.52351320333912
 51
232.47648680464988
  0
ARC
  8
_0-1_線色１__水色__
  6
CONTINUOUS
 62
    4
 10
1340.4766941857838
 20
705.24685970804342
 40
1.2083333333333179
 50
127.52351320610693
 51
52.47648680188081
  0
ARC
  8
_0-1_線色１__水色__
  6
CONTINUOUS
 62
    4
 10
1339.0047340413298
 20
707.1635263758759
 40
1.2083333333333581
 50
307.52351320333912
 51
232.47648680464988
  0
ARC
  8
_0-1_線色１__水色__
  6
CONTINUOUS
 62
    4
 10
1337.5327738970987
 20
705.24685970804342
 40
1.2083333333333179
 50
127.52351320610693
 51
52.47648680188081
  0
ARC
  8
_0-1_線色１__水色__
  6
CONTINUOUS
 62
    4
 10
1336.0608137526469
 20
707.1635263758759
 40
1.2083333333333581
 50
307.52351320333912
 51
232.47648680464988
  0
ARC
  8
_0-1_線色１__水色__
  6
CONTINUOUS
 62
    4
 10
1334.5888536084158
 20
705.24685970804342
 40
1.2083333333333179
 50
127.52351320610693
 51
52.47648680188081
  0
ARC
  8
_0-1_線色１__水色__
  6
CONTINUOUS
 62
    4
 10
1294.8459297113209
 20
707.1635263758759
 40
1.2083333333333581
 50
307.52351320333912
 51
232.47648680464988
  0
ARC
  8
_0-1_線色１__水色__
  6
CONTINUOUS
 62
    4
 10
1330.1729731752812
 20
707.1635263758759
 40
1.2083333333333581
 50
307.52351320333912
 51
232.47648680464988
  0
ARC
  8
_0-1_線色１__水色__
  6
CONTINUOUS
 62
    4
 10
1331.6449333197329
 20
705.24685970804342
 40
1.2083333333333179
 50
127.52351320610693
 51
52.47648680188081
  0
ARC
  8
_0-1_線色１__水色__
  6
CONTINUOUS
 62
    4
 10
1328.701013031291
 20
705.24685970804342
 40
1.2083333333333179
 50
127.52351320610693
 51
52.47648680188081
  0
ARC
  8
_0-1_線色１__水色__
  6
CONTINUOUS
 62
    4
 10
1327.2290528868393
 20
707.1635263758759
 40
1.2083333333333581
 50
307.52351320333912
 51
232.47648680464988
  0
ARC
  8
_0-1_線色１__水色__
  6
CONTINUOUS
 62
    4
 10
1325.7570927426082
 20
705.24685970804342
 40
1.2083333333333179
 50
127.52351320610693
 51
52.47648680188081
  0
ARC
  8
_0-1_線色１__水色__
  6
CONTINUOUS
 62
    4
 10
1324.2851325981542
 20
707.1635263758759
 40
1.2083333333333581
 50
307.52351320333912
 51
232.47648680464988
  0
ARC
  8
_0-1_線色１__水色__
  6
CONTINUOUS
 62
    4
 10
1322.813172453923
 20
705.24685970804342
 40
1.2083333333333179
 50
127.52351320610693
 51
52.47648680188081
  0
ARC
  8
_0-1_線色１__水色__
  6
CONTINUOUS
 62
    4
 10
1321.3412123094713
 20
707.1635263758759
 40
1.2083333333333581
 50
307.52351320333912
 51
232.47648680464988
  0
ARC
  8
_0-1_線色１__水色__
  6
CONTINUOUS
 62
    4
 10
1319.8692521652401
 20
705.24685970804342
 40
1.2083333333333179
 50
127.52351320610693
 51
52.47648680188081
  0
ARC
  8
_0-1_線色１__水色__
  6
CONTINUOUS
 62
    4
 10
1318.3972920207884
 20
707.1635263758759
 40
1.2083333333333581
 50
307.52351320333912
 51
232.47648680464988
  0
ARC
  8
_0-1_線色１__水色__
  6
CONTINUOUS
 62
    4
 10
1316.9253318765573
 20
705.24685970804342
 40
1.2083333333333179
 50
127.52351320610693
 51
52.47648680188081
  0
ARC
  8
_0-1_線色１__水色__
  6
CONTINUOUS
 62
    4
 10
1315.4533717321056
 20
707.1635263758759
 40
1.2083333333333581
 50
307.52351320333912
 51
232.47648680464988
  0
ARC
  8
_0-1_線色１__水色__
  6
CONTINUOUS
 62
    4
 10
1313.9814115878744
 20
705.24685970804342
 40
1.2083333333333179
 50
127.52351320610693
 51
52.47648680188081
  0
ARC
  8
_0-1_線色１__水色__
  6
CONTINUOUS
 62
    4
 10
1312.5094514434204
 20
707.1635263758759
 40
1.2083333333333581
 50
307.52351320333912
 51
232.47648680464988
  0
ARC
  8
_0-1_線色１__水色__
  6
CONTINUOUS
 62
    4
 10
1311.0374912991892
 20
705.24685970804342
 40
1.2083333333333179
 50
127.52351320610693
 51
52.47648680188081
  0
ARC
  8
_0-1_線色１__水色__
  6
CONTINUOUS
 62
    4
 10
1309.5655311547375
 20
707.1635263758759
 40
1.2083333333333581
 50
307.52351320333912
 51
232.47648680464988
  0
ARC
  8
_0-1_線色１__水色__
  6
CONTINUOUS
 62
    4
 10
1308.0935710105064
 20
705.24685970804342
 40
1.2083333333333179
 50
127.52351320610693
 51
52.47648680188081
  0
ARC
  8
_0-1_線色１__水色__
  6
CONTINUOUS
 62
    4
 10
1306.6216108660547
 20
707.1635263758759
 40
1.2083333333333581
 50
307.52351320333912
 51
232.47648680464988
  0
ARC
  8
_0-1_線色１__水色__
  6
CONTINUOUS
 62
    4
 10
1305.1496507218235
 20
705.24685970804342
 40
1.2083333333333179
 50
127.52351320610693
 51
52.47648680188081
  0
ARC
  8
_0-1_線色１__水色__
  6
CONTINUOUS
 62
    4
 10
1303.6776905773718
 20
707.1635263758759
 40
1.2083333333333581
 50
307.52351320333912
 51
232.47648680464988
  0
ARC
  8
_0-1_線色１__水色__
  6
CONTINUOUS
 62
    4
 10
1302.2057304331406
 20
705.24685970804342
 40
1.2083333333333179
 50
127.52351320610693
 51
52.47648680188081
  0
ARC
  8
_0-1_線色１__水色__
  6
CONTINUOUS
 62
    4
 10
1300.7337702886866
 20
707.1635263758759
 40
1.2083333333333581
 50
307.52351320333912
 51
232.47648680464988
  0
ARC
  8
_0-1_線色１__水色__
  6
CONTINUOUS
 62
    4
 10
1299.2618101444555
 20
705.24685970804342
 40
1.2083333333333179
 50
127.52351320610693
 51
52.47648680188081
  0
ARC
  8
_0-1_線色１__水色__
  6
CONTINUOUS
 62
    4
 10
1297.7898500000038
 20
707.1635263758759
 40
1.2083333333333581
 50
307.52351320333912
 51
232.47648680464988
  0
ARC
  8
_0-1_線色１__水色__
  6
CONTINUOUS
 62
    4
 10
1296.3178898557726
 20
705.24685970804342
 40
1.2083333333333179
 50
127.52351320610693
 51
52.47648680188081
  0
ARC
  8
_0-1_線色１__水色__
  6
CONTINUOUS
 62
    4
 10
1291.902009422638
 20
707.1635263758759
 40
1.2083333333333581
 50
307.52351320333912
 51
232.47648680464988
  0
ARC
  8
_0-1_線色１__水色__
  6
CONTINUOUS
 62
    4
 10
1293.3739695670897
 20
705.24685970804342
 40
1.2083333333333179
 50
127.52351320610693
 51
52.47648680188081
  0
ARC
  8
_0-1_線色１__水色__
  6
CONTINUOUS
 62
    4
 10
1290.4300492786479
 20
705.24685970804342
 40
1.2083333333333179
 50
127.52351320610693
 51
52.47648680188081
  0
ARC
  8
_0-1_線色１__水色__
  6
CONTINUOUS
 62
    4
 10
1288.9580891341961
 20
707.1635263758759
 40
1.2083333333333581
 50
307.52351320333912
 51
232.47648680464988
  0
ARC
  8
_0-1_線色１__水色__
  6
CONTINUOUS
 62
    4
 10
1287.486128989965
 20
705.24685970804342
 40
1.2083333333333179
 50
127.52351320610693
 51
52.47648680188081
  0
ARC
  8
_0-1_線色１__水色__
  6
CONTINUOUS
 62
    4
 10
1286.014168845511
 20
707.1635263758759
 40
1.2083333333333581
 50
307.52351320333912
 51
232.47648680464988
  0
ARC
  8
_0-1_線色１__水色__
  6
CONTINUOUS
 62
    4
 10
1284.5422087012798
 20
705.24685970804342
 40
1.2083333333333179
 50
127.52351320610693
 51
52.47648680188081
  0
ARC
  8
_0-1_線色１__水色__
  6
CONTINUOUS
 62
    4
 10
1283.0702485568281
 20
707.1635263758759
 40
1.2083333333333581
 50
307.52351320333912
 51
232.47648680464988
  0
ARC
  8
_0-1_線色１__水色__
  6
CONTINUOUS
 62
    4
 10
1281.598288412597
 20
705.24685970804342
 40
1.2083333333333179
 50
127.52351320610693
 51
52.47648680188081
  0
ARC
  8
_0-1_線色１__水色__
  6
CONTINUOUS
 62
    4
 10
1280.1263282681452
 20
707.1635263758759
 40
1.2083333333333581
 50
307.52351320333912
 51
232.47648680464988
  0
ARC
  8
_0-1_線色１__水色__
  6
CONTINUOUS
 62
    4
 10
1278.6543681239141
 20
705.24685970804342
 40
1.2083333333333179
 50
127.52351320610693
 51
52.47648680188081
  0
ARC
  8
_0-1_線色１__水色__
  6
CONTINUOUS
 62
    4
 10
1277.1824079794624
 20
707.1635263758759
 40
1.2083333333333581
 50
307.52351320333912
 51
232.47648680464988
  0
ARC
  8
_0-1_線色１__水色__
  6
CONTINUOUS
 62
    4
 10
1275.7104478352312
 20
705.24685970804342
 40
1.2083333333333179
 50
127.52351320610693
 51
52.47648680188081
  0
ARC
  8
_0-1_線色１__水色__
  6
CONTINUOUS
 62
    4
 10
1274.2384876907772
 20
707.1635263758759
 40
1.2083333333333581
 50
307.52351320333912
 51
232.47648680464988
  0
ARC
  8
_0-1_線色１__水色__
  6
CONTINUOUS
 62
    4
 10
1272.7665275465461
 20
705.24685970804342
 40
1.2083333333333179
 50
127.52351320610693
 51
52.47648680188081
  0
ARC
  8
_0-1_線色１__水色__
  6
CONTINUOUS
 62
    4
 10
1271.2945674020943
 20
707.1635263758759
 40
1.2083333333333581
 50
307.52351320333912
 51
232.47648680464988
  0
ARC
  8
_0-1_線色１__水色__
  6
CONTINUOUS
 62
    4
 10
1269.8226072578632
 20
705.24685970804342
 40
1.2083333333333179
 50
127.52351320610693
 51
52.47648680188081
  0
ARC
  8
_0-1_線色１__水色__
  6
CONTINUOUS
 62
    4
 10
1268.3506471134115
 20
707.1635263758759
 40
1.2083333333333581
 50
307.52351320333912
 51
232.47648680464988
  0
ARC
  8
_0-1_線色１__水色__
  6
CONTINUOUS
 62
    4
 10
1266.8786869691803
 20
705.24685970804342
 40
1.2083333333333179
 50
127.52351320610693
 51
52.47648680188081
  0
ARC
  8
_0-1_線色１__水色__
  6
CONTINUOUS
 62
    4
 10
1265.4067268247286
 20
707.1635263758759
 40
1.2083333333333581
 50
307.52351320333912
 51
232.47648680464988
  0
ARC
  8
_0-1_線色１__水色__
  6
CONTINUOUS
 62
    4
 10
1263.9347666804974
 20
705.24685970804342
 40
1.2083333333333179
 50
127.52351320610693
 51
52.47648680188081
  0
ARC
  8
_0-1_線色１__水色__
  6
CONTINUOUS
 62
    4
 10
1262.4628065360434
 20
707.1635263758759
 40
1.2083333333333581
 50
307.52351320333912
 51
232.47648680464988
  0
ARC
  8
_0-1_線色１__水色__
  6
CONTINUOUS
 62
    4
 10
1260.9908463918123
 20
705.24685970804342
 40
1.2083333333333179
 50
127.52351320610693
 51
52.47648680188081
  0
ARC
  8
_0-1_線色１__水色__
  6
CONTINUOUS
 62
    4
 10
1259.5188862473606
 20
707.1635263758759
 40
1.2083333333333581
 50
307.52351320333912
 51
232.47648680464988
  0
ARC
  8
_0-1_線色１__水色__
  6
CONTINUOUS
 62
    4
 10
1258.0469261031294
 20
705.24685970804342
 40
1.2083333333333179
 50
127.52351320610693
 51
52.47648680188081
  0
ARC
  8
_0-1_線色１__水色__
  6
CONTINUOUS
 62
    4
 10
1256.5749659586777
 20
707.1635263758759
 40
1.2083333333333581
 50
307.52351320333912
 51
232.47648680464988
  0
ARC
  8
_0-1_線色１__水色__
  6
CONTINUOUS
 62
    4
 10
1255.1030058144465
 20
705.24685970804342
 40
1.2083333333333179
 50
127.52351320610693
 51
52.47648680188081
  0
ARC
  8
_0-1_線色１__水色__
  6
CONTINUOUS
 62
    4
 10
1253.6310456699948
 20
707.1635263758759
 40
1.2083333333333581
 50
307.52351320333912
 51
232.47648680464988
  0
ARC
  8
_0-1_線色１__水色__
  6
CONTINUOUS
 62
    4
 10
1252.1590855257637
 20
705.24685970804342
 40
1.2083333333333179
 50
127.52351320610693
 51
52.47648680188081
  0
ARC
  8
_0-1_線色１__水色__
  6
CONTINUOUS
 62
    4
 10
1234.4955637936869
 20
705.24685970804342
 40
1.2083333333333179
 50
127.52351320610693
 51
52.47648680188081
  0
ARC
  8
_0-1_線色１__水色__
  6
CONTINUOUS
 62
    4
 10
1237.4394840823697
 20
705.24685970825033
 40
1.2083333333333179
 50
127.52351320610693
 51
52.47648680188081
  0
ARC
  8
_0-1_線色１__水色__
  6
CONTINUOUS
 62
    4
 10
1235.967523937893
 20
707.16352637484817
 40
1.2083333333333581
 50
307.52351320333912
 51
232.47648680464988
  0
ARC
  8
_0-1_線色１__水色__
  6
CONTINUOUS
 62
    4
 10
1240.3834043710526
 20
705.24685970845496
 40
1.2083333333333179
 50
127.52351320610693
 51
52.47648680188081
  0
ARC
  8
_0-1_線色１__水色__
  6
CONTINUOUS
 62
    4
 10
1238.9114442265782
 20
707.16352637505508
 40
1.2083333333333581
 50
307.52351320333912
 51
232.47648680464988
  0
ARC
  8
_0-1_線色１__水色__
  6
CONTINUOUS
 62
    4
 10
1243.3273246597355
 20
705.2468597086596
 40
1.2083333333333179
 50
127.52351320610693
 51
52.47648680188081
  0
ARC
  8
_0-1_線色１__水色__
  6
CONTINUOUS
 62
    4
 10
1241.855364515261
 20
707.16352637525972
 40
1.2083333333333581
 50
307.52351320333912
 51
232.47648680464988
  0
ARC
  8
_0-1_線色１__水色__
  6
CONTINUOUS
 62
    4
 10
1246.2712449484184
 20
705.24685970886424
 40
1.2083333333333179
 50
127.52351320610693
 51
52.47648680188081
  0
ARC
  8
_0-1_線色１__水色__
  6
CONTINUOUS
 62
    4
 10
1244.7992848039439
 20
707.16352637546436
 40
1.2083333333333581
 50
307.52351320333912
 51
232.47648680464988
  0
ARC
  8
_0-1_線色１__水色__
  6
CONTINUOUS
 62
    4
 10
1249.2151652371035
 20
705.24685970906887
 40
1.2083333333333179
 50
127.52351320610693
 51
52.47648680188081
  0
ARC
  8
_0-1_線色１__水色__
  6
CONTINUOUS
 62
    4
 10
1247.7432050926268
 20
707.16352637566899
 40
1.2083333333333581
 50
307.52351320333912
 51
232.47648680464988
  0
ARC
  8
_0-1_線色１__水色__
  6
CONTINUOUS
 62
    4
 10
1250.6871253813097
 20
707.1635263758759
 40
1.2083333333333581
 50
307.52351320333912
 51
232.47648680464988
  0
ARC
  8
_0-1_線色１__水色__
  6
CONTINUOUS
 62
    4
 10
1216.8320420616101
 20
705.24685970804342
 40
1.2083333333333179
 50
127.52351320610693
 51
52.47648680188081
  0
ARC
  8
_0-1_線色１__水色__
  6
CONTINUOUS
 62
    4
 10
1219.775962350293
 20
705.24685970825033
 40
1.2083333333333179
 50
127.52351320610693
 51
52.47648680188081
  0
ARC
  8
_0-1_線色１__水色__
  6
CONTINUOUS
 62
    4
 10
1218.3040022058162
 20
707.16352637484817
 40
1.2083333333333581
 50
307.52351320333912
 51
232.47648680464988
  0
ARC
  8
_0-1_線色１__水色__
  6
CONTINUOUS
 62
    4
 10
1222.7198826389758
 20
705.24685970845496
 40
1.2083333333333179
 50
127.52351320610693
 51
52.47648680188081
  0
ARC
  8
_0-1_線色１__水色__
  6
CONTINUOUS
 62
    4
 10
1221.2479224945014
 20
707.16352637505508
 40
1.2083333333333581
 50
307.52351320333912
 51
232.47648680464988
  0
ARC
  8
_0-1_線色１__水色__
  6
CONTINUOUS
 62
    4
 10
1225.6638029276587
 20
705.2468597086596
 40
1.2083333333333179
 50
127.52351320610693
 51
52.47648680188081
  0
ARC
  8
_0-1_線色１__水色__
  6
CONTINUOUS
 62
    4
 10
1224.1918427831843
 20
707.16352637525972
 40
1.2083333333333581
 50
307.52351320333912
 51
232.47648680464988
  0
ARC
  8
_0-1_線色１__水色__
  6
CONTINUOUS
 62
    4
 10
1228.6077232163416
 20
705.24685970886424
 40
1.2083333333333179
 50
127.52351320610693
 51
52.47648680188081
  0
ARC
  8
_0-1_線色１__水色__
  6
CONTINUOUS
 62
    4
 10
1227.1357630718671
 20
707.16352637546436
 40
1.2083333333333581
 50
307.52351320333912
 51
232.47648680464988
  0
ARC
  8
_0-1_線色１__水色__
  6
CONTINUOUS
 62
    4
 10
1231.5516435050267
 20
705.24685970906887
 40
1.2083333333333179
 50
127.52351320610693
 51
52.47648680188081
  0
ARC
  8
_0-1_線色１__水色__
  6
CONTINUOUS
 62
    4
 10
1230.07968336055
 20
707.16352637566899
 40
1.2083333333333581
 50
307.52351320333912
 51
232.47648680464988
  0
ARC
  8
_0-1_線色１__水色__
  6
CONTINUOUS
 62
    4
 10
1233.0236036492329
 20
707.1635263758759
 40
1.2083333333333581
 50
307.52351320333912
 51
232.47648680464988
  0
ARC
  8
_0-1_線色１__水色__
  6
CONTINUOUS
 62
    4
 10
1213.8881217729499
 20
705.24685970906887
 40
1.2083333333333179
 50
127.52351320610693
 51
52.47648680188081
  0
ARC
  8
_0-1_線色１__水色__
  6
CONTINUOUS
 62
    4
 10
1215.3600819171561
 20
707.1635263758759
 40
1.2083333333333581
 50
307.52351320333912
 51
232.47648680464988
  0
ARC
  8
_0-1_線色１__水色__
  6
CONTINUOUS
 62
    4
 10
1212.4161616284732
 20
707.16352637566899
 40
1.2083333333333581
 50
307.52351320333912
 51
232.47648680464988
  0
ARC
  8
_0-1_線色１__水色__
  6
CONTINUOUS
 62
    4
 10
1211.2672295886114
 20
704.87526784111708
 40
1.2083333333333179
 50
157.76285982997595
 51
82.715833425749906
  0
ENDSEC
  0
EOF
