  0
SECTION
  2
HEADER
  9
$ACADVER
  1
AC1009
  9
$INSBASE
 10
0
 20
0
 30
0
  9
$EXTMIN
 10
0
 20
0
  9
$EXTMAX
 10
2100
 20
1485
  9
$LIMMIN
 10
0
 20
0
  9
$LIMMAX
 10
2100
 20
1485
  9
$LTSCALE
 40
5
  0
ENDSEC
  0
SECTION
  2
TABLES
  0
TABLE
  2
LTYPE
 70
     9
  0
LTYPE
  2
CONTINUOUS
 70
    64
  3
実線
 72
    65
 73
     0
 40
0.0
  0
LTYPE
  2
DASHED1
 70
    64
  3
--  --  --  --  --  --  --  --  
 72
    65
 73
     2
 40
2.5
 49
1.25
 49
-1.25
  0
LTYPE
  2
DASHED2
 70
    64
  3
----    ----    ----    ----    
 72
    65
 73
     2
 40
5.0
 49
2.5
 49
-2.5
  0
LTYPE
  2
DASHED3
 70
    64
  3
------  ------  ------  ------  
 72
    65
 73
     2
 40
5.0
 49
3.75
 49
-1.25
  0
LTYPE
  2
CENTER1
 70
    64
  3
----- - ----- - ----- - ----- - 
 72
    65
 73
     4
 40
10.0
 49
6.25
 49
-1.25
 49
1.25
 49
-1.25
  0
LTYPE
  2
CENTER2
 70
    64
  3
----------  --  ----------  --  
 72
    65
 73
     4
 40
20.0
 49
12.5
 49
-2.5
 49
2.5
 49
-2.5
  0
LTYPE
  2
PHANTOM1
 70
    64
  3
--- - - --- - - --- - - --- - - 
 72
    65
 73
     6
 40
10.0
 49
3.25
 49
-1.25
 49
1.25
 49
-1.25
 49
1.25
 49
-1.25
  0
LTYPE
  2
PHANTOM2
 70
    64
  3
--------  -  -  --------  -  -  
 72
    65
 73
     6
 40
20.0
 49
10.0
 49
-2.5
 49
1.25
 49
-2.5
 49
1.25
 49
-2.5
  0
LTYPE
  2
DOT
 70
    64
  3
-   -   -   -   -   -   -   -   
 72
    65
 73
     2
 40
2.5
 49
0.625
 49
-1.875
  0
LTYPE
  2
DUMMY
 70
    64
  3
ダミー
 72
    65
 73
     0
 40
0.0
  0
LTYPE
  2
RAND1
 70
    64
  3
ランダム線1
 72
    65
 73
     4
 40
10.0
 49
1.0
 49
-2.0
 49
3.0
 49
-4.0
  0
LTYPE
  2
RAND2
 70
    64
  3
ランダム線2
 72
    65
 73
     4
 40
14.0
 49
2.0
 49
-3.0
 49
4.0
 49
-5.0
  0
LTYPE
  2
RAND3
 70
    64
  3
ランダム線3
 72
    65
 73
     4
 40
18.0
 49
3.0
 49
-4.0
 49
5.0
 49
-6.0
  0
LTYPE
  2
RAND4
 70
    64
  3
ランダム線4
 72
    65
 73
     4
 40
22.0
 49
4.0
 49
-5.0
 49
6.0
 49
-7.0
  0
LTYPE
  2
RAND5
 70
    64
  3
ランダム線5
 72
    65
 73
     4
 40
26.0
 49
5.0
 49
-6.0
 49
7.0
 49
-8.0
  0
LTYPE
  2
LONG1
 70
    64
  3
----------  --  ----------  --  
 72
    65
 73
     4
 40
40.0
 49
32.5
 49
-2.5
 49
2.5
 49
-2.5
  0
LTYPE
  2
LONG2
 70
    64
  3
--------  -  -  --------  -  -  
 72
    65
 73
     6
 40
40.0
 49
30.0
 49
-2.5
 49
1.25
 49
-2.5
 49
1.25
 49
-2.5
  0
LTYPE
  2
LONG3
 70
    64
  3
+++++++++++++++..+++++++++++++++
 72
    65
 73
     2
 40
40.0
 49
37.5
 49
-2.5
  0
LTYPE
  2
LONG4
 70
    64
  3
+++++++++++++++..+++++++++++++++
 72
    65
 73
     2
 40
80.0
 49
75.0
 49
-5.0
  0
LTYPE
  2
LONG5
 70
    64
  3
----------  --  ----------  --  
 72
    65
 73
     4
 40
60.0
 49
37.5
 49
-7.5
 49
7.5
 49
-7.5
  0
LTYPE
  2
dashed
 70
   64
  3
-------   -------------   ------
 72
   65
 73
    2
 40
7.5
 49
6
 49
-1.5
  0
LTYPE
  2
dashed_spaced
 70
   64
  3
----        --------        ----
 72
   65
 73
    2
 40
12
 49
6
 49
-6
  0
LTYPE
  2
long_dashed_dotted
 70
   64
  3
------------- --- --------------
 72
   65
 73
    4
 40
15.25
 49
12
 49
-1.5
 49
0.25
 49
-1.5
  0
LTYPE
  2
long_dashed_double-dotted
 70
   64
  3
----------- --- --- ------------
 72
   65
 73
    6
 40
17
 49
12
 49
-1.5
 49
0.25
 49
-1.5
 49
0.25
 49
-1.5
  0
LTYPE
  2
long_dashed_triplicate-dotted
 70
   64
  3
--------- --- --- --- ----------
 72
   65
 73
    8
 40
18.75
 49
12
 49
-1.5
 49
0.25
 49
-1.5
 49
0.25
 49
-1.5
 49
0.25
 49
-1.5
  0
LTYPE
  2
dotted
 70
   64
  3
   -       -       -       -    
 72
   65
 73
    2
 40
1.75
 49
0.25
 49
-1.5
  0
LTYPE
  2
chain
 70
   64
  3
-------------- -- --------------
 72
   65
 73
    4
 40
18.5
 49
12
 49
-1.5
 49
3.5
 49
-1.5
  0
LTYPE
  2
chain_double_dash
 70
   64
  3
------------ -- -- -------------
 72
   65
 73
    6
 40
23.5
 49
12
 49
-1.5
 49
3.5
 49
-1.5
 49
3.5
 49
-1.5
  0
LTYPE
  2
dashed_dotted
 70
   64
  3
-----------     -     ----------
 72
   65
 73
    4
 40
9.25
 49
6
 49
-1.5
 49
0.25
 49
-1.5
  0
LTYPE
  2
double-dashed_dotted
 70
   64
  3
------   -----------   -   -----
 72
   65
 73
    6
 40
16.75
 49
6
 49
-1.5
 49
6
 49
-1.5
 49
0.25
 49
-1.5
  0
LTYPE
  2
dashed_double-dotted
 70
   64
  3
---------    -    -    ---------
 72
   65
 73
    6
 40
11
 49
6
 49
-1.5
 49
0.25
 49
-1.5
 49
0.25
 49
-1.5
  0
LTYPE
  2
double-dashed_double-dotted
 70
   64
  3
-----   ---------   -   -   ----
 72
   65
 73
    8
 40
18.5
 49
6
 49
-1.5
 49
6
 49
-1.5
 49
0.25
 49
-1.5
 49
0.25
 49
-1.5
  0
LTYPE
  2
dashed_triplicate-dotted
 70
   64
  3
-------    -    -    -    ------
 72
   65
 73
    8
 40
12.75
 49
6
 49
-1.5
 49
0.25
 49
-1.5
 49
0.25
 49
-1.5
 49
0.25
 49
-1.5
  0
LTYPE
  2
double-dashed_triplicate-dotted
 70
   64
  3
-----  ---------  -  -  -  -----
 72
   65
 73
   10
 40
20.25
 49
6
 49
-1.5
 49
6
 49
-1.5
 49
0.25
 49
-1.5
 49
0.25
 49
-1.5
 49
0.25
 49
-1.5
  0
LTYPE
  2
undefined
 70
   64
  3
--------------------------------
 72
   65
 73
    0
 40
0
  0
LTYPE
  2
_
 70
   64
  3
                                
 72
   65
 73
    0
 40
0
  0
LTYPE
  2
__18
 70
   64
  3
                                
 72
   65
 73
    0
 40
0
  0
LTYPE
  2
__19
 70
   64
  3
                                
 72
   65
 73
    0
 40
0
  0
LTYPE
  2
__20
 70
   64
  3
                                
 72
   65
 73
    0
 40
0
  0
LTYPE
  2
__21
 70
   64
  3
                                
 72
   65
 73
    0
 40
0
  0
LTYPE
  2
__22
 70
   64
  3
                                
 72
   65
 73
    0
 40
0
  0
LTYPE
  2
__23
 70
   64
  3
                                
 72
   65
 73
    0
 40
0
  0
LTYPE
  2
__24
 70
   64
  3
                                
 72
   65
 73
    0
 40
0
  0
LTYPE
  2
__25
 70
   64
  3
                                
 72
   65
 73
    0
 40
0
  0
LTYPE
  2
__26
 70
   64
  3
                                
 72
   65
 73
    0
 40
0
  0
LTYPE
  2
__27
 70
   64
  3
                                
 72
   65
 73
    0
 40
0
  0
LTYPE
  2
__28
 70
   64
  3
                                
 72
   65
 73
    0
 40
0
  0
LTYPE
  2
__29
 70
   64
  3
                                
 72
   65
 73
    0
 40
0
  0
LTYPE
  2
__30
 70
   64
  3
                                
 72
   65
 73
    0
 40
0
  0
LTYPE
  2
__31
 70
   64
  3
                                
 72
   65
 73
    0
 40
0
  0
LTYPE
  2
__32
 70
   64
  3
                                
 72
   65
 73
    0
 40
0
  0
ENDTAB
  0
TABLE
  2
STYLE
  5
3
100
AcDbSymbolTable
 70
     1
  0
STYLE
  5
10
100
AcDbSymbolTableRecord
100
AcDbTextStyleTableRecord
  2
STANDARD
 70
     0
 40
0.0
 41
1.0
 50
0.0
 71
     0
 42
0.2
  3
txt
  4
bigfont.shx
  0
STYLE
  5
26
100
AcDbSymbolTableRecord
100
AcDbTextStyleTableRecord
  2
TATEGAKI
 70
    68
 40
0.0
 41
1.0
 50
0.0
 71
     0
 42
1.0
  3
txt
  4
bigfont.shx
  0
ENDTAB
  0
TABLE
  2
LAYER
 70
   15
  0
LAYER
  2
_2-2_in_line
 70
   64
 62
    7
  6
CONTINUOUS
  0
LAYER
  2
_2-3_
 70
   64
 62
    7
  6
CONTINUOUS
  0
LAYER
  2
_2-4_out_line
 70
   64
 62
    7
  6
CONTINUOUS
  0
LAYER
  2
_2-6_鋼板__アングル
 70
   64
 62
    7
  6
CONTINUOUS
  0
LAYER
  2
_2-7_ビス
 70
   64
 62
    7
  6
CONTINUOUS
  0
LAYER
  2
_2-a_moji
 70
   64
 62
    7
  6
CONTINUOUS
  0
LAYER
  2
_2-b_dim
 70
   64
 62
    7
  6
CONTINUOUS
  0
LAYER
  2
_2-d_ハッチ他
 70
   64
 62
    7
  6
CONTINUOUS
  0
LAYER
  2
_2-e_con他
 70
   64
 62
    7
  6
CONTINUOUS
  0
LAYER
  2
_f-2_
 70
   64
 62
    7
  6
CONTINUOUS
  0
LAYER
  2
_f-5_
 70
   64
 62
    7
  6
CONTINUOUS
  0
LAYER
  2
_f-7_
 70
   64
 62
    7
  6
CONTINUOUS
  0
LAYER
  2
_f-8_
 70
   64
 62
    7
  6
CONTINUOUS
  0
LAYER
  2
_f-a_
 70
   64
 62
    7
  6
CONTINUOUS
  0
LAYER
  2
ADD_LINE
 70
   64
 62
    7
  6
CONTINUOUS
  0
ENDTAB
  0
ENDSEC
  0
SECTION
  2
BLOCKS
  0
ENDSEC
  0
SECTION
  2
ENTITIES
  0
LINE
  8
ADD_LINE
  6
DOT
 62
  136
 10
544.95984655004474
 20
1464.6411558992986
 11
544.95984655004474
 21
34.641155899299321
  0
LINE
  8
ADD_LINE
  6
DOT
 62
  136
 10
544.95984655004474
 20
1464.6411558992986
 11
1544.9598465500446
 21
1464.6411558992986
  0
LINE
  8
ADD_LINE
  6
DOT
 62
  136
 10
1544.9598465500446
 20
1464.6411558992986
 11
1544.9598465500446
 21
34.641155899299321
  0
LINE
  8
ADD_LINE
  6
DOT
 62
  136
 10
1544.9598465500446
 20
34.641155899299321
 11
544.95984655004247
 21
34.641155899299321
  0
LINE
  8
_f-7_
  6
CONTINUOUS
 62
    1
 10
644.95984655004247
 20
1364.6411558992986
 11
1444.9598465500424
 21
1364.6411558992986
  0
LINE
  8
_f-7_
  6
CONTINUOUS
 62
    1
 10
644.95984655004247
 20
774.64115589929872
 11
1444.9598465500424
 21
774.64115589929872
  0
LINE
  8
_f-7_
  6
CONTINUOUS
 62
    1
 10
1444.9598465500424
 20
1364.6411558992986
 11
1444.9598465500424
 21
774.64115589929872
  0
LINE
  8
_f-7_
  6
CONTINUOUS
 62
    1
 10
644.95984655004247
 20
1364.6411558992986
 11
644.95984655004247
 21
774.64115589929872
  0
LINE
  8
ADD_LINE
  6
DOT
 62
  136
 10
644.95984655004247
 20
794.64115589929872
 11
1444.9598465500424
 21
794.64115589929872
  0
LINE
  8
_f-5_
  6
CONTINUOUS
 62
    6
 10
644.95984655004247
 20
814.64115589929872
 11
1444.9598465500424
 21
814.64115589929872
  0
LINE
  8
ADD_LINE
  6
DOT
 62
  136
 10
664.95984655004247
 20
814.64115589929872
 11
664.95984655004247
 21
774.64115589929872
  0
LINE
  8
_f-2_
  6
CONTINUOUS
 62
    7
 10
1014.9598465500425
 20
814.64115589929872
 11
1014.9598465500425
 21
774.64115589929872
  0
LINE
  8
ADD_LINE
  6
DOT
 62
  136
 10
1029.9598465500426
 20
814.64115589929872
 11
1029.9598465500426
 21
774.64115589929872
  0
LINE
  8
ADD_LINE
  6
DOT
 62
  136
 10
879.95984655004247
 20
814.64115589929872
 11
879.95984655004247
 21
774.64115589929872
  0
TEXT
  8
_f-a_
 62
    7
 10
879.95984655004247
 20
784.64115589929872
 40
17.5
 41
1
 50
0
  1
下地：ＲＣ
  0
LINE
  8
_f-5_
  6
CONTINUOUS
 62
    6
 10
864.95984655004247
 20
814.64115589929872
 11
864.95984655004247
 21
774.64115589929872
  0
LINE
  8
_f-5_
  6
CONTINUOUS
 62
    6
 10
862.45984655004247
 20
814.64115589929872
 11
862.45984655004247
 21
774.64115589929872
  0
TEXT
  8
_f-a_
 62
    7
 10
1029.9598465500426
 20
784.64115589929872
 40
17.5
 41
1
 50
0
  1
部位：側溝
  0
TEXT
  8
_f-a_
 62
    7
 10
664.95984655004247
 20
784.64115589929872
 40
20
 41
1
 50
0
  1
１２５・１２７仕様
  0
LINE
  8
ADD_LINE
  6
DOT
 62
  136
 10
1329.9598465500424
 20
814.64115589929872
 11
1329.9598465500424
 21
774.64115589929872
  0
LINE
  8
_f-2_
  6
CONTINUOUS
 62
    7
 10
1314.9598465500424
 20
814.64115589929872
 11
1314.9598465500424
 21
774.64115589929872
  0
LINE
  8
ADD_LINE
  6
DOT
 62
  136
 10
1224.9598465500426
 20
814.64115589929872
 11
1224.9598465500426
 21
774.64115589929872
  0
LINE
  8
_f-2_
  6
CONTINUOUS
 62
    7
 10
1209.9598465500426
 20
814.64115589929872
 11
1209.9598465500426
 21
774.64115589929872
  0
TEXT
  8
_f-a_
 62
    7
 10
1224.9598465500426
 20
784.64115589929872
 40
15
 41
1
 50
0
  1
Ｓ＝１：５
  0
TEXT
  8
_f-a_
 62
    7
 10
1329.9598465500424
 20
784.64115589929872
 40
15
 41
1
 50
0
  1
図番
  0
TEXT
  8
_f-a_
 62
    7
 10
1376.3775152741493
 20
784.64115589929872
 40
15
 41
1
 50
0
  1
３－１０
  0
TEXT
  8
_2-a_moji
 62
    7
 10
1071.3001820818376
 20
833.33626026326112
 40
15
 41
1
 50
0
  1
※１：側溝の幅・深さによって、接合位置は調整する。
  0
ARC
  8
_2-4_out_line
  6
CONTINUOUS
 62
    2
 10
820.28021940287442
 20
1246.481616306419
 40
15
 50
0
 51
90.000000000000014
  0
LINE
  8
_2-4_out_line
  6
CONTINUOUS
 62
    2
 10
820.28021940287442
 20
1261.481616306419
 11
739.82188606954094
 21
1261.481616306419
  0
ARC
  8
_2-4_out_line
  6
CONTINUOUS
 62
    2
 10
1122.280219402875
 20
1069.4816163064163
 40
3.0000000000000004
 50
270
 51
0
  0
LINE
  8
_2-4_out_line
  6
CONTINUOUS
 62
    2
 10
835.28021940287442
 20
1069.4816163064163
 11
835.28021940287442
 21
1246.481616306419
  0
ARC
  8
_2-4_out_line
  6
CONTINUOUS
 62
    2
 10
838.28021940287397
 20
1069.4816163064163
 40
3.0000000000000004
 50
180
 51
270
  0
LINE
  8
_2-4_out_line
  6
CONTINUOUS
 62
    2
 10
838.28021940287397
 20
1066.481616306419
 11
888.28021940287397
 21
1066.481616306419
  0
LINE
  8
_2-4_out_line
  6
CONTINUOUS
 62
    2
 10
888.28021940287397
 20
1066.481616306419
 11
888.28021940287397
 21
1061.481616306419
  0
LINE
  8
_2-4_out_line
  6
CONTINUOUS
 62
    2
 10
888.28021940287397
 20
1061.481616306419
 11
1072.280219402875
 21
1061.481616306419
  0
LINE
  8
_2-4_out_line
  6
CONTINUOUS
 62
    2
 10
1072.280219402875
 20
1066.481616306419
 11
1072.280219402875
 21
1061.481616306419
  0
LINE
  8
_2-4_out_line
  6
CONTINUOUS
 62
    2
 10
1122.280219402875
 20
1066.481616306419
 11
1072.280219402875
 21
1066.481616306419
  0
LINE
  8
_2-4_out_line
  6
CONTINUOUS
 62
    2
 10
680.28021940287442
 20
906.48161630641891
 11
1130.2802194028745
 21
906.48161630641891
  0
LINE
  8
_2-4_out_line
  6
CONTINUOUS
 62
    2
 10
1130.2802194028745
 20
906.48161630641891
 11
1130.2802194028745
 21
864.64115589929872
  0
LINE
  8
_2-e_con他
  6
CONTINUOUS
 62
    4
 10
680.28021940287442
 20
972.08281654430277
 11
830.28021940287442
 21
1122.0828165443029
  0
LINE
  8
_2-e_con他
  6
CONTINUOUS
 62
    4
 10
680.28021940287442
 20
965.0117487324361
 11
830.28021940287442
 21
1115.0117487324362
  0
LINE
  8
_2-e_con他
  6
CONTINUOUS
 62
    4
 10
680.28021940287442
 20
957.94068092056943
 11
830.28021940287442
 21
1107.9406809205695
  0
LINE
  8
_2-e_con他
  6
CONTINUOUS
 62
    4
 10
680.28021940287442
 20
1172.0828165443029
 11
764.67901916499284
 21
1256.481616306419
  0
LINE
  8
_2-e_con他
  6
CONTINUOUS
 62
    4
 10
680.28021940287442
 20
1157.9406809205695
 11
778.82115478872277
 21
1256.481616306419
  0
LINE
  8
_2-e_con他
  6
CONTINUOUS
 62
    4
 10
680.28021940287442
 20
1165.0117487324362
 11
771.75008697685837
 21
1256.481616306419
  0
LINE
  8
_2-e_con他
  6
CONTINUOUS
 62
    4
 10
814.6790191649917
 20
906.48161630641891
 11
964.67901916498943
 21
1056.481616306419
  0
LINE
  8
_2-e_con他
  6
CONTINUOUS
 62
    4
 10
1028.8211547887229
 20
906.48161630641891
 11
1278.8211547887183
 21
1156.481616306419
  0
LINE
  8
_2-e_con他
  6
CONTINUOUS
 62
    4
 10
828.82115478872277
 20
906.48161630641891
 11
978.82115478872049
 21
1056.481616306419
  0
LINE
  8
_2-e_con他
  6
CONTINUOUS
 62
    4
 10
821.75008697685837
 20
906.48161630641891
 11
971.7500869768561
 21
1056.481616306419
  0
LINE
  8
_2-e_con他
  6
CONTINUOUS
 62
    4
 10
1014.6790191649928
 20
906.48161630641891
 11
1264.679019164993
 21
1156.481616306419
  0
LINE
  8
_2-e_con他
  6
CONTINUOUS
 62
    4
 10
1021.7500869768584
 20
906.48161630641891
 11
1271.7500869768539
 21
1156.481616306419
  0
LINE
  8
_2-e_con他
  6
CONTINUOUS
 62
    4
 10
1172.838558757875
 20
864.64115589929872
 11
1280.2802194028743
 21
972.08281654430277
  0
LINE
  8
_2-e_con他
  6
CONTINUOUS
 62
    4
 10
1314.6790191649916
 20
1006.4816163064189
 11
1419.9598465500424
 21
1111.7624436914732
  0
LINE
  8
_2-e_con他
  6
CONTINUOUS
 62
    4
 10
1186.9806943816038
 20
864.64115589929872
 11
1280.2802194028743
 21
957.94068092056943
  0
LINE
  8
_2-e_con他
  6
CONTINUOUS
 62
    4
 10
1328.8211547887227
 20
1006.4816163064189
 11
1419.9598465500424
 21
1097.6203080677399
  0
LINE
  8
_2-e_con他
  6
CONTINUOUS
 62
    4
 10
1179.9096265697406
 20
864.64115589929872
 11
1280.2802194028743
 21
965.0117487324361
  0
LINE
  8
_2-e_con他
  6
CONTINUOUS
 62
    4
 10
1321.7500869768571
 20
1006.4816163064189
 11
1419.9598465500424
 21
1104.6913758796065
  0
TEXT
  8
_2-a_moji
 62
    7
 10
893.00944852434907
 20
1179.9554250425219
 40
15
 41
1
 50
0
  1
塩ビシート 接着工法
  0
LINE
  8
_2-a_moji
  6
CONTINUOUS
 62
    7
 10
835.28021940287442
 20
1144.9411054784653
 11
859.82587324759618
 21
1187.4554250425219
  0
LINE
  8
_2-a_moji
  6
CONTINUOUS
 62
    7
 10
883.00944852434907
 20
1187.4554250425219
 11
859.82587324759618
 21
1187.4554250425219
  0
TEXT
  8
_2-a_moji
 62
    7
 10
975.77644242546069
 20
1137.2082412741113
 40
15
 41
1
 50
0
  1
プルーフシーラー
  0
TEXT
  8
_2-a_moji
 62
    7
 10
975.77644242546069
 20
1112.2082412741113
 40
15
 41
1
 50
0
  1
塩ビシート 接着工法
  0
LINE
  8
_2-a_moji
  6
CONTINUOUS
 62
    7
 10
911.13430210352033
 20
1061.481616306419
 11
944.75145970262031
 21
1119.7082412741113
  0
LINE
  8
_2-a_moji
  6
CONTINUOUS
 62
    7
 10
965.77644242546069
 20
1119.7082412741113
 11
944.75145970262031
 21
1119.7082412741113
  0
LINE
  8
_2-a_moji
  6
CONTINUOUS
 62
    7
 10
965.77644242546069
 20
1144.7082412741113
 11
931.96738380707541
 21
1144.7082412741113
  0
LINE
  8
_2-a_moji
  6
CONTINUOUS
 62
    7
 10
888.87462601720711
 20
1070.0693953437942
 11
931.96738380707541
 21
1144.7082412741113
  0
POINT
  8
_2-b_dim
 62
    1
 10
1072.280219402875
 20
1016.7011324997248
  0
LINE
  8
_2-b_dim
  6
CONTINUOUS
 62
    7
 10
1072.280219402875
 20
1045.7759632225591
 11
1072.280219402875
 21
1016.7011324997248
  0
POINT
  8
_2-b_dim
 62
    1
 10
888.28021940287397
 20
1016.7011324997248
  0
LINE
  8
_2-b_dim
  6
CONTINUOUS
 62
    7
 10
888.28021940287397
 20
1045.7759632225591
 11
888.28021940287397
 21
1016.7011324997248
  0
LINE
  8
_2-d_ハッチ他
  6
CONTINUOUS
 62
    4
 10
1384.8386606300289
 20
1156.481616306419
 11
1414.8386606300289
 21
1186.481616306419
  0
LINE
  8
_2-d_ハッチ他
  6
CONTINUOUS
 62
    4
 10
1356.5543893825713
 20
1156.481616306419
 11
1386.5543893825691
 21
1186.4816163064168
  0
LINE
  8
_2-d_ハッチ他
  6
CONTINUOUS
 62
    4
 10
1328.2701181351069
 20
1156.4816163064213
 11
1358.2701181351058
 21
1186.481616306419
  0
LINE
  8
_2-d_ハッチ他
  6
CONTINUOUS
 62
    4
 10
1299.9858468876471
 20
1156.481616306419
 11
1329.9858468876471
 21
1186.481616306419
  0
LINE
  8
_2-d_ハッチ他
  6
CONTINUOUS
 62
    4
 10
1271.7015756401806
 20
1156.481616306419
 11
1301.7015756401804
 21
1186.481616306419
  0
LINE
  8
_2-d_ハッチ他
  6
CONTINUOUS
 62
    4
 10
1243.4173043927231
 20
1156.481616306419
 11
1273.4173043927231
 21
1186.481616306419
  0
LINE
  8
_2-d_ハッチ他
  6
CONTINUOUS
 62
    4
 10
1215.1330331452564
 20
1156.481616306419
 11
1245.1330331452587
 21
1186.4816163064213
  0
LINE
  8
_2-d_ハッチ他
  6
CONTINUOUS
 62
    4
 10
1186.8487618977965
 20
1156.4816163064168
 11
1216.8487618977965
 21
1186.4816163064168
  0
LINE
  8
_2-d_ハッチ他
  6
CONTINUOUS
 62
    4
 10
1158.5644906503298
 20
1156.4816163064168
 11
1188.5644906503321
 21
1186.481616306419
  0
LINE
  8
_2-d_ハッチ他
  6
CONTINUOUS
 62
    4
 10
1162.3730524809766
 20
1186.481616306419
 11
1192.3730524809766
 21
1156.481616306419
  0
LINE
  8
_2-d_ハッチ他
  6
CONTINUOUS
 62
    4
 10
1190.6573237284354
 20
1186.4816163064168
 11
1220.6573237284342
 21
1156.4816163064168
  0
LINE
  8
_2-d_ハッチ他
  6
CONTINUOUS
 62
    4
 10
1218.9415949759032
 20
1186.4816163064168
 11
1248.941594975902
 21
1156.4816163064168
  0
LINE
  8
_2-d_ハッチ他
  6
CONTINUOUS
 62
    4
 10
1247.2258662233585
 20
1186.481616306419
 11
1277.2258662233573
 21
1156.481616306419
  0
LINE
  8
_2-d_ハッチ他
  6
CONTINUOUS
 62
    4
 10
1275.5101374708252
 20
1186.481616306419
 11
1305.5101374708249
 21
1156.481616306419
  0
LINE
  8
_2-d_ハッチ他
  6
CONTINUOUS
 62
    4
 10
1303.7944087182825
 20
1186.4816163064168
 11
1333.7944087182825
 21
1156.4816163064168
  0
LINE
  8
_2-d_ハッチ他
  6
CONTINUOUS
 62
    4
 10
1332.0786799657492
 20
1186.4816163064168
 11
1362.0786799657492
 21
1156.4816163064168
  0
LINE
  8
_2-d_ハッチ他
  6
CONTINUOUS
 62
    4
 10
1360.3629512132068
 20
1186.481616306419
 11
1390.3629512132068
 21
1156.481616306419
  0
LINE
  8
_2-d_ハッチ他
  6
CONTINUOUS
 62
    4
 10
1388.6472224606734
 20
1186.4816163064168
 11
1418.6472224606734
 21
1156.481616306419
  0
LINE
  8
_2-d_ハッチ他
  6
CONTINUOUS
 62
    4
 10
1130.2802194028745
 20
1162.0059068896037
 11
1135.8045099860569
 21
1156.4816163064236
  0
LINE
  8
_2-d_ハッチ他
  6
CONTINUOUS
 62
    4
 10
1413.1229318774945
 20
1156.481616306419
 11
1419.9598465500424
 21
1163.3185309789658
  0
LINE
  8
_2-d_ハッチ他
  6
CONTINUOUS
 62
    4
 10
1416.931493708131
 20
1186.481616306419
 11
1419.9598465500424
 21
1183.4532634645077
  0
LINE
  8
_2-d_ハッチ他
  6
CONTINUOUS
 62
    4
 10
1408.38751533616
 20
1186.4816163064213
 11
1418.38751533616
 21
1196.4816163064213
  0
LINE
  8
_2-d_ハッチ他
  6
CONTINUOUS
 62
    4
 10
1394.2453797124256
 20
1186.4816163064213
 11
1404.2453797124256
 21
1196.481616306419
  0
LINE
  8
_2-d_ハッチ他
  6
CONTINUOUS
 62
    4
 10
1380.1032440887002
 20
1186.481616306419
 11
1390.1032440887002
 21
1196.481616306419
  0
LINE
  8
_2-d_ハッチ他
  6
CONTINUOUS
 62
    4
 10
1365.961108464968
 20
1186.4816163064213
 11
1375.961108464968
 21
1196.4816163064213
  0
LINE
  8
_2-d_ハッチ他
  6
CONTINUOUS
 62
    4
 10
1351.8189728412369
 20
1186.4816163064236
 11
1361.8189728412358
 21
1196.4816163064236
  0
LINE
  8
_2-d_ハッチ他
  6
CONTINUOUS
 62
    4
 10
1337.6768372175013
 20
1186.4816163064213
 11
1347.6768372175013
 21
1196.4816163064213
  0
LINE
  8
_2-d_ハッチ他
  6
CONTINUOUS
 62
    4
 10
1309.3925659700449
 20
1186.4816163064213
 11
1319.3925659700437
 21
1196.4816163064213
  0
LINE
  8
_2-d_ハッチ他
  6
CONTINUOUS
 62
    4
 10
1295.2504303463115
 20
1186.4816163064236
 11
1305.2504303463127
 21
1196.4816163064236
  0
LINE
  8
_2-d_ハッチ他
  6
CONTINUOUS
 62
    4
 10
1281.1082947225771
 20
1186.4816163064213
 11
1291.1082947225771
 21
1196.4816163064213
  0
LINE
  8
_2-d_ハッチ他
  6
CONTINUOUS
 62
    4
 10
1266.966159098853
 20
1186.481616306419
 11
1276.966159098853
 21
1196.481616306419
  0
LINE
  8
_2-d_ハッチ他
  6
CONTINUOUS
 62
    4
 10
1252.8240234751197
 20
1186.4816163064213
 11
1262.8240234751197
 21
1196.4816163064213
  0
LINE
  8
_2-d_ハッチ他
  6
CONTINUOUS
 62
    4
 10
1238.6818878513864
 20
1186.481616306419
 11
1248.6818878513886
 21
1196.4816163064236
  0
LINE
  8
_2-d_ハッチ他
  6
CONTINUOUS
 62
    4
 10
1224.539752227653
 20
1186.4816163064213
 11
1234.539752227653
 21
1196.4816163064213
  0
LINE
  8
_2-d_ハッチ他
  6
CONTINUOUS
 62
    4
 10
1210.3976166039288
 20
1186.4816163064213
 11
1220.3976166039288
 21
1196.481616306419
  0
LINE
  8
_2-d_ハッチ他
  6
CONTINUOUS
 62
    4
 10
1196.2554809801966
 20
1186.4816163064213
 11
1206.2554809801966
 21
1196.4816163064213
  0
LINE
  8
_2-d_ハッチ他
  6
CONTINUOUS
 62
    4
 10
1182.1133453564621
 20
1186.481616306419
 11
1192.1133453564621
 21
1196.481616306419
  0
LINE
  8
_2-d_ハッチ他
  6
CONTINUOUS
 62
    4
 10
1167.9712097327299
 20
1186.4816163064213
 11
1177.9712097327288
 21
1196.4816163064213
  0
LINE
  8
_2-d_ハッチ他
  6
CONTINUOUS
 62
    4
 10
1139.6869384852723
 20
1186.4816163064213
 11
1149.6869384852723
 21
1196.4816163064213
  0
LINE
  8
_2-d_ハッチ他
  6
CONTINUOUS
 62
    4
 10
1323.5347015937657
 20
1186.481616306419
 11
1333.5347015937657
 21
1196.481616306419
  0
LINE
  8
_2-d_ハッチ他
  6
CONTINUOUS
 62
    4
 10
1130.2802194028745
 20
1191.217032847758
 11
1135.5448028615378
 21
1196.481616306419
  0
LINE
  8
_2-a_moji
  6
CONTINUOUS
 62
    7
 10
1203.5486928344337
 20
1178.2776154303886
 11
1270.7699460072231
 21
1294.7082412741111
  0
TEXT
  8
_2-a_moji
 62
    7
 10
1296.9003455605878
 20
1287.2082412741111
 40
15
 41
1
 50
0
  1
塩ビシート 接着工法
  0
LINE
  8
_2-a_moji
  6
CONTINUOUS
 62
    7
 10
1286.9003455605878
 20
1294.7082412741111
 11
1270.7699460072231
 21
1294.7082412741111
  0
LINE
  8
_2-a_moji
  6
CONTINUOUS
 62
    7
 10
1286.9003455605878
 20
1269.7082412741113
 11
1256.3361892774824
 21
1269.7082412741113
  0
LINE
  8
_2-a_moji
  6
CONTINUOUS
 62
    7
 10
1286.9003455605878
 20
1244.7082412741113
 11
1241.9024325477417
 21
1244.7082412741113
  0
TEXT
  8
_2-a_moji
 62
    7
 10
1296.9003455605878
 20
1237.2082412741113
 40
15
 41
1
 50
0
  1
断熱材
  0
LINE
  8
_2-3_
  6
CONTINUOUS
 62
    3
 10
1280.2802194028743
 20
1006.4816163064189
 11
1419.9598465500424
 21
1006.4816163064189
  0
LINE
  8
_2-3_
  6
CONTINUOUS
 62
    3
 10
1280.2802194028743
 20
1006.4816163064189
 11
1280.2802194028743
 21
864.64115589929872
  0
POINT
  8
_2-b_dim
 62
    1
 10
835.28021940287442
 20
1016.7011324997248
  0
LINE
  8
_2-b_dim
  6
CONTINUOUS
 62
    7
 10
835.28021940287442
 20
1045.7759632225591
 11
835.28021940287442
 21
1016.7011324997248
  0
LINE
  8
_2-b_dim
  6
CONTINUOUS
 62
    7
 10
835.28021940287442
 20
1016.7011324997248
 11
888.28021940287397
 21
1016.7011324997248
  0
POINT
  8
_2-b_dim
 62
    1
 10
1125.2802194028745
 20
1016.7011324997248
  0
LINE
  8
_2-b_dim
  6
CONTINUOUS
 62
    7
 10
1125.2802194028745
 20
1045.7759632225591
 11
1125.2802194028745
 21
1016.7011324997248
  0
LINE
  8
_2-b_dim
  6
CONTINUOUS
 62
    7
 10
1072.280219402875
 20
1016.7011324997248
 11
1125.2802194028745
 21
1016.7011324997248
  0
LINE
  8
_2-7_ビス
  6
CONTINUOUS
 62
    7
 10
1155.2668002700127
 20
1196.481616306419
 11
1151.0167986204137
 21
1196.481616306419
  0
LINE
  8
_2-7_ビス
  6
CONTINUOUS
 62
    7
 10
1148.1417953212169
 20
1199.356619605617
 11
1151.0167986204137
 21
1196.481616306419
  0
LINE
  8
_2-7_ビス
  6
CONTINUOUS
 62
    7
 10
1158.1418035692107
 20
1199.356619605617
 11
1148.1417953212169
 21
1199.356619605617
  0
LINE
  8
_2-7_ビス
  6
CONTINUOUS
 62
    7
 10
1148.1417953212169
 20
1199.8566459991982
 11
1148.1417953212169
 21
1199.356619605617
  0
LINE
  8
_2-7_ビス
  6
CONTINUOUS
 62
    7
 10
1158.1418035692107
 20
1199.356619605617
 11
1158.1418035692107
 21
1199.8566459991982
  0
LINE
  8
_2-7_ビス
  6
CONTINUOUS
 62
    7
 10
1158.1418035692107
 20
1199.8566459991982
 11
1148.1417953212169
 21
1199.8566459991982
  0
LINE
  8
_2-7_ビス
  6
CONTINUOUS
 62
    7
 10
1158.1418035692107
 20
1199.356619605617
 11
1155.2668002700127
 21
1196.481616306419
  0
ARC
  8
_2-7_ビス
  6
DASHED3
 62
    7
 10
1153.1417994452138
 20
1198.5921790175692
 40
1.8403175392666382
 50
217.11750793457031
 51
322.88247680664062
  0
LINE
  8
_2-7_ビス
  6
DASHED3
 62
    7
 10
1155.6918152813628
 20
1199.356619605617
 11
1154.6092908013159
 21
1197.4815948616335
  0
LINE
  8
_2-7_ビス
  6
DASHED3
 62
    7
 10
1150.5918207250388
 20
1199.356619605617
 11
1151.6743452050846
 21
1197.4815948616335
  0
LINE
  8
_2-7_ビス
  6
DASHED3
 62
    7
 10
1150.5918207250388
 20
1199.356619605617
 11
1150.5918207250388
 21
1199.8566459991982
  0
LINE
  8
_2-7_ビス
  6
DASHED3
 62
    7
 10
1155.6918152813628
 20
1199.356619605617
 11
1155.6918152813628
 21
1199.8566459991982
  0
LINE
  8
_2-7_ビス
  6
CONTINUOUS
 62
    7
 10
1155.1417994452131
 20
1196.481616306419
 11
1155.141799445212
 21
1156.481616306419
  0
LINE
  8
_2-7_ビス
  6
CONTINUOUS
 62
    7
 10
1151.1417994452133
 20
1196.481616306419
 11
1151.1417994452122
 21
1156.481616306419
  0
LINE
  8
_2-4_out_line
  6
CONTINUOUS
 62
    2
 10
1123.1417994452138
 20
1152.1702280055777
 11
1125.2802194028745
 21
1145.7549681325966
  0
LINE
  8
_2-4_out_line
  6
CONTINUOUS
 62
    2
 10
1125.2802194028745
 20
1069.4816163064163
 11
1125.2802194028745
 21
1145.7549681325966
  0
LINE
  8
_2-a_moji
  6
CONTINUOUS
 62
    7
 10
1203.6092264666595
 20
1077.3724908975739
 11
1175.2723668778688
 21
1077.3724908975739
  0
LINE
  8
_2-a_moji
  6
CONTINUOUS
 62
    7
 10
1154.6251113470989
 20
1113.1345865137271
 11
1175.2723668778688
 21
1077.3724908975739
  0
LINE
  8
_2-d_ハッチ他
  6
CONTINUOUS
 62
    4
 10
1130.2802194028745
 20
1156.481616306419
 11
1151.1417994452122
 21
1177.3431963487567
  0
LINE
  8
_2-d_ハッチ他
  6
CONTINUOUS
 62
    4
 10
1155.1417994452131
 20
1181.3431963487576
 11
1160.2802194028745
 21
1186.481616306419
  0
LINE
  8
_2-d_ハッチ他
  6
CONTINUOUS
 62
    4
 10
1134.0887812335179
 20
1186.481616306419
 11
1151.1417994452122
 21
1169.4285980947236
  0
LINE
  8
_2-d_ハッチ他
  6
CONTINUOUS
 62
    4
 10
1155.141799445212
 20
1165.428598094725
 11
1164.0887812335213
 21
1156.4816163064168
  0
LINE
  8
_2-d_ハッチ他
  6
CONTINUOUS
 62
    4
 10
1155.1417994452131
 20
1187.7943416426299
 11
1163.8290741090045
 21
1196.4816163064213
  0
LINE
  8
_2-4_out_line
  6
CONTINUOUS
 62
    2
 10
1186.4531877460618
 20
1201.481616306419
 11
1419.9598465500424
 21
1201.481616306419
  0
LINE
  8
_2-4_out_line
  6
CONTINUOUS
 62
    2
 10
1118.1417994452138
 20
1152.1702280055777
 11
1123.1417994452138
 21
1152.1702280055777
  0
TEXT
  8
_2-a_moji
 62
    7
 10
1018.1294524170393
 20
1229.9554250425219
 40
15
 41
1
 50
0
  1
※１
  0
LINE
  8
_2-a_moji
  6
CONTINUOUS
 62
    7
 10
1058.1294524170394
 20
1237.4554250425219
 11
1083.2816772001447
 21
1237.4554250425219
  0
LINE
  8
_2-a_moji
  6
CONTINUOUS
 62
    7
 10
1118.1417994452138
 20
1177.0759221560004
 11
1083.2816772001447
 21
1237.4554250425219
  0
ARC
  8
_2-2_in_line
  6
CONTINUOUS
 62
    7
 10
820.28021940287442
 20
1246.481616306419
 40
10
 50
0
 51
90.000000000000014
  0
LINE
  8
_2-2_in_line
  6
CONTINUOUS
 62
    7
 10
830.28021940287442
 20
1246.481616306419
 11
830.28021940287442
 21
1056.481616306419
  0
ARC
  8
_2-2_in_line
  6
CONTINUOUS
 62
    7
 10
838.28021940287397
 20
1069.4816163064163
 40
8
 50
180
 51
270
  0
LINE
  8
_2-2_in_line
  6
CONTINUOUS
 62
    7
 10
882.28308733594201
 20
1066.481616306419
 11
882.30130612346454
 21
1066.6125212530985
  0
LINE
  8
_2-2_in_line
  6
CONTINUOUS
 62
    7
 10
882.30130612346454
 20
1066.6125212530985
 11
882.3343729031252
 21
1066.8375951881151
  0
LINE
  8
_2-2_in_line
  6
CONTINUOUS
 62
    7
 10
882.3343729031252
 20
1066.8375951881151
 11
882.37203711899281
 21
1067.0609350983752
  0
LINE
  8
_2-2_in_line
  6
CONTINUOUS
 62
    7
 10
882.37203711899281
 20
1067.0609350983752
 11
882.41720854081575
 21
1067.2814434998465
  0
LINE
  8
_2-2_in_line
  6
CONTINUOUS
 62
    7
 10
882.41720854081575
 20
1067.2814434998465
 11
882.47279693834696
 21
1067.4980229085033
  0
LINE
  8
_2-2_in_line
  6
CONTINUOUS
 62
    7
 10
882.47279693834696
 20
1067.4980229085033
 11
882.54171208133482
 21
1067.7095758403223
  0
LINE
  8
_2-2_in_line
  6
CONTINUOUS
 62
    7
 10
882.54171208133482
 20
1067.7095758403223
 11
882.58893577962806
 21
1067.8295409433124
  0
LINE
  8
_2-2_in_line
  6
CONTINUOUS
 62
    7
 10
882.58893577962806
 20
1067.8295409433124
 11
882.62987684089137
 21
1067.9216577829086
  0
LINE
  8
_2-2_in_line
  6
CONTINUOUS
 62
    7
 10
882.62987684089137
 20
1067.9216577829086
 11
882.70829201357299
 21
1068.0773720859158
  0
LINE
  8
_2-2_in_line
  6
CONTINUOUS
 62
    7
 10
882.70829201357299
 20
1068.0773720859158
 11
882.79539902789918
 21
1068.2293756887977
  0
LINE
  8
_2-2_in_line
  6
CONTINUOUS
 62
    7
 10
882.79539902789918
 20
1068.2293756887977
 11
882.88978401704878
 21
1068.3779282046
  0
LINE
  8
_2-2_in_line
  6
CONTINUOUS
 62
    7
 10
882.88978401704878
 20
1068.3779282046
 11
882.99003311419153
 21
1068.523289246373
  0
LINE
  8
_2-2_in_line
  6
CONTINUOUS
 62
    7
 10
882.99003311419153
 20
1068.523289246373
 11
883.09473245250854
 21
1068.6657184271692
  0
LINE
  8
_2-2_in_line
  6
CONTINUOUS
 62
    7
 10
883.09473245250854
 20
1068.6657184271692
 11
883.15694003218721
 21
1068.7470862743705
  0
LINE
  8
_2-2_in_line
  6
CONTINUOUS
 62
    7
 10
883.15694003218721
 20
1068.7470862743705
 11
883.23115630612517
 21
1068.8417698671744
  0
LINE
  8
_2-2_in_line
  6
CONTINUOUS
 62
    7
 10
883.23115630612517
 20
1068.8417698671744
 11
883.36138124622846
 21
1069.0024886610356
  0
LINE
  8
_2-2_in_line
  6
CONTINUOUS
 62
    7
 10
883.36138124622846
 20
1069.0024886610356
 11
883.49423306544747
 21
1069.1603554234259
  0
LINE
  8
_2-2_in_line
  6
CONTINUOUS
 62
    7
 10
883.49423306544747
 20
1069.1603554234259
 11
883.62943120357738
 21
1069.3157759168914
  0
LINE
  8
_2-2_in_line
  6
CONTINUOUS
 62
    7
 10
883.62943120357738
 20
1069.3157759168914
 11
883.76669510039972
 21
1069.4691559039804
  0
LINE
  8
_2-2_in_line
  6
CONTINUOUS
 62
    7
 10
883.76669510039972
 20
1069.4691559039804
 11
883.90574419570737
 21
1069.6209011472367
  0
LINE
  8
_2-2_in_line
  6
CONTINUOUS
 62
    7
 10
883.90574419570737
 20
1069.6209011472367
 11
883.98710009361946
 21
1069.7083242402416
  0
LINE
  8
_2-2_in_line
  6
CONTINUOUS
 62
    7
 10
883.98710009361946
 20
1069.7083242402416
 11
884.07273516703424
 21
1069.7993944146381
  0
LINE
  8
_2-2_in_line
  6
CONTINUOUS
 62
    7
 10
884.07273516703424
 20
1069.7993944146381
 11
884.22193252534169
 21
1069.9550961634761
  0
LINE
  8
_2-2_in_line
  6
CONTINUOUS
 62
    7
 10
884.22193252534169
 20
1069.9550961634761
 11
884.3736827389115
 21
1070.108442141873
  0
LINE
  8
_2-2_in_line
  6
CONTINUOUS
 62
    7
 10
884.3736827389115
 20
1070.108442141873
 11
884.52867181841509
 21
1070.2586297807923
  0
LINE
  8
_2-2_in_line
  6
CONTINUOUS
 62
    7
 10
884.52867181841509
 20
1070.2586297807923
 11
884.68758577452388
 21
1070.4048565111909
  0
LINE
  8
_2-2_in_line
  6
CONTINUOUS
 62
    7
 10
884.68758577452388
 20
1070.4048565111909
 11
884.85111061790246
 21
1070.5463197640167
  0
LINE
  8
_2-2_in_line
  6
CONTINUOUS
 62
    7
 10
884.85111061790246
 20
1070.5463197640167
 11
884.94833805949054
 21
1070.6258695712997
  0
LINE
  8
_2-2_in_line
  6
CONTINUOUS
 62
    7
 10
884.94833805949054
 20
1070.6258695712997
 11
885.03599175903344
 21
1070.6945949237981
  0
LINE
  8
_2-2_in_line
  6
CONTINUOUS
 62
    7
 10
885.03599175903344
 20
1070.6945949237981
 11
885.1906048589525
 21
1070.8088076915967
  0
LINE
  8
_2-2_in_line
  6
CONTINUOUS
 62
    7
 10
885.1906048589525
 20
1070.8088076915967
 11
885.3495700021416
 21
1070.9167803805306
  0
LINE
  8
_2-2_in_line
  6
CONTINUOUS
 62
    7
 10
885.3495700021416
 20
1070.9167803805306
 11
885.51281665937165
 21
1071.0175556119523
  0
LINE
  8
_2-2_in_line
  6
CONTINUOUS
 62
    7
 10
885.51281665937165
 20
1071.0175556119523
 11
885.68027430139989
 21
1071.1101760072395
  0
LINE
  8
_2-2_in_line
  6
CONTINUOUS
 62
    7
 10
885.68027430139989
 20
1071.1101760072395
 11
885.85187239900404
 21
1071.1936841877516
  0
LINE
  8
_2-2_in_line
  6
CONTINUOUS
 62
    7
 10
885.85187239900404
 20
1071.1936841877516
 11
885.95326866017456
 21
1071.2375664586718
  0
LINE
  8
_2-2_in_line
  6
CONTINUOUS
 62
    7
 10
885.95326866017456
 20
1071.2375664586718
 11
886.06717415291212
 21
1071.2820951719348
  0
LINE
  8
_2-2_in_line
  6
CONTINUOUS
 62
    7
 10
886.06717415291212
 20
1071.2820951719348
 11
886.26706261076731
 21
1071.3494058003473
  0
LINE
  8
_2-2_in_line
  6
CONTINUOUS
 62
    7
 10
886.26706261076731
 20
1071.3494058003473
 11
886.470764709626
 21
1071.4060093518472
  0
LINE
  8
_2-2_in_line
  6
CONTINUOUS
 62
    7
 10
886.470764709626
 20
1071.4060093518472
 11
886.67756378643287
 21
1071.4533842255789
  0
LINE
  8
_2-2_in_line
  6
CONTINUOUS
 62
    7
 10
886.67756378643287
 20
1071.4533842255789
 11
886.886743178144
 21
1071.4930088206872
  0
LINE
  8
_2-2_in_line
  6
CONTINUOUS
 62
    7
 10
886.886743178144
 20
1071.4930088206872
 11
887.09758622169727
 21
1071.5263615363235
  0
LINE
  8
_2-2_in_line
  6
CONTINUOUS
 62
    7
 10
887.09758622169727
 20
1071.5263615363235
 11
887.22035506972713
 21
1071.5434149023579
  0
LINE
  8
_2-2_in_line
  6
CONTINUOUS
 62
    7
 10
887.22035506972713
 20
1071.5434149023579
 11
887.36881203981181
 21
1071.5621319016238
  0
LINE
  8
_2-2_in_line
  6
CONTINUOUS
 62
    7
 10
887.36881203981181
 20
1071.5621319016238
 11
887.62513230509865
 21
1071.5890386627123
  0
LINE
  8
_2-2_in_line
  6
CONTINUOUS
 62
    7
 10
887.62513230509865
 20
1071.5890386627123
 11
887.88152763367759
 21
1071.6078969100138
  0
LINE
  8
_2-2_in_line
  6
CONTINUOUS
 62
    7
 10
887.88152763367759
 20
1071.6078969100138
 11
888.13755547030848
 21
1071.6172430011991
  0
LINE
  8
_2-2_in_line
  6
CONTINUOUS
 62
    7
 10
888.13755547030848
 20
1071.6172430011991
 11
888.39277325974433
 21
1071.6156132939525
  0
LINE
  8
_2-2_in_line
  6
CONTINUOUS
 62
    7
 10
888.39277325974433
 20
1071.6156132939525
 11
888.64673844673359
 21
1071.6015441459515
  0
LINE
  8
_2-2_in_line
  6
CONTINUOUS
 62
    7
 10
888.64673844673359
 20
1071.6015441459515
 11
888.7932899229703
 21
1071.5871075371708
  0
LINE
  8
_2-2_in_line
  6
CONTINUOUS
 62
    7
 10
888.7932899229703
 20
1071.5871075371708
 11
888.90063411453536
 21
1071.5734177510878
  0
LINE
  8
_2-2_in_line
  6
CONTINUOUS
 62
    7
 10
888.90063411453536
 20
1071.5734177510878
 11
889.08508417530481
 21
1071.5444581198406
  0
LINE
  8
_2-2_in_line
  6
CONTINUOUS
 62
    7
 10
889.08508417530481
 20
1071.5444581198406
 11
889.26905503274736
 21
1071.510142638306
  0
LINE
  8
_2-2_in_line
  6
CONTINUOUS
 62
    7
 10
889.26905503274736
 20
1071.510142638306
 11
889.45291106860748
 21
1071.4721278122763
  0
LINE
  8
_2-2_in_line
  6
CONTINUOUS
 62
    7
 10
889.45291106860748
 20
1071.4721278122763
 11
889.63701666462509
 21
1071.432070147571
  0
LINE
  8
_2-2_in_line
  6
CONTINUOUS
 62
    7
 10
889.63701666462509
 20
1071.432070147571
 11
889.82173620255378
 21
1071.391626149996
  0
LINE
  8
_2-2_in_line
  6
CONTINUOUS
 62
    7
 10
889.82173620255378
 20
1071.391626149996
 11
889.9292984280886
 21
1071.3686443631107
  0
LINE
  8
_2-2_in_line
  6
CONTINUOUS
 62
    7
 10
889.9292984280886
 20
1071.3686443631107
 11
890.05140965941689
 21
1071.343370641612
  0
LINE
  8
_2-2_in_line
  6
CONTINUOUS
 62
    7
 10
890.05140965941689
 20
1071.343370641612
 11
890.26220768298015
 21
1071.3000211253759
  0
LINE
  8
_2-2_in_line
  6
CONTINUOUS
 62
    7
 10
890.26220768298015
 20
1071.3000211253759
 11
890.47191290682019
 21
1071.2538879672277
  0
LINE
  8
_2-2_in_line
  6
CONTINUOUS
 62
    7
 10
890.47191290682019
 20
1071.2538879672277
 11
890.67886985608891
 21
1071.2014019255232
  0
LINE
  8
_2-2_in_line
  6
CONTINUOUS
 62
    7
 10
890.67886985608891
 20
1071.2014019255232
 11
890.88142305594045
 21
1071.138993758623
  0
LINE
  8
_2-2_in_line
  6
CONTINUOUS
 62
    7
 10
890.88142305594045
 20
1071.138993758623
 11
891.07791703154032
 21
1071.063094224892
  0
LINE
  8
_2-2_in_line
  6
CONTINUOUS
 62
    7
 10
891.07791703154032
 20
1071.063094224892
 11
891.18845485766212
 21
1071.0114842842361
  0
LINE
  8
_2-2_in_line
  6
CONTINUOUS
 62
    7
 10
891.18845485766212
 20
1071.0114842842361
 11
891.28777708884297
 21
1070.9583988123088
  0
LINE
  8
_2-2_in_line
  6
CONTINUOUS
 62
    7
 10
891.28777708884297
 20
1070.9583988123088
 11
891.45320100402967
 21
1070.8551125312126
  0
LINE
  8
_2-2_in_line
  6
CONTINUOUS
 62
    7
 10
891.45320100402967
 20
1070.8551125312126
 11
891.61125257539095
 21
1070.7385628994782
  0
LINE
  8
_2-2_in_line
  6
CONTINUOUS
 62
    7
 10
891.61125257539095
 20
1070.7385628994782
 11
891.76192762180688
 21
1070.6106362261655
  0
LINE
  8
_2-2_in_line
  6
CONTINUOUS
 62
    7
 10
891.76192762180688
 20
1070.6106362261655
 11
891.90522196217569
 21
1070.4732188203163
  0
LINE
  8
_2-2_in_line
  6
CONTINUOUS
 62
    7
 10
891.90522196217569
 20
1070.4732188203163
 11
892.04113141537744
 21
1070.328196990986
  0
LINE
  8
_2-2_in_line
  6
CONTINUOUS
 62
    7
 10
892.04113141537744
 20
1070.328196990986
 11
892.11657349536506
 21
1070.2413432869891
  0
LINE
  8
_2-2_in_line
  6
CONTINUOUS
 62
    7
 10
892.11657349536506
 20
1070.2413432869891
 11
892.20086851973645
 21
1070.1387758989997
  0
LINE
  8
_2-2_in_line
  6
CONTINUOUS
 62
    7
 10
892.20086851973645
 20
1070.1387758989997
 11
892.33904037900299
 21
1069.9574908892625
  0
LINE
  8
_2-2_in_line
  6
CONTINUOUS
 62
    7
 10
892.33904037900299
 20
1069.9574908892625
 11
892.4691506460216
 21
1069.7712662146434
  0
LINE
  8
_2-2_in_line
  6
CONTINUOUS
 62
    7
 10
892.4691506460216
 20
1069.7712662146434
 11
892.59237054800803
 21
1069.5809001535556
  0
LINE
  8
_2-2_in_line
  6
CONTINUOUS
 62
    7
 10
892.59237054800803
 20
1069.5809001535556
 11
892.70987131217805
 21
1069.3871909844122
  0
LINE
  8
_2-2_in_line
  6
CONTINUOUS
 62
    7
 10
892.70987131217805
 20
1069.3871909844122
 11
892.82282416574742
 21
1069.1909369856287
  0
LINE
  8
_2-2_in_line
  6
CONTINUOUS
 62
    7
 10
892.82282416574742
 20
1069.1909369856287
 11
892.88671449260517
 21
1069.0762581885976
  0
LINE
  8
_2-2_in_line
  6
CONTINUOUS
 62
    7
 10
892.88671449260517
 20
1069.0762581885976
 11
892.95398186011096
 21
1068.9531915964633
  0
LINE
  8
_2-2_in_line
  6
CONTINUOUS
 62
    7
 10
892.95398186011096
 20
1068.9531915964633
 11
893.06796310131983
 21
1068.7399848400948
  0
LINE
  8
_2-2_in_line
  6
CONTINUOUS
 62
    7
 10
893.06796310131983
 20
1068.7399848400948
 11
893.18007764968468
 21
1068.5256878405564
  0
LINE
  8
_2-2_in_line
  6
CONTINUOUS
 62
    7
 10
893.18007764968468
 20
1068.5256878405564
 11
893.29109425893091
 21
1068.3105385794809
  0
LINE
  8
_2-2_in_line
  6
CONTINUOUS
 62
    7
 10
893.29109425893091
 20
1068.3105385794809
 11
893.40178168279306
 21
1068.0947750385033
  0
LINE
  8
_2-2_in_line
  6
CONTINUOUS
 62
    7
 10
893.40178168279306
 20
1068.0947750385033
 11
893.51290867498972
 21
1067.8786351992474
  0
LINE
  8
_2-2_in_line
  6
CONTINUOUS
 62
    7
 10
893.51290867498972
 20
1067.8786351992474
 11
893.57786666961954
 21
1067.7531954497456
  0
LINE
  8
_2-2_in_line
  6
CONTINUOUS
 62
    7
 10
893.57786666961954
 20
1067.7531954497456
 11
893.66628012379476
 21
1067.5843672667409
  0
LINE
  8
_2-2_in_line
  6
CONTINUOUS
 62
    7
 10
893.66628012379476
 20
1067.5843672667409
 11
893.8227849397266
 21
1067.294971500851
  0
LINE
  8
_2-2_in_line
  6
CONTINUOUS
 62
    7
 10
893.8227849397266
 20
1067.294971500851
 11
893.98700653295134
 21
1067.0102633246008
  0
LINE
  8
_2-2_in_line
  6
CONTINUOUS
 62
    7
 10
893.98700653295134
 20
1067.0102633246008
 11
894.16193052033702
 21
1066.7332098965837
  0
LINE
  8
_2-2_in_line
  6
CONTINUOUS
 62
    7
 10
894.16193052033702
 20
1066.7332098965837
 11
894.35054251873805
 21
1066.4667783753955
  0
LINE
  8
_2-2_in_line
  6
CONTINUOUS
 62
    7
 10
894.35054251873805
 20
1066.4667783753955
 11
894.55582814501338
 21
1066.2139359196387
  0
LINE
  8
_2-2_in_line
  6
CONTINUOUS
 62
    7
 10
894.55582814501338
 20
1066.2139359196387
 11
894.6837101528389
 21
1066.0746830198607
  0
LINE
  8
_2-2_in_line
  6
CONTINUOUS
 62
    7
 10
894.6837101528389
 20
1066.0746830198607
 11
894.72992532514252
 21
1066.0275780139457
  0
LINE
  8
_2-2_in_line
  6
CONTINUOUS
 62
    7
 10
894.72992532514252
 20
1066.0275780139457
 11
894.81162458668348
 21
1065.9482329189134
  0
LINE
  8
_2-2_in_line
  6
CONTINUOUS
 62
    7
 10
894.81162458668348
 20
1065.9482329189134
 11
894.89582697901494
 21
1065.87143280947
  0
LINE
  8
_2-2_in_line
  6
CONTINUOUS
 62
    7
 10
894.89582697901494
 20
1065.87143280947
 11
894.98247295450835
 21
1065.7973839061472
  0
LINE
  8
_2-2_in_line
  6
CONTINUOUS
 62
    7
 10
894.98247295450835
 20
1065.7973839061472
 11
895.07150296554425
 21
1065.7262924294539
  0
LINE
  8
_2-2_in_line
  6
CONTINUOUS
 62
    7
 10
895.07150296554425
 20
1065.7262924294539
 11
895.16285746449864
 21
1065.6583645999265
  0
LINE
  8
_2-2_in_line
  6
CONTINUOUS
 62
    7
 10
895.16285746449864
 20
1065.6583645999265
 11
895.21688468939044
 21
1065.6204973035326
  0
LINE
  8
_2-2_in_line
  6
CONTINUOUS
 62
    7
 10
895.21688468939044
 20
1065.6204973035326
 11
895.30648610047945
 21
1065.5612046131594
  0
LINE
  8
_2-2_in_line
  6
CONTINUOUS
 62
    7
 10
895.30648610047945
 20
1065.5612046131594
 11
895.46467754464982
 21
1065.4647913489637
  0
LINE
  8
_2-2_in_line
  6
CONTINUOUS
 62
    7
 10
895.46467754464982
 20
1065.4647913489637
 11
895.62608883168321
 21
1065.3734629398925
  0
LINE
  8
_2-2_in_line
  6
CONTINUOUS
 62
    7
 10
895.62608883168321
 20
1065.3734629398925
 11
895.78900877997637
 21
1065.2845722314398
  0
LINE
  8
_2-2_in_line
  6
CONTINUOUS
 62
    7
 10
895.78900877997637
 20
1065.2845722314398
 11
895.95172620792835
 21
1065.1954720691085
  0
LINE
  8
_2-2_in_line
  6
CONTINUOUS
 62
    7
 10
895.95172620792835
 20
1065.1954720691085
 11
896.11252993394044
 21
1065.1035152983766
  0
LINE
  8
_2-2_in_line
  6
CONTINUOUS
 62
    7
 10
896.11252993394044
 20
1065.1035152983766
 11
896.20424494226552
 21
1065.0478283568693
  0
LINE
  8
_2-2_in_line
  6
CONTINUOUS
 62
    7
 10
896.20424494226552
 20
1065.0478283568693
 11
896.29665593466495
 21
1064.9884635869946
  0
LINE
  8
_2-2_in_line
  6
CONTINUOUS
 62
    7
 10
896.29665593466495
 20
1064.9884635869946
 11
896.45259893682021
 21
1064.8809618252292
  0
LINE
  8
_2-2_in_line
  6
CONTINUOUS
 62
    7
 10
896.45259893682021
 20
1064.8809618252292
 11
896.60492147904404
 21
1064.7679786352594
  0
LINE
  8
_2-2_in_line
  6
CONTINUOUS
 62
    7
 10
896.60492147904404
 20
1064.7679786352594
 11
896.75439796777607
 21
1064.6507185828616
  0
LINE
  8
_2-2_in_line
  6
CONTINUOUS
 62
    7
 10
896.75439796777607
 20
1064.6507185828616
 11
896.90180280946959
 21
1064.5303862338167
  0
LINE
  8
_2-2_in_line
  6
CONTINUOUS
 62
    7
 10
896.90180280946959
 20
1064.5303862338167
 11
897.04791041056649
 21
1064.4081861538918
  0
LINE
  8
_2-2_in_line
  6
CONTINUOUS
 62
    7
 10
897.04791041056649
 20
1064.4081861538918
 11
897.13236357996846
 21
1064.3369289747991
  0
LINE
  8
_2-2_in_line
  6
CONTINUOUS
 62
    7
 10
897.13236357996846
 20
1064.3369289747991
 11
897.23820544358784
 21
1064.2474483908975
  0
LINE
  8
_2-2_in_line
  6
CONTINUOUS
 62
    7
 10
897.23820544358784
 20
1064.2474483908975
 11
897.41977822189835
 21
1064.0923653371012
  0
LINE
  8
_2-2_in_line
  6
CONTINUOUS
 62
    7
 10
897.41977822189835
 20
1064.0923653371012
 11
897.59895287452207
 21
1063.934976168862
  0
LINE
  8
_2-2_in_line
  6
CONTINUOUS
 62
    7
 10
897.59895287452207
 20
1063.934976168862
 11
897.77428500074745
 21
1063.7737859709321
  0
LINE
  8
_2-2_in_line
  6
CONTINUOUS
 62
    7
 10
897.77428500074745
 20
1063.7737859709321
 11
897.94433019985843
 21
1063.6072998280863
  0
LINE
  8
_2-2_in_line
  6
CONTINUOUS
 62
    7
 10
897.94433019985843
 20
1063.6072998280863
 11
898.10764407113436
 21
1063.4340228250746
  0
LINE
  8
_2-2_in_line
  6
CONTINUOUS
 62
    7
 10
898.10764407113436
 20
1063.4340228250746
 11
898.19871265307381
 21
1063.3298215168636
  0
LINE
  8
_2-2_in_line
  6
CONTINUOUS
 62
    7
 10
898.19871265307381
 20
1063.3298215168636
 11
898.25037192571142
 21
1063.2677342413424
  0
LINE
  8
_2-2_in_line
  6
CONTINUOUS
 62
    7
 10
898.25037192571142
 20
1063.2677342413424
 11
898.33669703601697
 21
1063.1582615015034
  0
LINE
  8
_2-2_in_line
  6
CONTINUOUS
 62
    7
 10
898.33669703601697
 20
1063.1582615015034
 11
898.41905690814781
 21
1063.0457602437448
  0
LINE
  8
_2-2_in_line
  6
CONTINUOUS
 62
    7
 10
898.41905690814781
 20
1063.0457602437448
 11
898.49687759889673
 21
1062.9302793110357
  0
LINE
  8
_2-2_in_line
  6
CONTINUOUS
 62
    7
 10
898.49687759889673
 20
1062.9302793110357
 11
898.56958516503835
 21
1062.8118675463431
  0
LINE
  8
_2-2_in_line
  6
CONTINUOUS
 62
    7
 10
898.56958516503835
 20
1062.8118675463431
 11
898.63660566336773
 21
1062.6905737926384
  0
LINE
  8
_2-2_in_line
  6
CONTINUOUS
 62
    7
 10
898.63660566336773
 20
1062.6905737926384
 11
898.67264557445321
 21
1062.6189221347979
  0
LINE
  8
_2-2_in_line
  6
CONTINUOUS
 62
    7
 10
898.67264557445321
 20
1062.6189221347979
 11
898.71929742781174
 21
1062.5174462437442
  0
LINE
  8
_2-2_in_line
  6
CONTINUOUS
 62
    7
 10
898.71929742781174
 20
1062.5174462437442
 11
898.79078418616371
 21
1062.338681864692
  0
LINE
  8
_2-2_in_line
  6
CONTINUOUS
 62
    7
 10
898.79078418616371
 20
1062.338681864692
 11
898.85273552478691
 21
1062.155861446545
  0
LINE
  8
_2-2_in_line
  6
CONTINUOUS
 62
    7
 10
898.85273552478691
 20
1062.155861446545
 11
898.907233413055
 21
1061.9698705873545
  0
LINE
  8
_2-2_in_line
  6
CONTINUOUS
 62
    7
 10
898.907233413055
 20
1061.9698705873545
 11
898.95635982034162
 21
1061.7815948851787
  0
LINE
  8
_2-2_in_line
  6
CONTINUOUS
 62
    7
 10
898.95635982034162
 20
1061.7815948851787
 11
899.00219671602042
 21
1061.591919938078
  0
LINE
  8
_2-2_in_line
  6
CONTINUOUS
 62
    7
 10
899.00219671602042
 20
1061.591919938078
 11
899.02809526549061
 21
1061.481616306419
  0
LINE
  8
_2-2_in_line
  6
CONTINUOUS
 62
    7
 10
830.28021940287442
 20
1061.481616306419
 11
888.28021940287397
 21
1061.481616306419
  0
LINE
  8
_2-2_in_line
  6
CONTINUOUS
 62
    7
 10
830.28021940287442
 20
1056.481616306419
 11
1130.2802194028745
 21
1056.481616306419
  0
ARC
  8
_2-2_in_line
  6
CONTINUOUS
 62
    7
 10
1122.280219402875
 20
1069.4816163064163
 40
8
 50
270
 51
0
  0
LINE
  8
_2-2_in_line
  6
CONTINUOUS
 62
    7
 10
1078.2773514698069
 20
1066.481616306419
 11
1078.2591326822844
 21
1066.6125212530985
  0
LINE
  8
_2-2_in_line
  6
CONTINUOUS
 62
    7
 10
1078.2591326822844
 20
1066.6125212530985
 11
1078.2260659026238
 21
1066.8375951881151
  0
LINE
  8
_2-2_in_line
  6
CONTINUOUS
 62
    7
 10
1078.2260659026238
 20
1066.8375951881151
 11
1078.1884016867562
 21
1067.0609350983752
  0
LINE
  8
_2-2_in_line
  6
CONTINUOUS
 62
    7
 10
1078.1884016867562
 20
1067.0609350983752
 11
1078.1432302649332
 21
1067.2814434998465
  0
LINE
  8
_2-2_in_line
  6
CONTINUOUS
 62
    7
 10
1078.1432302649332
 20
1067.2814434998465
 11
1078.087641867402
 21
1067.4980229085033
  0
LINE
  8
_2-2_in_line
  6
CONTINUOUS
 62
    7
 10
1078.087641867402
 20
1067.4980229085033
 11
1078.0187267244141
 21
1067.7095758403223
  0
LINE
  8
_2-2_in_line
  6
CONTINUOUS
 62
    7
 10
1078.0187267244141
 20
1067.7095758403223
 11
1077.9715030261209
 21
1067.8295409433124
  0
LINE
  8
_2-2_in_line
  6
CONTINUOUS
 62
    7
 10
1077.9715030261209
 20
1067.8295409433124
 11
1077.9305619648576
 21
1067.9216577829086
  0
LINE
  8
_2-2_in_line
  6
CONTINUOUS
 62
    7
 10
1077.9305619648576
 20
1067.9216577829086
 11
1077.852146792176
 21
1068.0773720859158
  0
LINE
  8
_2-2_in_line
  6
CONTINUOUS
 62
    7
 10
1077.852146792176
 20
1068.0773720859158
 11
1077.7650397778498
 21
1068.2293756887977
  0
LINE
  8
_2-2_in_line
  6
CONTINUOUS
 62
    7
 10
1077.7650397778498
 20
1068.2293756887977
 11
1077.6706547887002
 21
1068.3779282046
  0
LINE
  8
_2-2_in_line
  6
CONTINUOUS
 62
    7
 10
1077.6706547887002
 20
1068.3779282046
 11
1077.5704056915574
 21
1068.523289246373
  0
LINE
  8
_2-2_in_line
  6
CONTINUOUS
 62
    7
 10
1077.5704056915574
 20
1068.523289246373
 11
1077.4657063532404
 21
1068.6657184271692
  0
LINE
  8
_2-2_in_line
  6
CONTINUOUS
 62
    7
 10
1077.4657063532404
 20
1068.6657184271692
 11
1077.4034987735618
 21
1068.7470862743705
  0
LINE
  8
_2-2_in_line
  6
CONTINUOUS
 62
    7
 10
1077.4034987735618
 20
1068.7470862743705
 11
1077.3292824996238
 21
1068.8417698671744
  0
LINE
  8
_2-2_in_line
  6
CONTINUOUS
 62
    7
 10
1077.3292824996238
 20
1068.8417698671744
 11
1077.1990575595205
 21
1069.0024886610356
  0
LINE
  8
_2-2_in_line
  6
CONTINUOUS
 62
    7
 10
1077.1990575595205
 20
1069.0024886610356
 11
1077.0662057403015
 21
1069.1603554234259
  0
LINE
  8
_2-2_in_line
  6
CONTINUOUS
 62
    7
 10
1077.0662057403015
 20
1069.1603554234259
 11
1076.9310076021716
 21
1069.3157759168914
  0
LINE
  8
_2-2_in_line
  6
CONTINUOUS
 62
    7
 10
1076.9310076021716
 20
1069.3157759168914
 11
1076.7937437053492
 21
1069.4691559039804
  0
LINE
  8
_2-2_in_line
  6
CONTINUOUS
 62
    7
 10
1076.7937437053492
 20
1069.4691559039804
 11
1076.6546946100416
 21
1069.6209011472367
  0
LINE
  8
_2-2_in_line
  6
CONTINUOUS
 62
    7
 10
1076.6546946100416
 20
1069.6209011472367
 11
1076.5733387121295
 21
1069.7083242402416
  0
LINE
  8
_2-2_in_line
  6
CONTINUOUS
 62
    7
 10
1076.5733387121295
 20
1069.7083242402416
 11
1076.4877036387147
 21
1069.7993944146381
  0
LINE
  8
_2-2_in_line
  6
CONTINUOUS
 62
    7
 10
1076.4877036387147
 20
1069.7993944146381
 11
1076.3385062804073
 21
1069.9550961634761
  0
LINE
  8
_2-2_in_line
  6
CONTINUOUS
 62
    7
 10
1076.3385062804073
 20
1069.9550961634761
 11
1076.1867560668375
 21
1070.108442141873
  0
LINE
  8
_2-2_in_line
  6
CONTINUOUS
 62
    7
 10
1076.1867560668375
 20
1070.108442141873
 11
1076.0317669873339
 21
1070.2586297807923
  0
LINE
  8
_2-2_in_line
  6
CONTINUOUS
 62
    7
 10
1076.0317669873339
 20
1070.2586297807923
 11
1075.8728530312251
 21
1070.4048565111909
  0
LINE
  8
_2-2_in_line
  6
CONTINUOUS
 62
    7
 10
1075.8728530312251
 20
1070.4048565111909
 11
1075.7093281878465
 21
1070.5463197640167
  0
LINE
  8
_2-2_in_line
  6
CONTINUOUS
 62
    7
 10
1075.7093281878465
 20
1070.5463197640167
 11
1075.6121007462584
 21
1070.6258695712997
  0
LINE
  8
_2-2_in_line
  6
CONTINUOUS
 62
    7
 10
1075.6121007462584
 20
1070.6258695712997
 11
1075.5244470467155
 21
1070.6945949237981
  0
LINE
  8
_2-2_in_line
  6
CONTINUOUS
 62
    7
 10
1075.5244470467155
 20
1070.6945949237981
 11
1075.3698339467965
 21
1070.8088076915967
  0
LINE
  8
_2-2_in_line
  6
CONTINUOUS
 62
    7
 10
1075.3698339467965
 20
1070.8088076915967
 11
1075.2108688036074
 21
1070.9167803805306
  0
LINE
  8
_2-2_in_line
  6
CONTINUOUS
 62
    7
 10
1075.2108688036074
 20
1070.9167803805306
 11
1075.0476221463773
 21
1071.0175556119523
  0
LINE
  8
_2-2_in_line
  6
CONTINUOUS
 62
    7
 10
1075.0476221463773
 20
1071.0175556119523
 11
1074.8801645043491
 21
1071.1101760072395
  0
LINE
  8
_2-2_in_line
  6
CONTINUOUS
 62
    7
 10
1074.8801645043491
 20
1071.1101760072395
 11
1074.7085664067449
 21
1071.1936841877516
  0
LINE
  8
_2-2_in_line
  6
CONTINUOUS
 62
    7
 10
1074.7085664067449
 20
1071.1936841877516
 11
1074.6071701455744
 21
1071.2375664586718
  0
LINE
  8
_2-2_in_line
  6
CONTINUOUS
 62
    7
 10
1074.6071701455744
 20
1071.2375664586718
 11
1074.4932646528368
 21
1071.2820951719348
  0
LINE
  8
_2-2_in_line
  6
CONTINUOUS
 62
    7
 10
1074.4932646528368
 20
1071.2820951719348
 11
1074.2933761949816
 21
1071.3494058003473
  0
LINE
  8
_2-2_in_line
  6
CONTINUOUS
 62
    7
 10
1074.2933761949816
 20
1071.3494058003473
 11
1074.089674096123
 21
1071.4060093518472
  0
LINE
  8
_2-2_in_line
  6
CONTINUOUS
 62
    7
 10
1074.089674096123
 20
1071.4060093518472
 11
1073.8828750193161
 21
1071.4533842255789
  0
LINE
  8
_2-2_in_line
  6
CONTINUOUS
 62
    7
 10
1073.8828750193161
 20
1071.4533842255789
 11
1073.673695627605
 21
1071.4930088206872
  0
LINE
  8
_2-2_in_line
  6
CONTINUOUS
 62
    7
 10
1073.673695627605
 20
1071.4930088206872
 11
1073.4628525840517
 21
1071.5263615363235
  0
LINE
  8
_2-2_in_line
  6
CONTINUOUS
 62
    7
 10
1073.4628525840517
 20
1071.5263615363235
 11
1073.3400837360218
 21
1071.5434149023579
  0
LINE
  8
_2-2_in_line
  6
CONTINUOUS
 62
    7
 10
1073.3400837360218
 20
1071.5434149023579
 11
1073.1916267659371
 21
1071.5621319016238
  0
LINE
  8
_2-2_in_line
  6
CONTINUOUS
 62
    7
 10
1073.1916267659371
 20
1071.5621319016238
 11
1072.9353065006503
 21
1071.5890386627123
  0
LINE
  8
_2-2_in_line
  6
CONTINUOUS
 62
    7
 10
1072.9353065006503
 20
1071.5890386627123
 11
1072.6789111720714
 21
1071.6078969100138
  0
LINE
  8
_2-2_in_line
  6
CONTINUOUS
 62
    7
 10
1072.6789111720714
 20
1071.6078969100138
 11
1072.4228833354405
 21
1071.6172430011991
  0
LINE
  8
_2-2_in_line
  6
CONTINUOUS
 62
    7
 10
1072.4228833354405
 20
1071.6172430011991
 11
1072.1676655460046
 21
1071.6156132939525
  0
LINE
  8
_2-2_in_line
  6
CONTINUOUS
 62
    7
 10
1072.1676655460046
 20
1071.6156132939525
 11
1071.9137003590154
 21
1071.6015441459515
  0
LINE
  8
_2-2_in_line
  6
CONTINUOUS
 62
    7
 10
1071.9137003590154
 20
1071.6015441459515
 11
1071.7671488827787
 21
1071.5871075371708
  0
LINE
  8
_2-2_in_line
  6
CONTINUOUS
 62
    7
 10
1071.7671488827787
 20
1071.5871075371708
 11
1071.6598046912136
 21
1071.5734177510878
  0
LINE
  8
_2-2_in_line
  6
CONTINUOUS
 62
    7
 10
1071.6598046912136
 20
1071.5734177510878
 11
1071.4753546304441
 21
1071.5444581198406
  0
LINE
  8
_2-2_in_line
  6
CONTINUOUS
 62
    7
 10
1071.4753546304441
 20
1071.5444581198406
 11
1071.2913837730016
 21
1071.510142638306
  0
LINE
  8
_2-2_in_line
  6
CONTINUOUS
 62
    7
 10
1071.2913837730016
 20
1071.510142638306
 11
1071.1075277371415
 21
1071.4721278122763
  0
LINE
  8
_2-2_in_line
  6
CONTINUOUS
 62
    7
 10
1071.1075277371415
 20
1071.4721278122763
 11
1070.9234221411239
 21
1071.432070147571
  0
LINE
  8
_2-2_in_line
  6
CONTINUOUS
 62
    7
 10
1070.9234221411239
 20
1071.432070147571
 11
1070.7387026031952
 21
1071.391626149996
  0
LINE
  8
_2-2_in_line
  6
CONTINUOUS
 62
    7
 10
1070.7387026031952
 20
1071.391626149996
 11
1070.6311403776604
 21
1071.3686443631107
  0
LINE
  8
_2-2_in_line
  6
CONTINUOUS
 62
    7
 10
1070.6311403776604
 20
1071.3686443631107
 11
1070.5090291463321
 21
1071.343370641612
  0
LINE
  8
_2-2_in_line
  6
CONTINUOUS
 62
    7
 10
1070.5090291463321
 20
1071.343370641612
 11
1070.2982311227688
 21
1071.3000211253759
  0
LINE
  8
_2-2_in_line
  6
CONTINUOUS
 62
    7
 10
1070.2982311227688
 20
1071.3000211253759
 11
1070.0885258989288
 21
1071.2538879672277
  0
LINE
  8
_2-2_in_line
  6
CONTINUOUS
 62
    7
 10
1070.0885258989288
 20
1071.2538879672277
 11
1069.88156894966
 21
1071.2014019255232
  0
LINE
  8
_2-2_in_line
  6
CONTINUOUS
 62
    7
 10
1069.88156894966
 20
1071.2014019255232
 11
1069.6790157498085
 21
1071.138993758623
  0
LINE
  8
_2-2_in_line
  6
CONTINUOUS
 62
    7
 10
1069.6790157498085
 20
1071.138993758623
 11
1069.4825217742086
 21
1071.063094224892
  0
LINE
  8
_2-2_in_line
  6
CONTINUOUS
 62
    7
 10
1069.4825217742086
 20
1071.063094224892
 11
1069.3719839480868
 21
1071.0114842842361
  0
LINE
  8
_2-2_in_line
  6
CONTINUOUS
 62
    7
 10
1069.3719839480868
 20
1071.0114842842361
 11
1069.272661716906
 21
1070.9583988123088
  0
LINE
  8
_2-2_in_line
  6
CONTINUOUS
 62
    7
 10
1069.272661716906
 20
1070.9583988123088
 11
1069.1072378017193
 21
1070.8551125312126
  0
LINE
  8
_2-2_in_line
  6
CONTINUOUS
 62
    7
 10
1069.1072378017193
 20
1070.8551125312126
 11
1068.949186230358
 21
1070.7385628994782
  0
LINE
  8
_2-2_in_line
  6
CONTINUOUS
 62
    7
 10
1068.949186230358
 20
1070.7385628994782
 11
1068.7985111839421
 21
1070.6106362261655
  0
LINE
  8
_2-2_in_line
  6
CONTINUOUS
 62
    7
 10
1068.7985111839421
 20
1070.6106362261655
 11
1068.6552168435733
 21
1070.4732188203163
  0
LINE
  8
_2-2_in_line
  6
CONTINUOUS
 62
    7
 10
1068.6552168435733
 20
1070.4732188203163
 11
1068.5193073903715
 21
1070.328196990986
  0
LINE
  8
_2-2_in_line
  6
CONTINUOUS
 62
    7
 10
1068.5193073903715
 20
1070.328196990986
 11
1068.4438653103839
 21
1070.2413432869891
  0
LINE
  8
_2-2_in_line
  6
CONTINUOUS
 62
    7
 10
1068.4438653103839
 20
1070.2413432869891
 11
1068.3595702860125
 21
1070.1387758989997
  0
LINE
  8
_2-2_in_line
  6
CONTINUOUS
 62
    7
 10
1068.3595702860125
 20
1070.1387758989997
 11
1068.221398426746
 21
1069.9574908892625
  0
LINE
  8
_2-2_in_line
  6
CONTINUOUS
 62
    7
 10
1068.221398426746
 20
1069.9574908892625
 11
1068.0912881597274
 21
1069.7712662146434
  0
LINE
  8
_2-2_in_line
  6
CONTINUOUS
 62
    7
 10
1068.0912881597274
 20
1069.7712662146434
 11
1067.9680682577409
 21
1069.5809001535556
  0
LINE
  8
_2-2_in_line
  6
CONTINUOUS
 62
    7
 10
1067.9680682577409
 20
1069.5809001535556
 11
1067.8505674935709
 21
1069.3871909844122
  0
LINE
  8
_2-2_in_line
  6
CONTINUOUS
 62
    7
 10
1067.8505674935709
 20
1069.3871909844122
 11
1067.7376146400015
 21
1069.1909369856287
  0
LINE
  8
_2-2_in_line
  6
CONTINUOUS
 62
    7
 10
1067.7376146400015
 20
1069.1909369856287
 11
1067.6737243131438
 21
1069.0762581885976
  0
LINE
  8
_2-2_in_line
  6
CONTINUOUS
 62
    7
 10
1067.6737243131438
 20
1069.0762581885976
 11
1067.606456945638
 21
1068.9531915964633
  0
LINE
  8
_2-2_in_line
  6
CONTINUOUS
 62
    7
 10
1067.606456945638
 20
1068.9531915964633
 11
1067.4924757044291
 21
1068.7399848400948
  0
LINE
  8
_2-2_in_line
  6
CONTINUOUS
 62
    7
 10
1067.4924757044291
 20
1068.7399848400948
 11
1067.3803611560643
 21
1068.5256878405564
  0
LINE
  8
_2-2_in_line
  6
CONTINUOUS
 62
    7
 10
1067.3803611560643
 20
1068.5256878405564
 11
1067.269344546818
 21
1068.3105385794809
  0
LINE
  8
_2-2_in_line
  6
CONTINUOUS
 62
    7
 10
1067.269344546818
 20
1068.3105385794809
 11
1067.1586571229559
 21
1068.0947750385033
  0
LINE
  8
_2-2_in_line
  6
CONTINUOUS
 62
    7
 10
1067.1586571229559
 20
1068.0947750385033
 11
1067.0475301307592
 21
1067.8786351992474
  0
LINE
  8
_2-2_in_line
  6
CONTINUOUS
 62
    7
 10
1067.0475301307592
 20
1067.8786351992474
 11
1066.9825721361294
 21
1067.7531954497456
  0
LINE
  8
_2-2_in_line
  6
CONTINUOUS
 62
    7
 10
1066.9825721361294
 20
1067.7531954497456
 11
1066.8941586819542
 21
1067.5843672667409
  0
LINE
  8
_2-2_in_line
  6
CONTINUOUS
 62
    7
 10
1066.8941586819542
 20
1067.5843672667409
 11
1066.7376538660224
 21
1067.294971500851
  0
LINE
  8
_2-2_in_line
  6
CONTINUOUS
 62
    7
 10
1066.7376538660224
 20
1067.294971500851
 11
1066.5734322727976
 21
1067.0102633246008
  0
LINE
  8
_2-2_in_line
  6
CONTINUOUS
 62
    7
 10
1066.5734322727976
 20
1067.0102633246008
 11
1066.3985082854119
 21
1066.7332098965837
  0
LINE
  8
_2-2_in_line
  6
CONTINUOUS
 62
    7
 10
1066.3985082854119
 20
1066.7332098965837
 11
1066.2098962870109
 21
1066.4667783753955
  0
LINE
  8
_2-2_in_line
  6
CONTINUOUS
 62
    7
 10
1066.2098962870109
 20
1066.4667783753955
 11
1066.0046106607356
 21
1066.2139359196387
  0
LINE
  8
_2-2_in_line
  6
CONTINUOUS
 62
    7
 10
1066.0046106607356
 20
1066.2139359196387
 11
1065.8767286529101
 21
1066.0746830198607
  0
LINE
  8
_2-2_in_line
  6
CONTINUOUS
 62
    7
 10
1065.8767286529101
 20
1066.0746830198607
 11
1065.8305134806064
 21
1066.0275780139457
  0
LINE
  8
_2-2_in_line
  6
CONTINUOUS
 62
    7
 10
1065.8305134806064
 20
1066.0275780139457
 11
1065.7488142190655
 21
1065.9482329189134
  0
LINE
  8
_2-2_in_line
  6
CONTINUOUS
 62
    7
 10
1065.7488142190655
 20
1065.9482329189134
 11
1065.664611826734
 21
1065.87143280947
  0
LINE
  8
_2-2_in_line
  6
CONTINUOUS
 62
    7
 10
1065.664611826734
 20
1065.87143280947
 11
1065.5779658512406
 21
1065.7973839061472
  0
LINE
  8
_2-2_in_line
  6
CONTINUOUS
 62
    7
 10
1065.5779658512406
 20
1065.7973839061472
 11
1065.4889358402047
 21
1065.7262924294539
  0
LINE
  8
_2-2_in_line
  6
CONTINUOUS
 62
    7
 10
1065.4889358402047
 20
1065.7262924294539
 11
1065.3975813412503
 21
1065.6583645999265
  0
LINE
  8
_2-2_in_line
  6
CONTINUOUS
 62
    7
 10
1065.3975813412503
 20
1065.6583645999265
 11
1065.3435541163585
 21
1065.6204973035326
  0
LINE
  8
_2-2_in_line
  6
CONTINUOUS
 62
    7
 10
1065.3435541163585
 20
1065.6204973035326
 11
1065.2539527052695
 21
1065.5612046131594
  0
LINE
  8
_2-2_in_line
  6
CONTINUOUS
 62
    7
 10
1065.2539527052695
 20
1065.5612046131594
 11
1065.0957612610991
 21
1065.4647913489637
  0
LINE
  8
_2-2_in_line
  6
CONTINUOUS
 62
    7
 10
1065.0957612610991
 20
1065.4647913489637
 11
1064.9343499740658
 21
1065.3734629398925
  0
LINE
  8
_2-2_in_line
  6
CONTINUOUS
 62
    7
 10
1064.9343499740658
 20
1065.3734629398925
 11
1064.7714300257726
 21
1065.2845722314398
  0
LINE
  8
_2-2_in_line
  6
CONTINUOUS
 62
    7
 10
1064.7714300257726
 20
1065.2845722314398
 11
1064.6087125978206
 21
1065.1954720691085
  0
LINE
  8
_2-2_in_line
  6
CONTINUOUS
 62
    7
 10
1064.6087125978206
 20
1065.1954720691085
 11
1064.4479088718085
 21
1065.1035152983766
  0
LINE
  8
_2-2_in_line
  6
CONTINUOUS
 62
    7
 10
1064.4479088718085
 20
1065.1035152983766
 11
1064.3561938634834
 21
1065.0478283568693
  0
LINE
  8
_2-2_in_line
  6
CONTINUOUS
 62
    7
 10
1064.3561938634834
 20
1065.0478283568693
 11
1064.263782871084
 21
1064.9884635869946
  0
LINE
  8
_2-2_in_line
  6
CONTINUOUS
 62
    7
 10
1064.263782871084
 20
1064.9884635869946
 11
1064.1078398689287
 21
1064.8809618252292
  0
LINE
  8
_2-2_in_line
  6
CONTINUOUS
 62
    7
 10
1064.1078398689287
 20
1064.8809618252292
 11
1063.9555173267049
 21
1064.7679786352594
  0
LINE
  8
_2-2_in_line
  6
CONTINUOUS
 62
    7
 10
1063.9555173267049
 20
1064.7679786352594
 11
1063.8060408379729
 21
1064.6507185828616
  0
LINE
  8
_2-2_in_line
  6
CONTINUOUS
 62
    7
 10
1063.8060408379729
 20
1064.6507185828616
 11
1063.6586359962794
 21
1064.5303862338167
  0
LINE
  8
_2-2_in_line
  6
CONTINUOUS
 62
    7
 10
1063.6586359962794
 20
1064.5303862338167
 11
1063.5125283951825
 21
1064.4081861538918
  0
LINE
  8
_2-2_in_line
  6
CONTINUOUS
 62
    7
 10
1063.5125283951825
 20
1064.4081861538918
 11
1063.4280752257805
 21
1064.3369289747991
  0
LINE
  8
_2-2_in_line
  6
CONTINUOUS
 62
    7
 10
1063.4280752257805
 20
1064.3369289747991
 11
1063.3222333621611
 21
1064.2474483908975
  0
LINE
  8
_2-2_in_line
  6
CONTINUOUS
 62
    7
 10
1063.3222333621611
 20
1064.2474483908975
 11
1063.1406605838506
 21
1064.0923653371012
  0
LINE
  8
_2-2_in_line
  6
CONTINUOUS
 62
    7
 10
1063.1406605838506
 20
1064.0923653371012
 11
1062.9614859312269
 21
1063.934976168862
  0
LINE
  8
_2-2_in_line
  6
CONTINUOUS
 62
    7
 10
1062.9614859312269
 20
1063.934976168862
 11
1062.7861538050015
 21
1063.7737859709321
  0
LINE
  8
_2-2_in_line
  6
CONTINUOUS
 62
    7
 10
1062.7861538050015
 20
1063.7737859709321
 11
1062.6161086058905
 21
1063.6072998280863
  0
LINE
  8
_2-2_in_line
  6
CONTINUOUS
 62
    7
 10
1062.6161086058905
 20
1063.6072998280863
 11
1062.4527947346146
 21
1063.4340228250746
  0
LINE
  8
_2-2_in_line
  6
CONTINUOUS
 62
    7
 10
1062.4527947346146
 20
1063.4340228250746
 11
1062.3617261526751
 21
1063.3298215168636
  0
LINE
  8
_2-2_in_line
  6
CONTINUOUS
 62
    7
 10
1062.3617261526751
 20
1063.3298215168636
 11
1062.3100668800375
 21
1063.2677342413424
  0
LINE
  8
_2-2_in_line
  6
CONTINUOUS
 62
    7
 10
1062.3100668800375
 20
1063.2677342413424
 11
1062.223741769732
 21
1063.1582615015034
  0
LINE
  8
_2-2_in_line
  6
CONTINUOUS
 62
    7
 10
1062.223741769732
 20
1063.1582615015034
 11
1062.1413818976011
 21
1063.0457602437448
  0
LINE
  8
_2-2_in_line
  6
CONTINUOUS
 62
    7
 10
1062.1413818976011
 20
1063.0457602437448
 11
1062.0635612068522
 21
1062.9302793110357
  0
LINE
  8
_2-2_in_line
  6
CONTINUOUS
 62
    7
 10
1062.0635612068522
 20
1062.9302793110357
 11
1061.9908536407106
 21
1062.8118675463431
  0
LINE
  8
_2-2_in_line
  6
CONTINUOUS
 62
    7
 10
1061.9908536407106
 20
1062.8118675463431
 11
1061.9238331423812
 21
1062.6905737926384
  0
LINE
  8
_2-2_in_line
  6
CONTINUOUS
 62
    7
 10
1061.9238331423812
 20
1062.6905737926384
 11
1061.8877932312957
 21
1062.6189221347979
  0
LINE
  8
_2-2_in_line
  6
CONTINUOUS
 62
    7
 10
1061.8877932312957
 20
1062.6189221347979
 11
1061.8411413779372
 21
1062.5174462437442
  0
LINE
  8
_2-2_in_line
  6
CONTINUOUS
 62
    7
 10
1061.8411413779372
 20
1062.5174462437442
 11
1061.7696546195853
 21
1062.338681864692
  0
LINE
  8
_2-2_in_line
  6
CONTINUOUS
 62
    7
 10
1061.7696546195853
 20
1062.338681864692
 11
1061.7077032809621
 21
1062.155861446545
  0
LINE
  8
_2-2_in_line
  6
CONTINUOUS
 62
    7
 10
1061.7077032809621
 20
1062.155861446545
 11
1061.653205392694
 21
1061.9698705873545
  0
LINE
  8
_2-2_in_line
  6
CONTINUOUS
 62
    7
 10
1061.653205392694
 20
1061.9698705873545
 11
1061.6040789854073
 21
1061.7815948851787
  0
LINE
  8
_2-2_in_line
  6
CONTINUOUS
 62
    7
 10
1061.6040789854073
 20
1061.7815948851787
 11
1061.5582420897285
 21
1061.591919938078
  0
LINE
  8
_2-2_in_line
  6
CONTINUOUS
 62
    7
 10
1061.5582420897285
 20
1061.591919938078
 11
1061.5323435402584
 21
1061.481616306419
  0
LINE
  8
_2-2_in_line
  6
CONTINUOUS
 62
    7
 10
1130.2802194028745
 20
1061.481616306419
 11
1072.280219402875
 21
1061.481616306419
  0
LINE
  8
_2-2_in_line
  6
CONTINUOUS
 62
    7
 10
1130.2802194028745
 20
1156.481616306419
 11
1419.9598465500424
 21
1156.481616306419
  0
LINE
  8
_2-2_in_line
  6
CONTINUOUS
 62
    7
 10
1130.2802194028745
 20
1196.481616306419
 11
1130.2802194028745
 21
1056.481616306419
  0
LINE
  8
_2-2_in_line
  6
CONTINUOUS
 62
    7
 10
1130.2802194028745
 20
1196.481616306419
 11
1419.9598465500424
 21
1196.481616306419
  0
LINE
  8
_2-2_in_line
  6
CONTINUOUS
 62
    7
 10
1129.141799445214
 20
1149.9816163064181
 11
1130.2802194028745
 21
1146.5663564334366
  0
LINE
  8
_2-2_in_line
  6
CONTINUOUS
 62
    7
 10
1130.2802194028745
 20
1186.481616306419
 11
1151.1417994452133
 21
1186.481616306419
  0
LINE
  8
_2-2_in_line
  6
CONTINUOUS
 62
    7
 10
1155.1417994452131
 20
1186.481616306419
 11
1419.9598465500424
 21
1186.481616306419
  0
LINE
  8
_2-2_in_line
  6
CONTINUOUS
 62
    7
 10
1178.1417994452138
 20
1198.981616306419
 11
1185.6417994452217
 21
1196.481616306419
  0
LINE
  8
_2-2_in_line
  6
CONTINUOUS
 62
    7
 10
1118.1417994452138
 20
1158.1673600725096
 11
1118.0108944985343
 21
1158.1491412849871
  0
LINE
  8
_2-2_in_line
  6
CONTINUOUS
 62
    7
 10
1118.0108944985343
 20
1158.1491412849871
 11
1117.7858205635177
 21
1158.1160745053264
  0
LINE
  8
_2-2_in_line
  6
CONTINUOUS
 62
    7
 10
1117.7858205635177
 20
1158.1160745053264
 11
1117.5624806532587
 21
1158.0784102894588
  0
LINE
  8
_2-2_in_line
  6
CONTINUOUS
 62
    7
 10
1117.5624806532587
 20
1158.0784102894588
 11
1117.3419722517874
 21
1158.0332388676359
  0
LINE
  8
_2-2_in_line
  6
CONTINUOUS
 62
    7
 10
1117.3419722517874
 20
1158.0332388676359
 11
1117.1253928431295
 21
1157.9776504701047
  0
LINE
  8
_2-2_in_line
  6
CONTINUOUS
 62
    7
 10
1117.1253928431295
 20
1157.9776504701047
 11
1116.9138399113117
 21
1157.9087353271168
  0
LINE
  8
_2-2_in_line
  6
CONTINUOUS
 62
    7
 10
1116.9138399113117
 20
1157.9087353271168
 11
1116.7938748083193
 21
1157.8615116288236
  0
LINE
  8
_2-2_in_line
  6
CONTINUOUS
 62
    7
 10
1116.7938748083193
 20
1157.8615116288236
 11
1116.7017579687242
 21
1157.8205705675603
  0
LINE
  8
_2-2_in_line
  6
CONTINUOUS
 62
    7
 10
1116.7017579687242
 20
1157.8205705675603
 11
1116.546043665717
 21
1157.7421553948786
  0
LINE
  8
_2-2_in_line
  6
CONTINUOUS
 62
    7
 10
1116.546043665717
 20
1157.7421553948786
 11
1116.3940400628339
 21
1157.6550483805524
  0
LINE
  8
_2-2_in_line
  6
CONTINUOUS
 62
    7
 10
1116.3940400628339
 20
1157.6550483805524
 11
1116.2454875470328
 21
1157.5606633914028
  0
LINE
  8
_2-2_in_line
  6
CONTINUOUS
 62
    7
 10
1116.2454875470328
 20
1157.5606633914028
 11
1116.1001265052587
 21
1157.4604142942601
  0
LINE
  8
_2-2_in_line
  6
CONTINUOUS
 62
    7
 10
1116.1001265052587
 20
1157.4604142942601
 11
1115.9576973244625
 21
1157.3557149559431
  0
LINE
  8
_2-2_in_line
  6
CONTINUOUS
 62
    7
 10
1115.9576973244625
 20
1157.3557149559431
 11
1115.8763294772612
 21
1157.2935073762644
  0
LINE
  8
_2-2_in_line
  6
CONTINUOUS
 62
    7
 10
1115.8763294772612
 20
1157.2935073762644
 11
1115.7816458844584
 21
1157.2192911023265
  0
LINE
  8
_2-2_in_line
  6
CONTINUOUS
 62
    7
 10
1115.7816458844584
 20
1157.2192911023265
 11
1115.6209270905972
 21
1157.0890661622232
  0
LINE
  8
_2-2_in_line
  6
CONTINUOUS
 62
    7
 10
1115.6209270905972
 20
1157.0890661622232
 11
1115.4630603282069
 21
1156.9562143430041
  0
LINE
  8
_2-2_in_line
  6
CONTINUOUS
 62
    7
 10
1115.4630603282069
 20
1156.9562143430041
 11
1115.3076398347414
 21
1156.8210162048742
  0
LINE
  8
_2-2_in_line
  6
CONTINUOUS
 62
    7
 10
1115.3076398347414
 20
1156.8210162048742
 11
1115.1542598476524
 21
1156.6837523080519
  0
LINE
  8
_2-2_in_line
  6
CONTINUOUS
 62
    7
 10
1115.1542598476524
 20
1156.6837523080519
 11
1115.0025146043961
 21
1156.5447032127443
  0
LINE
  8
_2-2_in_line
  6
CONTINUOUS
 62
    7
 10
1115.0025146043961
 20
1156.5447032127443
 11
1114.9150915113901
 21
1156.4633473148322
  0
LINE
  8
_2-2_in_line
  6
CONTINUOUS
 62
    7
 10
1114.9150915113901
 20
1156.4633473148322
 11
1114.8240213369947
 21
1156.3777122414174
  0
LINE
  8
_2-2_in_line
  6
CONTINUOUS
 62
    7
 10
1114.8240213369947
 20
1156.3777122414174
 11
1114.6683195881567
 21
1156.2285148831099
  0
LINE
  8
_2-2_in_line
  6
CONTINUOUS
 62
    7
 10
1114.6683195881567
 20
1156.2285148831099
 11
1114.5149736097599
 21
1156.0767646695401
  0
LINE
  8
_2-2_in_line
  6
CONTINUOUS
 62
    7
 10
1114.5149736097599
 20
1156.0767646695401
 11
1114.3647859708394
 21
1155.9217755900365
  0
LINE
  8
_2-2_in_line
  6
CONTINUOUS
 62
    7
 10
1114.3647859708394
 20
1155.9217755900365
 11
1114.218559240443
 21
1155.7628616339277
  0
LINE
  8
_2-2_in_line
  6
CONTINUOUS
 62
    7
 10
1114.218559240443
 20
1155.7628616339277
 11
1114.0770959876149
 21
1155.5993367905492
  0
LINE
  8
_2-2_in_line
  6
CONTINUOUS
 62
    7
 10
1114.0770959876149
 20
1155.5993367905492
 11
1113.9975461803342
 21
1155.5021093489611
  0
LINE
  8
_2-2_in_line
  6
CONTINUOUS
 62
    7
 10
1113.9975461803342
 20
1155.5021093489611
 11
1113.9288208278347
 21
1155.4144556494182
  0
LINE
  8
_2-2_in_line
  6
CONTINUOUS
 62
    7
 10
1113.9288208278347
 20
1155.4144556494182
 11
1113.814608060035
 21
1155.2598425494991
  0
LINE
  8
_2-2_in_line
  6
CONTINUOUS
 62
    7
 10
1113.814608060035
 20
1155.2598425494991
 11
1113.7066353711023
 21
1155.10087740631
  0
LINE
  8
_2-2_in_line
  6
CONTINUOUS
 62
    7
 10
1113.7066353711023
 20
1155.10087740631
 11
1113.6058601396794
 21
1154.93763074908
  0
LINE
  8
_2-2_in_line
  6
CONTINUOUS
 62
    7
 10
1113.6058601396794
 20
1154.93763074908
 11
1113.5132397443933
 21
1154.7701731070517
  0
LINE
  8
_2-2_in_line
  6
CONTINUOUS
 62
    7
 10
1113.5132397443933
 20
1154.7701731070517
 11
1113.4297315638801
 21
1154.5985750094476
  0
LINE
  8
_2-2_in_line
  6
CONTINUOUS
 62
    7
 10
1113.4297315638801
 20
1154.5985750094476
 11
1113.3858492929621
 21
1154.4971787482771
  0
LINE
  8
_2-2_in_line
  6
CONTINUOUS
 62
    7
 10
1113.3858492929621
 20
1154.4971787482771
 11
1113.341320579698
 21
1154.3832732555395
  0
LINE
  8
_2-2_in_line
  6
CONTINUOUS
 62
    7
 10
1113.341320579698
 20
1154.3832732555395
 11
1113.2740099512844
 21
1154.1833847976843
  0
LINE
  8
_2-2_in_line
  6
CONTINUOUS
 62
    7
 10
1113.2740099512844
 20
1154.1833847976843
 11
1113.2174063997857
 21
1153.9796826988256
  0
LINE
  8
_2-2_in_line
  6
CONTINUOUS
 62
    7
 10
1113.2174063997857
 20
1153.9796826988256
 11
1113.1700315260539
 21
1153.7728836220188
  0
LINE
  8
_2-2_in_line
  6
CONTINUOUS
 62
    7
 10
1113.1700315260539
 20
1153.7728836220188
 11
1113.1304069309456
 21
1153.5637042303076
  0
LINE
  8
_2-2_in_line
  6
CONTINUOUS
 62
    7
 10
1113.1304069309456
 20
1153.5637042303076
 11
1113.0970542153093
 21
1153.3528611867544
  0
LINE
  8
_2-2_in_line
  6
CONTINUOUS
 62
    7
 10
1113.0970542153093
 20
1153.3528611867544
 11
1113.0800008492738
 21
1153.2300923387245
  0
LINE
  8
_2-2_in_line
  6
CONTINUOUS
 62
    7
 10
1113.0800008492738
 20
1153.2300923387245
 11
1113.0612838500101
 21
1153.0816353686398
  0
LINE
  8
_2-2_in_line
  6
CONTINUOUS
 62
    7
 10
1113.0612838500101
 20
1153.0816353686398
 11
1113.0343770889206
 21
1152.825315103353
  0
LINE
  8
_2-2_in_line
  6
CONTINUOUS
 62
    7
 10
1113.0343770889206
 20
1152.825315103353
 11
1113.0155188416179
 21
1152.568919774774
  0
LINE
  8
_2-2_in_line
  6
CONTINUOUS
 62
    7
 10
1113.0155188416179
 20
1152.568919774774
 11
1113.0061727504337
 21
1152.3128919381431
  0
LINE
  8
_2-2_in_line
  6
CONTINUOUS
 62
    7
 10
1113.0061727504337
 20
1152.3128919381431
 11
1113.0078024576803
 21
1152.0576741487073
  0
LINE
  8
_2-2_in_line
  6
CONTINUOUS
 62
    7
 10
1113.0078024576803
 20
1152.0576741487073
 11
1113.0218716056813
 21
1151.803708961718
  0
LINE
  8
_2-2_in_line
  6
CONTINUOUS
 62
    7
 10
1113.0218716056813
 20
1151.803708961718
 11
1113.036308214462
 21
1151.6571574854813
  0
LINE
  8
_2-2_in_line
  6
CONTINUOUS
 62
    7
 10
1113.036308214462
 20
1151.6571574854813
 11
1113.049998000545
 21
1151.5498132939163
  0
LINE
  8
_2-2_in_line
  6
CONTINUOUS
 62
    7
 10
1113.049998000545
 20
1151.5498132939163
 11
1113.0789576317923
 21
1151.3653632331468
  0
LINE
  8
_2-2_in_line
  6
CONTINUOUS
 62
    7
 10
1113.0789576317923
 20
1151.3653632331468
 11
1113.1132731133268
 21
1151.1813923757043
  0
LINE
  8
_2-2_in_line
  6
CONTINUOUS
 62
    7
 10
1113.1132731133268
 20
1151.1813923757043
 11
1113.1512879393554
 21
1150.9975363398441
  0
LINE
  8
_2-2_in_line
  6
CONTINUOUS
 62
    7
 10
1113.1512879393554
 20
1150.9975363398441
 11
1113.1913456040606
 21
1150.8134307438265
  0
LINE
  8
_2-2_in_line
  6
CONTINUOUS
 62
    7
 10
1113.1913456040606
 20
1150.8134307438265
 11
1113.2317896016368
 21
1150.6287112058978
  0
LINE
  8
_2-2_in_line
  6
CONTINUOUS
 62
    7
 10
1113.2317896016368
 20
1150.6287112058978
 11
1113.2547713885222
 21
1150.521148980363
  0
LINE
  8
_2-2_in_line
  6
CONTINUOUS
 62
    7
 10
1113.2547713885222
 20
1150.521148980363
 11
1113.2800451100197
 21
1150.3990377490347
  0
LINE
  8
_2-2_in_line
  6
CONTINUOUS
 62
    7
 10
1113.2800451100197
 20
1150.3990377490347
 11
1113.3233946262558
 21
1150.1882397254715
  0
LINE
  8
_2-2_in_line
  6
CONTINUOUS
 62
    7
 10
1113.3233946262558
 20
1150.1882397254715
 11
1113.3695277844063
 21
1149.9785345016314
  0
LINE
  8
_2-2_in_line
  6
CONTINUOUS
 62
    7
 10
1113.3695277844063
 20
1149.9785345016314
 11
1113.4220138261085
 21
1149.7715775523627
  0
LINE
  8
_2-2_in_line
  6
CONTINUOUS
 62
    7
 10
1113.4220138261085
 20
1149.7715775523627
 11
1113.4844219930087
 21
1149.5690243525112
  0
LINE
  8
_2-2_in_line
  6
CONTINUOUS
 62
    7
 10
1113.4844219930087
 20
1149.5690243525112
 11
1113.5603215267408
 21
1149.3725303769113
  0
LINE
  8
_2-2_in_line
  6
CONTINUOUS
 62
    7
 10
1113.5603215267408
 20
1149.3725303769113
 11
1113.6119314673967
 21
1149.2619925507895
  0
LINE
  8
_2-2_in_line
  6
CONTINUOUS
 62
    7
 10
1113.6119314673967
 20
1149.2619925507895
 11
1113.6650169393229
 21
1149.1626703196087
  0
LINE
  8
_2-2_in_line
  6
CONTINUOUS
 62
    7
 10
1113.6650169393229
 20
1149.1626703196087
 11
1113.7683032204191
 21
1148.997246404422
  0
LINE
  8
_2-2_in_line
  6
CONTINUOUS
 62
    7
 10
1113.7683032204191
 20
1148.997246404422
 11
1113.8848528521535
 21
1148.8391948330607
  0
LINE
  8
_2-2_in_line
  6
CONTINUOUS
 62
    7
 10
1113.8848528521535
 20
1148.8391948330607
 11
1114.0127795254673
 21
1148.6885197866447
  0
LINE
  8
_2-2_in_line
  6
CONTINUOUS
 62
    7
 10
1114.0127795254673
 20
1148.6885197866447
 11
1114.1501969313153
 21
1148.5452254462759
  0
LINE
  8
_2-2_in_line
  6
CONTINUOUS
 62
    7
 10
1114.1501969313153
 20
1148.5452254462759
 11
1114.2952187606456
 21
1148.4093159930742
  0
LINE
  8
_2-2_in_line
  6
CONTINUOUS
 62
    7
 10
1114.2952187606456
 20
1148.4093159930742
 11
1114.3820724646425
 21
1148.3338739130866
  0
LINE
  8
_2-2_in_line
  6
CONTINUOUS
 62
    7
 10
1114.3820724646425
 20
1148.3338739130866
 11
1114.484639852632
 21
1148.2495788887152
  0
LINE
  8
_2-2_in_line
  6
CONTINUOUS
 62
    7
 10
1114.484639852632
 20
1148.2495788887152
 11
1114.6659248623703
 21
1148.1114070294486
  0
LINE
  8
_2-2_in_line
  6
CONTINUOUS
 62
    7
 10
1114.6659248623703
 20
1148.1114070294486
 11
1114.8521495369905
 21
1147.98129676243
  0
LINE
  8
_2-2_in_line
  6
CONTINUOUS
 62
    7
 10
1114.8521495369905
 20
1147.98129676243
 11
1115.0425155980784
 21
1147.8580768604436
  0
LINE
  8
_2-2_in_line
  6
CONTINUOUS
 62
    7
 10
1115.0425155980784
 20
1147.8580768604436
 11
1115.2362247672218
 21
1147.7405760962736
  0
LINE
  8
_2-2_in_line
  6
CONTINUOUS
 62
    7
 10
1115.2362247672218
 20
1147.7405760962736
 11
1115.4324787660053
 21
1147.6276232427042
  0
LINE
  8
_2-2_in_line
  6
CONTINUOUS
 62
    7
 10
1115.4324787660053
 20
1147.6276232427042
 11
1115.547157563034
 21
1147.5637329158465
  0
LINE
  8
_2-2_in_line
  6
CONTINUOUS
 62
    7
 10
1115.547157563034
 20
1147.5637329158465
 11
1115.6702241551695
 21
1147.4964655483407
  0
LINE
  8
_2-2_in_line
  6
CONTINUOUS
 62
    7
 10
1115.6702241551695
 20
1147.4964655483407
 11
1115.883430911538
 21
1147.3824843071318
  0
LINE
  8
_2-2_in_line
  6
CONTINUOUS
 62
    7
 10
1115.883430911538
 20
1147.3824843071318
 11
1116.0977279110753
 21
1147.2703697587669
  0
LINE
  8
_2-2_in_line
  6
CONTINUOUS
 62
    7
 10
1116.0977279110753
 20
1147.2703697587669
 11
1116.3128771721508
 21
1147.1593531495207
  0
LINE
  8
_2-2_in_line
  6
CONTINUOUS
 62
    7
 10
1116.3128771721508
 20
1147.1593531495207
 11
1116.5286407131284
 21
1147.0486657256586
  0
LINE
  8
_2-2_in_line
  6
CONTINUOUS
 62
    7
 10
1116.5286407131284
 20
1147.0486657256586
 11
1116.7447805523855
 21
1146.9375387334619
  0
LINE
  8
_2-2_in_line
  6
CONTINUOUS
 62
    7
 10
1116.7447805523855
 20
1146.9375387334619
 11
1116.8702203018884
 21
1146.8725807388321
  0
LINE
  8
_2-2_in_line
  6
CONTINUOUS
 62
    7
 10
1116.8702203018884
 20
1146.8725807388321
 11
1117.0390484848908
 21
1146.7841672846569
  0
LINE
  8
_2-2_in_line
  6
CONTINUOUS
 62
    7
 10
1117.0390484848908
 20
1146.7841672846569
 11
1117.3284442507806
 21
1146.627662468725
  0
LINE
  8
_2-2_in_line
  6
CONTINUOUS
 62
    7
 10
1117.3284442507806
 20
1146.627662468725
 11
1117.613152427032
 21
1146.4634408755003
  0
LINE
  8
_2-2_in_line
  6
CONTINUOUS
 62
    7
 10
1117.613152427032
 20
1146.4634408755003
 11
1117.8902058550491
 21
1146.2885168881146
  0
LINE
  8
_2-2_in_line
  6
CONTINUOUS
 62
    7
 10
1117.8902058550491
 20
1146.2885168881146
 11
1118.1566373762373
 21
1146.0999048897136
  0
LINE
  8
_2-2_in_line
  6
CONTINUOUS
 62
    7
 10
1118.1566373762373
 20
1146.0999048897136
 11
1118.4094798319941
 21
1145.8946192634382
  0
LINE
  8
_2-2_in_line
  6
CONTINUOUS
 62
    7
 10
1118.4094798319941
 20
1145.8946192634382
 11
1118.5487327317721
 21
1145.7667372556127
  0
LINE
  8
_2-2_in_line
  6
CONTINUOUS
 62
    7
 10
1118.5487327317721
 20
1145.7667372556127
 11
1118.595837737686
 21
1145.7205220833091
  0
LINE
  8
_2-2_in_line
  6
CONTINUOUS
 62
    7
 10
1118.595837737686
 20
1145.7205220833091
 11
1118.6751828327183
 21
1145.6388228217681
  0
LINE
  8
_2-2_in_line
  6
CONTINUOUS
 62
    7
 10
1118.6751828327183
 20
1145.6388228217681
 11
1118.7519829421628
 21
1145.5546204294367
  0
LINE
  8
_2-2_in_line
  6
CONTINUOUS
 62
    7
 10
1118.7519829421628
 20
1145.5546204294367
 11
1118.8260318454857
 21
1145.4679744539433
  0
LINE
  8
_2-2_in_line
  6
CONTINUOUS
 62
    7
 10
1118.8260318454857
 20
1145.4679744539433
 11
1118.8971233221778
 21
1145.3789444429074
  0
LINE
  8
_2-2_in_line
  6
CONTINUOUS
 62
    7
 10
1118.8971233221778
 20
1145.3789444429074
 11
1118.9650511517075
 21
1145.287589943953
  0
LINE
  8
_2-2_in_line
  6
CONTINUOUS
 62
    7
 10
1118.9650511517075
 20
1145.287589943953
 11
1119.0029184481002
 21
1145.2335627190612
  0
LINE
  8
_2-2_in_line
  6
CONTINUOUS
 62
    7
 10
1119.0029184481002
 20
1145.2335627190612
 11
1119.0622111384735
 21
1145.1439613079722
  0
LINE
  8
_2-2_in_line
  6
CONTINUOUS
 62
    7
 10
1119.0622111384735
 20
1145.1439613079722
 11
1119.1586244026703
 21
1144.9857698638018
  0
LINE
  8
_2-2_in_line
  6
CONTINUOUS
 62
    7
 10
1119.1586244026703
 20
1144.9857698638018
 11
1119.2499528117414
 21
1144.8243585767684
  0
LINE
  8
_2-2_in_line
  6
CONTINUOUS
 62
    7
 10
1119.2499528117414
 20
1144.8243585767684
 11
1119.3388435201919
 21
1144.6614386284753
  0
LINE
  8
_2-2_in_line
  6
CONTINUOUS
 62
    7
 10
1119.3388435201919
 20
1144.6614386284753
 11
1119.4279436825243
 21
1144.4987212005233
  0
LINE
  8
_2-2_in_line
  6
CONTINUOUS
 62
    7
 10
1119.4279436825243
 20
1144.4987212005233
 11
1119.5199004532562
 21
1144.3379174745112
  0
LINE
  8
_2-2_in_line
  6
CONTINUOUS
 62
    7
 10
1119.5199004532562
 20
1144.3379174745112
 11
1119.5755873947646
 21
1144.2462024661861
  0
LINE
  8
_2-2_in_line
  6
CONTINUOUS
 62
    7
 10
1119.5755873947646
 20
1144.2462024661861
 11
1119.6349521646382
 21
1144.1537914737867
  0
LINE
  8
_2-2_in_line
  6
CONTINUOUS
 62
    7
 10
1119.6349521646382
 20
1144.1537914737867
 11
1119.7424539264036
 21
1143.9978484716314
  0
LINE
  8
_2-2_in_line
  6
CONTINUOUS
 62
    7
 10
1119.7424539264036
 20
1143.9978484716314
 11
1119.8554371163746
 21
1143.8455259294076
  0
LINE
  8
_2-2_in_line
  6
CONTINUOUS
 62
    7
 10
1119.8554371163746
 20
1143.8455259294076
 11
1119.9726971687701
 21
1143.6960494406756
  0
LINE
  8
_2-2_in_line
  6
CONTINUOUS
 62
    7
 10
1119.9726971687701
 20
1143.6960494406756
 11
1120.0930295178161
 21
1143.548644598982
  0
LINE
  8
_2-2_in_line
  6
CONTINUOUS
 62
    7
 10
1120.0930295178161
 20
1143.548644598982
 11
1120.2152295977398
 21
1143.4025369978851
  0
LINE
  8
_2-2_in_line
  6
CONTINUOUS
 62
    7
 10
1120.2152295977398
 20
1143.4025369978851
 11
1120.2864867768337
 21
1143.3180838284832
  0
LINE
  8
_2-2_in_line
  6
CONTINUOUS
 62
    7
 10
1120.2864867768337
 20
1143.3180838284832
 11
1120.3759673607353
 21
1143.2122419648638
  0
LINE
  8
_2-2_in_line
  6
CONTINUOUS
 62
    7
 10
1120.3759673607353
 20
1143.2122419648638
 11
1120.5310504145305
 21
1143.0306691865533
  0
LINE
  8
_2-2_in_line
  6
CONTINUOUS
 62
    7
 10
1120.5310504145305
 20
1143.0306691865533
 11
1120.6884395827697
 21
1142.8514945339296
  0
LINE
  8
_2-2_in_line
  6
CONTINUOUS
 62
    7
 10
1120.6884395827697
 20
1142.8514945339296
 11
1120.8496297807008
 21
1142.6761624077042
  0
LINE
  8
_2-2_in_line
  6
CONTINUOUS
 62
    7
 10
1120.8496297807008
 20
1142.6761624077042
 11
1121.0161159235477
 21
1142.5061172085932
  0
LINE
  8
_2-2_in_line
  6
CONTINUOUS
 62
    7
 10
1121.0161159235477
 20
1142.5061172085932
 11
1121.1893929265582
 21
1142.3428033373173
  0
LINE
  8
_2-2_in_line
  6
CONTINUOUS
 62
    7
 10
1121.1893929265582
 20
1142.3428033373173
 11
1121.2935942347681
 21
1142.2517347553778
  0
LINE
  8
_2-2_in_line
  6
CONTINUOUS
 62
    7
 10
1121.2935942347681
 20
1142.2517347553778
 11
1121.3556815102904
 21
1142.2000754827402
  0
LINE
  8
_2-2_in_line
  6
CONTINUOUS
 62
    7
 10
1121.3556815102904
 20
1142.2000754827402
 11
1121.4651542501283
 21
1142.1137503724347
  0
LINE
  8
_2-2_in_line
  6
CONTINUOUS
 62
    7
 10
1121.4651542501283
 20
1142.1137503724347
 11
1121.5776555078892
 21
1142.0313905003038
  0
LINE
  8
_2-2_in_line
  6
CONTINUOUS
 62
    7
 10
1121.5776555078892
 20
1142.0313905003038
 11
1121.6931364405982
 21
1141.9535698095549
  0
LINE
  8
_2-2_in_line
  6
CONTINUOUS
 62
    7
 10
1121.6931364405982
 20
1141.9535698095549
 11
1121.8115482052897
 21
1141.8808622434133
  0
LINE
  8
_2-2_in_line
  6
CONTINUOUS
 62
    7
 10
1121.8115482052897
 20
1141.8808622434133
 11
1121.9328419589956
 21
1141.8138417450839
  0
LINE
  8
_2-2_in_line
  6
CONTINUOUS
 62
    7
 10
1121.9328419589956
 20
1141.8138417450839
 11
1122.0044936168349
 21
1141.7778018339984
  0
LINE
  8
_2-2_in_line
  6
CONTINUOUS
 62
    7
 10
1122.0044936168349
 20
1141.7778018339984
 11
1122.1059695078886
 21
1141.7311499806399
  0
LINE
  8
_2-2_in_line
  6
CONTINUOUS
 62
    7
 10
1122.1059695078886
 20
1141.7311499806399
 11
1122.2847338869408
 21
1141.6596632222879
  0
LINE
  8
_2-2_in_line
  6
CONTINUOUS
 62
    7
 10
1122.2847338869408
 20
1141.6596632222879
 11
1122.4675543050867
 21
1141.5977118836647
  0
LINE
  8
_2-2_in_line
  6
CONTINUOUS
 62
    7
 10
1122.4675543050867
 20
1141.5977118836647
 11
1122.6535451642771
 21
1141.5432139953966
  0
LINE
  8
_2-2_in_line
  6
CONTINUOUS
 62
    7
 10
1122.6535451642771
 20
1141.5432139953966
 11
1122.841820866453
 21
1141.49408758811
  0
LINE
  8
_2-2_in_line
  6
CONTINUOUS
 62
    7
 10
1122.841820866453
 20
1141.49408758811
 11
1123.0314958135536
 21
1141.4482506924312
  0
LINE
  8
_2-2_in_line
  6
CONTINUOUS
 62
    7
 10
1123.0314958135536
 20
1141.4482506924312
 11
1123.1417994452138
 21
1141.422352142961
  0
LINE
  8
_2-2_in_line
  6
CONTINUOUS
 62
    7
 10
1123.1417994452138
 20
1141.422352142961
 11
1125.2802194028745
 21
1141.422352142961
  0
TEXT
  8
_2-a_moji
 62
    7
 10
1213.6092264666595
 20
1069.8724908975739
 40
15
 41
1
 50
0
  1
ＥＬ-2001注入
  0
TEXT
  8
_2-b_dim
 62
    7
 10
1076.2683592409339
 20
1019.2011324997248
 40
15
 41
1
 50
0
  1
40以上
  0
TEXT
  8
_2-b_dim
 62
    7
 10
839.62897485076962
 20
1019.2011324997248
 40
15
 41
1
 50
0
  1
40以上
  0
LINE
  8
_2-a_moji
  6
CONTINUOUS
 62
    7
 10
730.71793566406609
 20
1262.8309085197022
 11
748.88424856461211
 21
1294.2958854496419
  0
LINE
  8
_2-a_moji
  6
CONTINUOUS
 62
    7
 10
778.0273373733844
 20
1294.2958854496419
 11
748.88424856461211
 21
1294.2958854496419
  0
LINE
  8
_2-2_in_line
  6
CONTINUOUS
 62
    7
 10
685.28021940287385
 20
1260.9816163064195
 11
685.28021940287385
 21
1256.481616306419
  0
ARC
  8
_2-2_in_line
  6
CONTINUOUS
 62
    7
 10
678.46482702100684
 20
1263.5264967307151
 40
7.2750250647521364
 50
284.45015214158957
 51
339.52427285005325
  0
LINE
  8
_2-2_in_line
  6
CONTINUOUS
 62
    7
 10
685.28021940287385
 20
1256.481616306419
 11
680.28021940287385
 21
1256.481616306419
  0
LINE
  8
_2-6_鋼板__アングル
  6
CONTINUOUS
 62
    2
 10
676.30522753273749
 20
1262.6816163064202
 11
676.30522753273749
 21
1221.1816163064193
  0
ARC
  8
_2-6_鋼板__アングル
  6
CONTINUOUS
 62
    2
 10
673.9052275327374
 20
1217.9330881689955
 40
0.5999999999999887
 50
135
 51
315
  0
LINE
  8
_2-6_鋼板__アングル
  6
CONTINUOUS
 62
    2
 10
676.30522753273749
 20
1221.1816163064193
 11
673.48096346402667
 21
1218.3573522377085
  0
LINE
  8
_2-6_鋼板__アングル
  6
CONTINUOUS
 62
    2
 10
677.8052275327384
 20
1220.9845600315728
 11
674.3294916014504
 21
1217.5088241002848
  0
LINE
  8
_2-6_鋼板__アングル
  6
CONTINUOUS
 62
    2
 10
727.05522753273794
 20
1267.1816163064207
 11
726.5552275327384
 21
1266.6816163064211
  0
LINE
  8
_2-6_鋼板__アングル
  6
CONTINUOUS
 62
    2
 10
726.05522753273658
 20
1267.1816163064207
 11
726.5552275327384
 21
1266.6816163064211
  0
LINE
  8
_2-6_鋼板__アングル
  6
CONTINUOUS
 62
    2
 10
726.05522753273658
 20
1267.1816163064207
 11
721.05522753273658
 21
1267.1816163064207
  0
LINE
  8
_2-6_鋼板__アングル
  6
CONTINUOUS
 62
    2
 10
717.30522753273658
 20
1262.6816163064202
 11
721.05522753273658
 21
1267.1816163064207
  0
LINE
  8
_2-6_鋼板__アングル
  6
CONTINUOUS
 62
    2
 10
732.05522753273794
 20
1267.1816163064207
 11
727.05522753273794
 21
1267.1816163064207
  0
LINE
  8
_2-6_鋼板__アングル
  6
CONTINUOUS
 62
    2
 10
717.30522753273658
 20
1262.6816163064202
 11
676.30522753273749
 21
1262.6816163064202
  0
LINE
  8
_2-6_鋼板__アングル
  6
CONTINUOUS
 62
    2
 10
677.8052275327384
 20
1231.7602959628609
 11
677.8052275327384
 21
1220.9845600315728
  0
ARC
  8
_2-6_鋼板__アングル
  6
CONTINUOUS
 62
    2
 10
678.10522753273813
 20
1231.7602959628609
 40
0.3
 50
45
 51
180
  0
ARC
  8
_2-6_鋼板__アングル
  6
CONTINUOUS
 62
    2
 10
742.70522753273849
 20
1262.7816163064201
 40
0.5999999999999943
 50
270
 51
90
  0
LINE
  8
_2-6_鋼板__アングル
  6
CONTINUOUS
 62
    2
 10
739.80522753273658
 20
1260.9816163064195
 11
739.30522753273704
 21
1261.481616306419
  0
LINE
  8
_2-6_鋼板__アングル
  6
CONTINUOUS
 62
    2
 10
739.30522753273704
 20
1261.481616306419
 11
738.80522753273749
 21
1260.9816163064195
  0
LINE
  8
_2-6_鋼板__アングル
  6
CONTINUOUS
 62
    2
 10
738.80522753273749
 20
1260.9816163064195
 11
738.30522753273794
 21
1261.481616306419
  0
LINE
  8
_2-6_鋼板__アングル
  6
CONTINUOUS
 62
    2
 10
738.30522753273794
 20
1261.481616306419
 11
737.8052275327384
 21
1260.9816163064195
  0
LINE
  8
_2-6_鋼板__アングル
  6
CONTINUOUS
 62
    2
 10
737.8052275327384
 20
1260.9816163064195
 11
737.30522753273658
 21
1261.481616306419
  0
LINE
  8
_2-6_鋼板__アングル
  6
CONTINUOUS
 62
    2
 10
737.30522753273658
 20
1261.481616306419
 11
736.80522753273704
 21
1260.9816163064195
  0
LINE
  8
_2-6_鋼板__アングル
  6
CONTINUOUS
 62
    2
 10
739.80522753273658
 20
1260.9816163064195
 11
741.10522753273767
 21
1262.1816163064207
  0
LINE
  8
_2-6_鋼板__アングル
  6
CONTINUOUS
 62
    2
 10
737.8052275327384
 20
1260.9816163064195
 11
737.30522753273658
 21
1261.481616306419
  0
LINE
  8
_2-6_鋼板__アングル
  6
CONTINUOUS
 62
    2
 10
737.30522753273658
 20
1261.481616306419
 11
736.80522753273704
 21
1260.9816163064195
  0
LINE
  8
_2-6_鋼板__アングル
  6
CONTINUOUS
 62
    2
 10
737.8052275327384
 20
1260.9816163064195
 11
737.30522753273658
 21
1261.481616306419
  0
LINE
  8
_2-6_鋼板__アングル
  6
CONTINUOUS
 62
    2
 10
737.30522753273658
 20
1261.481616306419
 11
736.80522753273704
 21
1260.9816163064195
  0
LINE
  8
_2-6_鋼板__アングル
  6
CONTINUOUS
 62
    2
 10
736.80522753273704
 20
1260.9816163064195
 11
736.30522753273749
 21
1261.481616306419
  0
LINE
  8
_2-6_鋼板__アングル
  6
CONTINUOUS
 62
    2
 10
742.70522753273849
 20
1262.1816163064207
 11
741.10522753273767
 21
1262.1816163064207
  0
LINE
  8
_2-6_鋼板__アングル
  6
CONTINUOUS
 62
    2
 10
736.09348816895204
 20
1261.2698769426358
 11
735.90316454554863
 21
1261.0795533192302
  0
LINE
  8
_2-6_鋼板__アングル
  6
CONTINUOUS
 62
    2
 10
736.30522753273749
 20
1261.481616306419
 11
735.62675452216195
 21
1260.8031432958435
  0
LINE
  8
_2-6_鋼板__アングル
  6
CONTINUOUS
 62
    2
 10
742.70522753273849
 20
1263.3816163064196
 11
735.22189419940401
 21
1263.3816163064196
  0
ARC
  8
_2-6_鋼板__アングル
  6
CONTINUOUS
 62
    2
 10
726.5552275327384
 20
1254.5816163064208
 40
11
 50
34.443505622823118
 51
144.42147426754133
  0
LINE
  8
_2-6_鋼板__アングル
  6
CONTINUOUS
 62
    2
 10
732.05522753273794
 20
1267.1816163064207
 11
735.22189419940401
 21
1263.3816163064196
  0
LINE
  8
_2-6_鋼板__アングル
  6
CONTINUOUS
 62
    2
 10
677.8052275327384
 20
1234.1816163064211
 11
680.08829323052237
 21
1231.8985506086349
  0
ARC
  8
_2-6_鋼板__アングル
  6
CONTINUOUS
 62
    2
 10
679.66402916180937
 20
1231.4742865399242
 40
0.5999999999999988
 50
224.99999999999807
 51
44.999999999998067
  0
LINE
  8
_2-6_鋼板__アングル
  6
CONTINUOUS
 62
    2
 10
678.31735956709349
 20
1231.9724279972163
 11
679.23976509309637
 21
1231.0500224712112
  0
LINE
  8
_2-6_鋼板__アングル
  6
CONTINUOUS
 62
    2
 10
677.8052275327384
 20
1260.9816163064195
 11
717.60871983420043
 21
1260.9816163064195
  0
LINE
  8
_2-6_鋼板__アングル
  6
CONTINUOUS
 62
    2
 10
677.8052275327384
 20
1260.9816163064195
 11
677.8052275327384
 21
1234.1816163064211
  0
ARC
  8
_2-7_ビス
  6
CONTINUOUS
 62
    7
 10
726.5552275327384
 20
1267.1816163064207
 40
3.3111998329776791
 50
0
 51
180
  0
LINE
  8
_2-7_ビス
  6
CONTINUOUS
 62
    7
 10
729.86642736571707
 20
1267.1816163064207
 11
723.244027699762
 21
1267.1816163064207
  0
LINE
  8
_2-7_ビス
  6
CONTINUOUS
 62
    7
 10
728.55522753273885
 20
1267.1816163064207
 11
728.55522753273885
 21
1256.481616306419
  0
LINE
  8
_2-7_ビス
  6
CONTINUOUS
 62
    7
 10
724.55522753273794
 20
1267.1816163064207
 11
724.55522753273794
 21
1256.481616306419
  0
LINE
  8
_2-d_ハッチ他
  6
CONTINUOUS
 62
    4
 10
732.48079172631219
 20
1260.9816163064195
 11
734.09256605842825
 21
1262.5933906385378
  0
LINE
  8
_2-d_ハッチ他
  6
CONTINUOUS
 62
    4
 10
728.94525782038795
 20
1260.9816163064195
 11
732.06556274469517
 21
1264.101921230729
  0
LINE
  8
_2-d_ハッチ他
  6
CONTINUOUS
 62
    4
 10
718.33865610258113
 20
1260.9816163064218
 11
721.90945189401032
 21
1264.5524120978532
  0
LINE
  8
_2-d_ハッチ他
  6
CONTINUOUS
 62
    4
 10
721.87419000852015
 20
1260.9816163064195
 11
724.55522753273794
 21
1263.6626538306361
  0
LINE
  8
_2-d_ハッチ他
  6
CONTINUOUS
 62
    4
 10
728.55522753273885
 20
1264.1271199247128
 11
729.58441249089742
 21
1265.1563048828737
  0
LINE
  8
_2-2_in_line
  6
CONTINUOUS
 62
    7
 10
717.60871983420043
 20
1260.9816163064195
 11
724.55522753273794
 21
1260.9816163064195
  0
LINE
  8
_2-2_in_line
  6
CONTINUOUS
 62
    7
 10
728.55522753273885
 20
1260.9816163064195
 11
735.50173523127637
 21
1260.9816163064195
  0
LINE
  8
_2-2_in_line
  6
CONTINUOUS
 62
    7
 10
680.28021940287385
 20
1256.481616306419
 11
680.28021940287385
 21
1231.6158275889497
  0
LINE
  8
_2-2_in_line
  6
RAND5
 62
    1
 10
710.28021940287385
 20
1256.481616306419
 11
685.28021940287385
 21
1256.481616306419
  0
LINE
  8
_2-d_ハッチ他
  6
CONTINUOUS
 62
    4
 10
680.72794823268123
 20
1256.6124333759356
 11
680.85876530219889
 21
1256.4816163064179
  0
LINE
  8
_2-d_ハッチ他
  6
CONTINUOUS
 62
    4
 10
681.72948350368256
 20
1257.0251116673003
 11
682.27297886456495
 21
1256.4816163064179
  0
LINE
  8
_2-d_ハッチ他
  6
CONTINUOUS
 62
    4
 10
682.61643476761787
 20
1257.5523739657401
 11
683.68719242693896
 21
1256.481616306419
  0
LINE
  8
_2-d_ハッチ他
  6
CONTINUOUS
 62
    4
 10
683.40084334541484
 20
1258.1821789503183
 11
685.10140598931525
 21
1256.4816163064179
  0
LINE
  8
_2-d_ハッチ他
  6
CONTINUOUS
 62
    4
 10
684.08735630396973
 20
1258.9098795541386
 11
685.28021940287726
 21
1257.717016455231
  0
LINE
  8
_2-d_ハッチ他
  6
CONTINUOUS
 62
    4
 10
684.67476413212307
 20
1259.7366852883513
 11
685.28021940287499
 21
1259.1312300175994
  0
LINE
  8
_2-d_ハッチ他
  6
CONTINUOUS
 62
    4
 10
685.1556174333582
 20
1260.6700455494913
 11
685.28021940287499
 21
1260.5454435799745
  0
LINE
  8
_2-a_moji
  6
CONTINUOUS
 62
    7
 10
699.38360900082625
 20
1256.481616306419
 11
735.64944419961603
 21
1319.2958854496419
  0
LINE
  8
_2-a_moji
  6
CONTINUOUS
 62
    7
 10
778.0273373733844
 20
1319.2958854496419
 11
719.88041930289069
 21
1319.2958854496419
  0
LINE
  8
_2-a_moji
  6
CONTINUOUS
 62
    7
 10
684.66961198988497
 20
1258.3089782079983
 11
719.88041930289069
 21
1319.2958854496419
  0
TEXT
  8
_2-a_moji
 62
    7
 10
788.0273373733844
 20
1286.7958854496419
 40
15
 41
1
 50
0
  1
Ｋ－１０（ホルダー内、ロンシーラントＬ充填）
  0
TEXT
  8
_2-a_moji
 62
    7
 10
788.0273373733844
 20
1311.7958854496419
 40
15
 41
1
 50
0
  1
ロンシーラントＬ
  0
LINE
  8
_2-2_in_line
  6
CONTINUOUS
 62
    7
 10
820.28021940287442
 20
1256.481616306419
 11
710.28021940287385
 21
1256.481616306419
  0
LINE
  8
_2-4_out_line
  6
CONTINUOUS
 62
    2
 10
680.28021940287442
 20
1231.6158275889497
 11
680.28021940287442
 21
906.48161630641891
  0
LINE
  8
_2-7_ビス
  6
CONTINUOUS
 62
    7
 10
729.55522753273908
 20
1252.3861311335068
 11
729.55522753273908
 21
1256.481616306419
  0
LINE
  8
_2-7_ビス
  6
CONTINUOUS
 62
    7
 10
729.55522753273908
 20
1256.481616306419
 11
726.5552275327384
 21
1256.481616306419
  0
LINE
  8
_2-7_ビス
  6
CONTINUOUS
 62
    7
 10
729.55522753273908
 20
1252.3861311335068
 11
730.3052275327384
 21
1251.561570213303
  0
LINE
  8
_2-7_ビス
  6
CONTINUOUS
 62
    7
 10
730.3052275327384
 20
1251.561570213303
 11
730.3052275327384
 21
1249.4629644861882
  0
LINE
  8
_2-7_ビス
  6
CONTINUOUS
 62
    7
 10
730.3052275327384
 20
1249.4629644861882
 11
729.75700828273784
 21
1245.3453711729392
  0
LINE
  8
_2-7_ビス
  6
CONTINUOUS
 62
    7
 10
729.75700828273784
 20
1245.3453711729392
 11
729.515084532738
 21
1244.9377566644184
  0
LINE
  8
_2-7_ビス
  6
CONTINUOUS
 62
    7
 10
729.515084532738
 20
1244.9377566644184
 11
729.55522753273908
 21
1244.9377566644184
  0
LINE
  8
_2-7_ビス
  6
CONTINUOUS
 62
    7
 10
729.55522753273908
 20
1244.9377566644184
 11
729.55522753273908
 21
1243.1237215778187
  0
LINE
  8
_2-7_ビス
  6
CONTINUOUS
 62
    7
 10
729.55522753273908
 20
1243.1237215778187
 11
729.12221497217115
 21
1242.2991601748188
  0
LINE
  8
_2-7_ビス
  6
CONTINUOUS
 62
    7
 10
729.25211878273853
 20
1242.051791753918
 11
730.2302275327379
 21
1242.051791753918
  0
LINE
  8
_2-7_ビス
  6
CONTINUOUS
 62
    7
 10
730.2302275327379
 20
1242.051791753918
 11
730.2302275327379
 21
1237.818401160039
  0
LINE
  8
_2-7_ビス
  6
CONTINUOUS
 62
    7
 10
730.2302275327379
 20
1237.818401160039
 11
729.72875803273791
 21
1236.8570549150186
  0
LINE
  8
_2-7_ビス
  6
CONTINUOUS
 62
    7
 10
729.72875803273791
 20
1236.8570549150186
 11
729.72397753273822
 21
1236.8570549150186
  0
LINE
  8
_2-7_ビス
  6
CONTINUOUS
 62
    7
 10
729.72397335945357
 20
1236.8570552688007
 11
729.72397753273822
 21
1236.8570549150186
  0
LINE
  8
_2-7_ビス
  6
CONTINUOUS
 62
    7
 10
729.72397335945357
 20
1236.8570552688007
 11
729.72397753273822
 21
1236.8570549150186
  0
LINE
  8
_2-7_ビス
  6
CONTINUOUS
 62
    7
 10
729.69138628273822
 20
1235.785125091119
 11
730.2302275327379
 21
1235.785125091119
  0
LINE
  8
_2-7_ビス
  6
CONTINUOUS
 62
    7
 10
730.2302275327379
 20
1235.785125091119
 11
730.2302275327379
 21
1229.9878919543451
  0
LINE
  8
_2-7_ビス
  6
CONTINUOUS
 62
    7
 10
730.2302275327379
 20
1229.9878919543451
 11
729.723980345678
 21
1229.0237405845803
  0
LINE
  8
_2-7_ビス
  6
CONTINUOUS
 62
    7
 10
729.72397753273822
 20
1229.0237215865184
 11
729.72038590238253
 21
1229.5011729837588
  0
LINE
  8
_2-7_ビス
  6
CONTINUOUS
 62
    7
 10
729.72038590238253
 20
1229.5011729837588
 11
729.39970589475888
 21
1229.5184584283188
  0
LINE
  8
_2-7_ビス
  6
CONTINUOUS
 62
    7
 10
729.241043854591
 20
1229.7658268492185
 11
729.69138628273822
 21
1230.5903882522184
  0
LINE
  8
_2-7_ビス
  6
CONTINUOUS
 62
    7
 10
729.69138628273822
 20
1230.5903882522184
 11
729.69138643486144
 21
1231.0678397212134
  0
LINE
  8
_2-7_ビス
  6
CONTINUOUS
 62
    7
 10
729.69138643486144
 20
1231.0678397212134
 11
729.34335403273917
 21
1231.0851250940188
  0
LINE
  8
_2-7_ビス
  6
CONTINUOUS
 62
    7
 10
729.18376428301781
 20
1231.3324935149185
 11
729.69138628273822
 21
1232.1570549179185
  0
LINE
  8
_2-7_ビス
  6
CONTINUOUS
 62
    7
 10
729.69138628273822
 20
1232.1570549179185
 11
729.69138628273822
 21
1232.6345064790271
  0
LINE
  8
_2-7_ビス
  6
CONTINUOUS
 62
    7
 10
729.69138628273822
 20
1232.6345064790271
 11
729.34335403273917
 21
1232.6517917597189
  0
LINE
  8
_2-7_ビス
  6
CONTINUOUS
 62
    7
 10
729.18376428301781
 20
1232.8991601806185
 11
729.69138628273822
 21
1233.7237215836185
  0
LINE
  8
_2-7_ビス
  6
CONTINUOUS
 62
    7
 10
729.69138628273822
 20
1233.7237215836185
 11
729.69138628273822
 21
1234.2011731447271
  0
LINE
  8
_2-7_ビス
  6
CONTINUOUS
 62
    7
 10
729.69138628273822
 20
1234.2011731447271
 11
729.34335403273917
 21
1234.2184584254189
  0
LINE
  8
_2-7_ビス
  6
CONTINUOUS
 62
    7
 10
729.18376428301781
 20
1234.4658268463186
 11
729.69138643486144
 21
1235.2903882493185
  0
LINE
  8
_2-7_ビス
  6
CONTINUOUS
 62
    7
 10
729.69138643486144
 20
1235.2903882493185
 11
729.69138628273822
 21
1235.785125091119
  0
LINE
  8
_2-7_ビス
  6
CONTINUOUS
 62
    7
 10
729.72397335945357
 20
1236.8570552688007
 11
729.72028815820818
 21
1237.3345067377945
  0
LINE
  8
_2-7_ビス
  6
CONTINUOUS
 62
    7
 10
729.72028815820818
 20
1237.3345067377945
 11
729.40284328273901
 21
1237.351791756819
  0
LINE
  8
_2-7_ビス
  6
CONTINUOUS
 62
    7
 10
729.24075114241828
 20
1237.5991601777187
 11
729.69138643486144
 21
1238.4237215807186
  0
LINE
  8
_2-7_ビス
  6
CONTINUOUS
 62
    7
 10
729.69138643486144
 20
1238.4237215807186
 11
729.69138643486144
 21
1238.9011730497125
  0
LINE
  8
_2-7_ビス
  6
CONTINUOUS
 62
    7
 10
729.69138643486144
 20
1238.9011730497125
 11
729.34335403273917
 21
1238.9184584225191
  0
LINE
  8
_2-7_ビス
  6
CONTINUOUS
 62
    7
 10
729.18376428301781
 20
1239.1658268434187
 11
729.69138628273822
 21
1239.9903882464187
  0
LINE
  8
_2-7_ビス
  6
CONTINUOUS
 62
    7
 10
729.69138628273822
 20
1239.9903882464187
 11
729.69138643486144
 21
1240.4678397154125
  0
LINE
  8
_2-7_ビス
  6
CONTINUOUS
 62
    7
 10
729.69138643486144
 20
1240.4678397154125
 11
729.34246794025012
 21
1240.4853566693785
  0
LINE
  8
_2-7_ビス
  6
CONTINUOUS
 62
    7
 10
729.18376428301781
 20
1240.7324935091187
 11
729.69138643486144
 21
1241.5570549121187
  0
LINE
  8
_2-7_ビス
  6
CONTINUOUS
 62
    7
 10
729.69138643486144
 20
1241.5570549121187
 11
729.69138627723123
 21
1242.051791753918
  0
LINE
  8
_2-7_ビス
  6
CONTINUOUS
 62
    7
 10
729.69138628273822
 20
1227.9517917626188
 11
730.2302275327379
 21
1227.9517917626188
  0
LINE
  8
_2-7_ビス
  6
CONTINUOUS
 62
    7
 10
730.2302275327379
 20
1227.9517917626188
 11
730.2302275327379
 21
1224.7035500277811
  0
LINE
  8
_2-7_ビス
  6
CONTINUOUS
 62
    7
 10
730.2302275327379
 20
1224.7035500277811
 11
729.72444178273872
 21
1221.1903882580182
  0
LINE
  8
_2-7_ビス
  6
CONTINUOUS
 62
    7
 10
729.72444178273872
 20
1221.1903882580182
 11
729.72370726507461
 21
1221.6678393421594
  0
LINE
  8
_2-7_ビス
  6
CONTINUOUS
 62
    7
 10
729.72370726507461
 20
1221.6678393421594
 11
729.41501878273766
 21
1221.6851250998186
  0
LINE
  8
_2-7_ビス
  6
CONTINUOUS
 62
    7
 10
729.72444178273872
 20
1221.1903882580182
 11
729.29096497217142
 21
1220.3658268550182
  0
LINE
  8
_2-7_ビス
  6
CONTINUOUS
 62
    7
 10
729.27046221795035
 20
1221.9324935207183
 11
729.72106455141056
 21
1222.7570549237182
  0
LINE
  8
_2-7_ビス
  6
CONTINUOUS
 62
    7
 10
729.72106455141056
 20
1222.7570549237182
 11
729.71897964714867
 21
1223.2345060078583
  0
LINE
  8
_2-7_ビス
  6
CONTINUOUS
 62
    7
 10
729.71897964714867
 20
1223.2345060078583
 11
729.39665278273833
 21
1223.2517917655186
  0
LINE
  8
_2-7_ビス
  6
CONTINUOUS
 62
    7
 10
729.24814728692081
 20
1223.4991601864183
 11
729.71201514624408
 21
1224.3237212045644
  0
LINE
  8
_2-7_ビス
  6
CONTINUOUS
 62
    7
 10
729.71201514624408
 20
1224.3237212045644
 11
729.70795230554768
 21
1224.8011726735594
  0
LINE
  8
_2-7_ビス
  6
CONTINUOUS
 62
    7
 10
729.70795230554768
 20
1224.8011726735594
 11
729.37329895027983
 21
1224.8184584312187
  0
LINE
  8
_2-7_ビス
  6
CONTINUOUS
 62
    7
 10
729.2160443341113
 20
1225.0658268521183
 11
729.69624695831681
 21
1225.8903878702645
  0
LINE
  8
_2-7_ビス
  6
CONTINUOUS
 62
    7
 10
729.69624695831681
 20
1225.8903878702645
 11
729.69138628273822
 21
1226.3678398162269
  0
LINE
  8
_2-7_ビス
  6
CONTINUOUS
 62
    7
 10
729.69138628273822
 20
1226.3678398162269
 11
729.34335403273917
 21
1226.3851250969187
  0
LINE
  8
_2-7_ビス
  6
CONTINUOUS
 62
    7
 10
729.18376428301781
 20
1226.6324935178184
 11
729.69138643486144
 21
1227.4570549208183
  0
LINE
  8
_2-7_ビス
  6
CONTINUOUS
 62
    7
 10
729.69138643486144
 20
1227.4570549208183
 11
729.69138628273822
 21
1227.9517917626188
  0
LINE
  8
_2-7_ビス
  6
CONTINUOUS
 62
    7
 10
729.42086878273767
 20
1220.1184584341186
 11
729.55522753273908
 21
1220.1184584341186
  0
LINE
  8
_2-7_ビス
  6
CONTINUOUS
 62
    7
 10
729.55522753273908
 20
1220.1184584341186
 11
729.55522753273908
 21
1219.335125101268
  0
LINE
  8
_2-7_ビス
  6
CONTINUOUS
 62
    7
 10
729.55522753273908
 20
1219.335125101268
 11
729.40522753273808
 21
1219.335125101268
  0
LINE
  8
_2-7_ビス
  6
CONTINUOUS
 62
    7
 10
729.40522753273808
 20
1219.335125101268
 11
729.40522753273808
 21
1217.7272303654186
  0
LINE
  8
_2-7_ビス
  6
CONTINUOUS
 62
    7
 10
729.40522753273808
 20
1217.7272303654186
 11
729.39876072193738
 21
1217.7272303654186
  0
LINE
  8
_2-7_ビス
  6
CONTINUOUS
 62
    7
 10
729.34848553273878
 20
1217.397405804219
 11
729.34848538619985
 21
1211.4469642113991
  0
LINE
  8
_2-7_ビス
  6
CONTINUOUS
 62
    7
 10
729.34848538619985
 20
1211.4469642113991
 11
728.90804803273863
 21
1210.7955433872396
  0
LINE
  8
_2-7_ビス
  6
CONTINUOUS
 62
    7
 10
728.90804803273863
 20
1210.7955433872396
 11
727.90522753273831
 21
1209.4816163354189
  0
LINE
  8
_2-7_ビス
  6
CONTINUOUS
 62
    7
 10
727.90522753273831
 20
1209.4816163354189
 11
727.75584905324376
 21
1209.4816163354189
  0
LINE
  8
_2-7_ビス
  6
CONTINUOUS
 62
    7
 10
727.75584905324376
 20
1209.4816163354189
 11
728.84094316255823
 21
1211.4469642113991
  0
LINE
  8
_2-7_ビス
  6
CONTINUOUS
 62
    7
 10
728.84094316255823
 20
1211.4469642113991
 11
728.84094328273886
 21
1215.4184584370184
  0
LINE
  8
_2-7_ビス
  6
CONTINUOUS
 62
    7
 10
728.25757978273896
 20
1215.4184584370184
 11
728.25758005617058
 21
1211.4469643640975
  0
LINE
  8
_2-7_ビス
  6
CONTINUOUS
 62
    7
 10
728.25758005617058
 20
1211.4469643640975
 11
727.17248569093795
 21
1209.4816163354189
  0
LINE
  8
_2-7_ビス
  6
CONTINUOUS
 62
    7
 10
727.17248569093795
 20
1209.4816163354189
 11
726.5552275327384
 21
1209.4816163354189
  0
LINE
  8
_2-7_ビス
  6
CONTINUOUS
 62
    7
 10
729.13292763782158
 20
1242.3195595874843
 11
729.13292763782158
 21
1242.3195595874843
  0
LINE
  8
_2-7_ビス
  6
CONTINUOUS
 62
    7
 10
729.13292763782158
 20
1242.3195595874843
 11
729.11972951246673
 21
1242.2933002321076
  0
LINE
  8
_2-7_ビス
  6
CONTINUOUS
 62
    7
 10
729.11972951246673
 20
1242.2933002321076
 11
729.1108794550953
 21
1242.2649201421386
  0
LINE
  8
_2-7_ビス
  6
CONTINUOUS
 62
    7
 10
729.1108794550953
 20
1242.2649201421386
 11
729.10664637022217
 21
1242.2352816322502
  0
LINE
  8
_2-7_ビス
  6
CONTINUOUS
 62
    7
 10
729.10664637022217
 20
1242.2352816322502
 11
729.10715887798938
 21
1242.2052852535674
  0
LINE
  8
_2-7_ビス
  6
CONTINUOUS
 62
    7
 10
729.10715887798938
 20
1242.2052852535674
 11
729.11240140610755
 21
1242.1758424308773
  0
LINE
  8
_2-7_ビス
  6
CONTINUOUS
 62
    7
 10
729.11240140610755
 20
1242.1758424308773
 11
729.12221466301276
 21
1242.1478477694491
  0
LINE
  8
_2-7_ビス
  6
CONTINUOUS
 62
    7
 10
729.12221466301276
 20
1242.1478477694491
 11
729.13630047785966
 21
1242.1221518729037
  0
LINE
  8
_2-7_ビス
  6
CONTINUOUS
 62
    7
 10
729.13630047785966
 20
1242.1221518729037
 11
729.15423086029193
 21
1242.0995354980555
  0
LINE
  8
_2-7_ビス
  6
CONTINUOUS
 62
    7
 10
729.15423086029193
 20
1242.0995354980555
 11
729.17546100471247
 21
1242.0806858320093
  0
LINE
  8
_2-7_ビス
  6
CONTINUOUS
 62
    7
 10
729.17546100471247
 20
1242.0806858320093
 11
729.19934584392615
 21
1242.0661756123297
  0
LINE
  8
_2-7_ビス
  6
CONTINUOUS
 62
    7
 10
729.19934584392615
 20
1242.0661756123297
 11
729.22515964917977
 21
1242.0564457246994
  0
LINE
  8
_2-7_ビス
  6
CONTINUOUS
 62
    7
 10
729.22515964917977
 20
1242.0564457246994
 11
729.25211808106303
 21
1242.0517918068301
  0
LINE
  8
_2-7_ビス
  6
CONTINUOUS
 62
    7
 10
729.25211808106303
 20
1242.0517918068301
 11
729.25211878273853
 21
1242.051791753918
  0
LINE
  8
_2-7_ビス
  6
CONTINUOUS
 62
    7
 10
729.18376428301713
 20
1240.7324935091185
 11
729.18376428301713
 21
1240.7324935091185
  0
LINE
  8
_2-7_ビス
  6
CONTINUOUS
 62
    7
 10
729.18376428301713
 20
1240.7324935091185
 11
729.18309317743001
 21
1240.6925353551301
  0
LINE
  8
_2-7_ビス
  6
CONTINUOUS
 62
    7
 10
729.18309317743001
 20
1240.6925353551301
 11
729.18874349599412
 21
1240.6530561335478
  0
LINE
  8
_2-7_ビス
  6
CONTINUOUS
 62
    7
 10
729.18874349599412
 20
1240.6530561335478
 11
729.20054355663888
 21
1240.6152554005421
  0
LINE
  8
_2-7_ビス
  6
CONTINUOUS
 62
    7
 10
729.20054355663888
 20
1240.6152554005421
 11
729.21813482049276
 21
1240.5802817122567
  0
LINE
  8
_2-7_ビス
  6
CONTINUOUS
 62
    7
 10
729.21813482049276
 20
1240.5802817122567
 11
729.24098278590532
 21
1240.5491977265133
  0
LINE
  8
_2-7_ビス
  6
CONTINUOUS
 62
    7
 10
729.24098278590532
 20
1240.5491977265133
 11
729.26839322900912
 21
1240.5229479144889
  0
LINE
  8
_2-7_ビス
  6
CONTINUOUS
 62
    7
 10
729.26839322900912
 20
1240.5229479144889
 11
729.29953329736054
 21
1240.5023298634392
  0
LINE
  8
_2-7_ビス
  6
CONTINUOUS
 62
    7
 10
729.29953329736054
 20
1240.5023298634392
 11
729.33345681574065
 21
1240.4879700424121
  0
LINE
  8
_2-7_ビス
  6
CONTINUOUS
 62
    7
 10
729.33345681574065
 20
1240.4879700424121
 11
729.34335403273781
 21
1240.4851250882184
  0
LINE
  8
_2-7_ビス
  6
CONTINUOUS
 62
    7
 10
729.18376428301713
 20
1239.1658268434185
 11
729.18376428301713
 21
1239.1658268434185
  0
LINE
  8
_2-7_ビス
  6
CONTINUOUS
 62
    7
 10
729.18376428301713
 20
1239.1658268434185
 11
729.18309317743001
 21
1239.12586868943
  0
LINE
  8
_2-7_ビス
  6
CONTINUOUS
 62
    7
 10
729.18309317743001
 20
1239.12586868943
 11
729.18874349599412
 21
1239.0863894678478
  0
LINE
  8
_2-7_ビス
  6
CONTINUOUS
 62
    7
 10
729.18874349599412
 20
1239.0863894678478
 11
729.20054355663888
 21
1239.048588734842
  0
LINE
  8
_2-7_ビス
  6
CONTINUOUS
 62
    7
 10
729.20054355663888
 20
1239.048588734842
 11
729.21813482049276
 21
1239.0136150465567
  0
LINE
  8
_2-7_ビス
  6
CONTINUOUS
 62
    7
 10
729.21813482049276
 20
1239.0136150465567
 11
729.24098278590532
 21
1238.9825310608132
  0
LINE
  8
_2-7_ビス
  6
CONTINUOUS
 62
    7
 10
729.24098278590532
 20
1238.9825310608132
 11
729.26839322900912
 21
1238.9562812487889
  0
LINE
  8
_2-7_ビス
  6
CONTINUOUS
 62
    7
 10
729.26839322900912
 20
1238.9562812487889
 11
729.29953329736054
 21
1238.9356631977391
  0
LINE
  8
_2-7_ビス
  6
CONTINUOUS
 62
    7
 10
729.29953329736054
 20
1238.9356631977391
 11
729.33345681574065
 21
1238.9213033767121
  0
LINE
  8
_2-7_ビス
  6
CONTINUOUS
 62
    7
 10
729.33345681574065
 20
1238.9213033767121
 11
729.34335403273781
 21
1238.9184584225184
  0
LINE
  8
_2-7_ビス
  6
CONTINUOUS
 62
    7
 10
729.24075114241873
 20
1237.5991601777184
 11
729.24075114241873
 21
1237.5991601777184
  0
LINE
  8
_2-7_ビス
  6
CONTINUOUS
 62
    7
 10
729.24075114241873
 20
1237.5991601777184
 11
729.24008003683161
 21
1237.55920202373
  0
LINE
  8
_2-7_ビス
  6
CONTINUOUS
 62
    7
 10
729.24008003683161
 20
1237.55920202373
 11
729.24573035539572
 21
1237.5197228021477
  0
LINE
  8
_2-7_ビス
  6
CONTINUOUS
 62
    7
 10
729.24573035539572
 20
1237.5197228021477
 11
729.25753041604048
 21
1237.481922069142
  0
LINE
  8
_2-7_ビス
  6
CONTINUOUS
 62
    7
 10
729.25753041604048
 20
1237.481922069142
 11
729.27512167989437
 21
1237.4469483808566
  0
LINE
  8
_2-7_ビス
  6
CONTINUOUS
 62
    7
 10
729.27512167989437
 20
1237.4469483808566
 11
729.29796964530692
 21
1237.4158643951132
  0
LINE
  8
_2-7_ビス
  6
CONTINUOUS
 62
    7
 10
729.29796964530692
 20
1237.4158643951132
 11
729.32538008841072
 21
1237.3896145830888
  0
LINE
  8
_2-7_ビス
  6
CONTINUOUS
 62
    7
 10
729.32538008841072
 20
1237.3896145830888
 11
729.35652015676214
 21
1237.3689965320391
  0
LINE
  8
_2-7_ビス
  6
CONTINUOUS
 62
    7
 10
729.35652015676214
 20
1237.3689965320391
 11
729.39044367514225
 21
1237.3546367110121
  0
LINE
  8
_2-7_ビス
  6
CONTINUOUS
 62
    7
 10
729.39044367514225
 20
1237.3546367110121
 11
729.40034089213941
 21
1237.3517917568183
  0
LINE
  8
_2-7_ビス
  6
CONTINUOUS
 62
    7
 10
729.18376428301713
 20
1234.4658268463184
 11
729.18376428301713
 21
1234.4658268463184
  0
LINE
  8
_2-7_ビス
  6
CONTINUOUS
 62
    7
 10
729.18376428301713
 20
1234.4658268463184
 11
729.18309317743001
 21
1234.4258686923299
  0
LINE
  8
_2-7_ビス
  6
CONTINUOUS
 62
    7
 10
729.18309317743001
 20
1234.4258686923299
 11
729.18874349599412
 21
1234.3863894707476
  0
LINE
  8
_2-7_ビス
  6
CONTINUOUS
 62
    7
 10
729.18874349599412
 20
1234.3863894707476
 11
729.20054355663888
 21
1234.3485887377419
  0
LINE
  8
_2-7_ビス
  6
CONTINUOUS
 62
    7
 10
729.20054355663888
 20
1234.3485887377419
 11
729.21813482049276
 21
1234.3136150494565
  0
LINE
  8
_2-7_ビス
  6
CONTINUOUS
 62
    7
 10
729.21813482049276
 20
1234.3136150494565
 11
729.24098278590532
 21
1234.2825310637131
  0
LINE
  8
_2-7_ビス
  6
CONTINUOUS
 62
    7
 10
729.24098278590532
 20
1234.2825310637131
 11
729.26839322900912
 21
1234.2562812516887
  0
LINE
  8
_2-7_ビス
  6
CONTINUOUS
 62
    7
 10
729.26839322900912
 20
1234.2562812516887
 11
729.29953329736054
 21
1234.235663200639
  0
LINE
  8
_2-7_ビス
  6
CONTINUOUS
 62
    7
 10
729.29953329736054
 20
1234.235663200639
 11
729.33345681574065
 21
1234.221303379612
  0
LINE
  8
_2-7_ビス
  6
CONTINUOUS
 62
    7
 10
729.33345681574065
 20
1234.221303379612
 11
729.34335403273781
 21
1234.2184584254182
  0
LINE
  8
_2-7_ビス
  6
CONTINUOUS
 62
    7
 10
729.18376428301713
 20
1232.8991601806183
 11
729.18376428301713
 21
1232.8991601806183
  0
LINE
  8
_2-7_ビス
  6
CONTINUOUS
 62
    7
 10
729.18376428301713
 20
1232.8991601806183
 11
729.18309317743001
 21
1232.8592020266299
  0
LINE
  8
_2-7_ビス
  6
CONTINUOUS
 62
    7
 10
729.18309317743001
 20
1232.8592020266299
 11
729.18874349599412
 21
1232.8197228050476
  0
LINE
  8
_2-7_ビス
  6
CONTINUOUS
 62
    7
 10
729.18874349599412
 20
1232.8197228050476
 11
729.20054355663888
 21
1232.7819220720419
  0
LINE
  8
_2-7_ビス
  6
CONTINUOUS
 62
    7
 10
729.20054355663888
 20
1232.7819220720419
 11
729.21813482049276
 21
1232.7469483837565
  0
LINE
  8
_2-7_ビス
  6
CONTINUOUS
 62
    7
 10
729.21813482049276
 20
1232.7469483837565
 11
729.24098278590532
 21
1232.7158643980131
  0
LINE
  8
_2-7_ビス
  6
CONTINUOUS
 62
    7
 10
729.24098278590532
 20
1232.7158643980131
 11
729.26839322900912
 21
1232.6896145859887
  0
LINE
  8
_2-7_ビス
  6
CONTINUOUS
 62
    7
 10
729.26839322900912
 20
1232.6896145859887
 11
729.29953329736054
 21
1232.668996534939
  0
LINE
  8
_2-7_ビス
  6
CONTINUOUS
 62
    7
 10
729.29953329736054
 20
1232.668996534939
 11
729.33345681574065
 21
1232.6546367139119
  0
LINE
  8
_2-7_ビス
  6
CONTINUOUS
 62
    7
 10
729.33345681574065
 20
1232.6546367139119
 11
729.34335403273781
 21
1232.6517917597182
  0
LINE
  8
_2-7_ビス
  6
CONTINUOUS
 62
    7
 10
729.18376428301713
 20
1231.3324935149183
 11
729.18376428301713
 21
1231.3324935149183
  0
LINE
  8
_2-7_ビス
  6
CONTINUOUS
 62
    7
 10
729.18376428301713
 20
1231.3324935149183
 11
729.18309317743001
 21
1231.2925353609298
  0
LINE
  8
_2-7_ビス
  6
CONTINUOUS
 62
    7
 10
729.18309317743001
 20
1231.2925353609298
 11
729.18874349599412
 21
1231.2530561393476
  0
LINE
  8
_2-7_ビス
  6
CONTINUOUS
 62
    7
 10
729.18874349599412
 20
1231.2530561393476
 11
729.20054355663888
 21
1231.2152554063418
  0
LINE
  8
_2-7_ビス
  6
CONTINUOUS
 62
    7
 10
729.20054355663888
 20
1231.2152554063418
 11
729.21813482049276
 21
1231.1802817180564
  0
LINE
  8
_2-7_ビス
  6
CONTINUOUS
 62
    7
 10
729.21813482049276
 20
1231.1802817180564
 11
729.24098278590532
 21
1231.149197732313
  0
LINE
  8
_2-7_ビス
  6
CONTINUOUS
 62
    7
 10
729.24098278590532
 20
1231.149197732313
 11
729.26839322900912
 21
1231.1229479202887
  0
LINE
  8
_2-7_ビス
  6
CONTINUOUS
 62
    7
 10
729.26839322900912
 20
1231.1229479202887
 11
729.29953329736054
 21
1231.1023298692389
  0
LINE
  8
_2-7_ビス
  6
CONTINUOUS
 62
    7
 10
729.29953329736054
 20
1231.1023298692389
 11
729.33345681574065
 21
1231.0879700482119
  0
LINE
  8
_2-7_ビス
  6
CONTINUOUS
 62
    7
 10
729.33345681574065
 20
1231.0879700482119
 11
729.34335403273781
 21
1231.0851250940182
  0
LINE
  8
_2-7_ビス
  6
CONTINUOUS
 62
    7
 10
729.24104385459145
 20
1229.7658268492182
 11
729.24104385459145
 21
1229.7658268492182
  0
LINE
  8
_2-7_ビス
  6
CONTINUOUS
 62
    7
 10
729.24104385459145
 20
1229.7658268492182
 11
729.24037274900434
 21
1229.7258686952298
  0
LINE
  8
_2-7_ビス
  6
CONTINUOUS
 62
    7
 10
729.24037274900434
 20
1229.7258686952298
 11
729.24602306756844
 21
1229.6863894736475
  0
LINE
  8
_2-7_ビス
  6
CONTINUOUS
 62
    7
 10
729.24602306756844
 20
1229.6863894736475
 11
729.2578231282132
 21
1229.6485887406418
  0
LINE
  8
_2-7_ビス
  6
CONTINUOUS
 62
    7
 10
729.2578231282132
 20
1229.6485887406418
 11
729.27541439206709
 21
1229.6136150523564
  0
LINE
  8
_2-7_ビス
  6
CONTINUOUS
 62
    7
 10
729.27541439206709
 20
1229.6136150523564
 11
729.29826235747964
 21
1229.582531066613
  0
LINE
  8
_2-7_ビス
  6
CONTINUOUS
 62
    7
 10
729.29826235747964
 20
1229.582531066613
 11
729.32567280058345
 21
1229.5562812545886
  0
LINE
  8
_2-7_ビス
  6
CONTINUOUS
 62
    7
 10
729.32567280058345
 20
1229.5562812545886
 11
729.35681286893487
 21
1229.5356632035389
  0
LINE
  8
_2-7_ビス
  6
CONTINUOUS
 62
    7
 10
729.35681286893487
 20
1229.5356632035389
 11
729.39073638731497
 21
1229.5213033825119
  0
LINE
  8
_2-7_ビス
  6
CONTINUOUS
 62
    7
 10
729.39073638731497
 20
1229.5213033825119
 11
729.40063360431213
 21
1229.5184584283181
  0
LINE
  8
_2-7_ビス
  6
CONTINUOUS
 62
    7
 10
729.18376428301713
 20
1226.6324935178181
 11
729.18376428301713
 21
1226.6324935178181
  0
LINE
  8
_2-7_ビス
  6
CONTINUOUS
 62
    7
 10
729.18376428301713
 20
1226.6324935178181
 11
729.18309317743001
 21
1226.5925353638297
  0
LINE
  8
_2-7_ビス
  6
CONTINUOUS
 62
    7
 10
729.18309317743001
 20
1226.5925353638297
 11
729.18874349599412
 21
1226.5530561422474
  0
LINE
  8
_2-7_ビス
  6
CONTINUOUS
 62
    7
 10
729.18874349599412
 20
1226.5530561422474
 11
729.20054355663888
 21
1226.5152554092417
  0
LINE
  8
_2-7_ビス
  6
CONTINUOUS
 62
    7
 10
729.20054355663888
 20
1226.5152554092417
 11
729.21813482049276
 21
1226.4802817209563
  0
LINE
  8
_2-7_ビス
  6
CONTINUOUS
 62
    7
 10
729.21813482049276
 20
1226.4802817209563
 11
729.24098278590532
 21
1226.4491977352129
  0
LINE
  8
_2-7_ビス
  6
CONTINUOUS
 62
    7
 10
729.24098278590532
 20
1226.4491977352129
 11
729.26839322900912
 21
1226.4229479231885
  0
LINE
  8
_2-7_ビス
  6
CONTINUOUS
 62
    7
 10
729.26839322900912
 20
1226.4229479231885
 11
729.29953329736054
 21
1226.4023298721388
  0
LINE
  8
_2-7_ビス
  6
CONTINUOUS
 62
    7
 10
729.29953329736054
 20
1226.4023298721388
 11
729.33345681574065
 21
1226.3879700511118
  0
LINE
  8
_2-7_ビス
  6
CONTINUOUS
 62
    7
 10
729.33345681574065
 20
1226.3879700511118
 11
729.34335403273781
 21
1226.385125096918
  0
LINE
  8
_2-7_ビス
  6
CONTINUOUS
 62
    7
 10
729.21604433411176
 20
1225.0658268521181
 11
729.21604433411176
 21
1225.0658268521181
  0
LINE
  8
_2-7_ビス
  6
CONTINUOUS
 62
    7
 10
729.21604433411176
 20
1225.0658268521181
 11
729.21537322852464
 21
1225.0258686981297
  0
LINE
  8
_2-7_ビス
  6
CONTINUOUS
 62
    7
 10
729.21537322852464
 20
1225.0258686981297
 11
729.22102354708875
 21
1224.9863894765474
  0
LINE
  8
_2-7_ビス
  6
CONTINUOUS
 62
    7
 10
729.22102354708875
 20
1224.9863894765474
 11
729.23282360773351
 21
1224.9485887435417
  0
LINE
  8
_2-7_ビス
  6
CONTINUOUS
 62
    7
 10
729.23282360773351
 20
1224.9485887435417
 11
729.2504148715874
 21
1224.9136150552563
  0
LINE
  8
_2-7_ビス
  6
CONTINUOUS
 62
    7
 10
729.2504148715874
 20
1224.9136150552563
 11
729.27326283699995
 21
1224.8825310695129
  0
LINE
  8
_2-7_ビス
  6
CONTINUOUS
 62
    7
 10
729.27326283699995
 20
1224.8825310695129
 11
729.30067328010375
 21
1224.8562812574885
  0
LINE
  8
_2-7_ビス
  6
CONTINUOUS
 62
    7
 10
729.30067328010375
 20
1224.8562812574885
 11
729.33181334845517
 21
1224.8356632064388
  0
LINE
  8
_2-7_ビス
  6
CONTINUOUS
 62
    7
 10
729.33181334845517
 20
1224.8356632064388
 11
729.36573686683528
 21
1224.8213033854117
  0
LINE
  8
_2-7_ビス
  6
CONTINUOUS
 62
    7
 10
729.36573686683528
 20
1224.8213033854117
 11
729.37563408383244
 21
1224.818458431218
  0
LINE
  8
_2-7_ビス
  6
CONTINUOUS
 62
    7
 10
729.24814728692013
 20
1223.4991601864181
 11
729.24814728692013
 21
1223.4991601864181
  0
LINE
  8
_2-7_ビス
  6
CONTINUOUS
 62
    7
 10
729.24814728692013
 20
1223.4991601864181
 11
729.24747618133301
 21
1223.4592020324296
  0
LINE
  8
_2-7_ビス
  6
CONTINUOUS
 62
    7
 10
729.24747618133301
 20
1223.4592020324296
 11
729.25312649989712
 21
1223.4197228108474
  0
LINE
  8
_2-7_ビス
  6
CONTINUOUS
 62
    7
 10
729.25312649989712
 20
1223.4197228108474
 11
729.26492656054188
 21
1223.3819220778416
  0
LINE
  8
_2-7_ビス
  6
CONTINUOUS
 62
    7
 10
729.26492656054188
 20
1223.3819220778416
 11
729.28251782439577
 21
1223.3469483895562
  0
LINE
  8
_2-7_ビス
  6
CONTINUOUS
 62
    7
 10
729.28251782439577
 20
1223.3469483895562
 11
729.30536578980832
 21
1223.3158644038128
  0
LINE
  8
_2-7_ビス
  6
CONTINUOUS
 62
    7
 10
729.30536578980832
 20
1223.3158644038128
 11
729.33277623291212
 21
1223.2896145917884
  0
LINE
  8
_2-7_ビス
  6
CONTINUOUS
 62
    7
 10
729.33277623291212
 20
1223.2896145917884
 11
729.36391630126354
 21
1223.2689965407387
  0
LINE
  8
_2-7_ビス
  6
CONTINUOUS
 62
    7
 10
729.36391630126354
 20
1223.2689965407387
 11
729.39783981964365
 21
1223.2546367197117
  0
LINE
  8
_2-7_ビス
  6
CONTINUOUS
 62
    7
 10
729.39783981964365
 20
1223.2546367197117
 11
729.40773703664081
 21
1223.251791765518
  0
LINE
  8
_2-7_ビス
  6
CONTINUOUS
 62
    7
 10
729.27046221794967
 20
1221.9324935207192
 11
729.27046221794967
 21
1221.9324935207192
  0
LINE
  8
_2-7_ビス
  6
CONTINUOUS
 62
    7
 10
729.27046221794967
 20
1221.9324935207192
 11
729.26979111236255
 21
1221.8925353667307
  0
LINE
  8
_2-7_ビス
  6
CONTINUOUS
 62
    7
 10
729.26979111236255
 20
1221.8925353667307
 11
729.27544143092666
 21
1221.8530561451485
  0
LINE
  8
_2-7_ビス
  6
CONTINUOUS
 62
    7
 10
729.27544143092666
 20
1221.8530561451485
 11
729.28724149157142
 21
1221.8152554121427
  0
LINE
  8
_2-7_ビス
  6
CONTINUOUS
 62
    7
 10
729.28724149157142
 20
1221.8152554121427
 11
729.30483275542531
 21
1221.7802817238573
  0
LINE
  8
_2-7_ビス
  6
CONTINUOUS
 62
    7
 10
729.30483275542531
 20
1221.7802817238573
 11
729.32768072083786
 21
1221.7491977381139
  0
LINE
  8
_2-7_ビス
  6
CONTINUOUS
 62
    7
 10
729.32768072083786
 20
1221.7491977381139
 11
729.35509116394167
 21
1221.7229479260895
  0
LINE
  8
_2-7_ビス
  6
CONTINUOUS
 62
    7
 10
729.35509116394167
 20
1221.7229479260895
 11
729.38623123229308
 21
1221.7023298750398
  0
LINE
  8
_2-7_ビス
  6
CONTINUOUS
 62
    7
 10
729.38623123229308
 20
1221.7023298750398
 11
729.42015475067319
 21
1221.6879700540128
  0
LINE
  8
_2-7_ビス
  6
CONTINUOUS
 62
    7
 10
729.42015475067319
 20
1221.6879700540128
 11
729.43005196767035
 21
1221.6851250998191
  0
LINE
  8
_2-7_ビス
  6
CONTINUOUS
 62
    7
 10
729.3039647968842
 20
1220.3905551759883
 11
729.3039647968842
 21
1220.3905551759883
  0
LINE
  8
_2-7_ビス
  6
CONTINUOUS
 62
    7
 10
729.3039647968842
 20
1220.3905551759883
 11
729.29030264513415
 21
1220.3642671740113
  0
LINE
  8
_2-7_ビス
  6
CONTINUOUS
 62
    7
 10
729.29030264513415
 20
1220.3642671740113
 11
729.28100013558571
 21
1220.3357702846977
  0
LINE
  8
_2-7_ビス
  6
CONTINUOUS
 62
    7
 10
729.28100013558571
 20
1220.3357702846977
 11
729.27633992028427
 21
1220.3059303716093
  0
LINE
  8
_2-7_ビス
  6
CONTINUOUS
 62
    7
 10
729.27633992028427
 20
1220.3059303716093
 11
729.2764635975135
 21
1220.2756541054057
  0
LINE
  8
_2-7_ビス
  6
CONTINUOUS
 62
    7
 10
729.2764635975135
 20
1220.2756541054057
 11
729.28136740940329
 21
1220.2458614151149
  0
LINE
  8
_2-7_ビス
  6
CONTINUOUS
 62
    7
 10
729.28136740940329
 20
1220.2458614151149
 11
729.29090235611102
 21
1220.2174575365555
  0
LINE
  8
_2-7_ビス
  6
CONTINUOUS
 62
    7
 10
729.29090235611102
 20
1220.2174575365555
 11
729.30477872310576
 21
1220.1913055072043
  0
LINE
  8
_2-7_ビス
  6
CONTINUOUS
 62
    7
 10
729.30477872310576
 20
1220.1913055072043
 11
729.32257488399807
 21
1220.1681999432401
  0
LINE
  8
_2-7_ビス
  6
CONTINUOUS
 62
    7
 10
729.32257488399807
 20
1220.1681999432401
 11
729.34375011144482
 21
1220.1488428955315
  0
LINE
  8
_2-7_ビス
  6
CONTINUOUS
 62
    7
 10
729.34375011144482
 20
1220.1488428955315
 11
729.36766100687498
 21
1220.1338225181782
  0
LINE
  8
_2-7_ビス
  6
CONTINUOUS
 62
    7
 10
729.36766100687498
 20
1220.1338225181782
 11
729.39358104983046
 21
1220.1235951977453
  0
LINE
  8
_2-7_ビス
  6
CONTINUOUS
 62
    7
 10
729.39358104983046
 20
1220.1235951977453
 11
729.42072267292212
 21
1220.118471686189
  0
LINE
  8
_2-7_ビス
  6
CONTINUOUS
 62
    7
 10
729.42072267292212
 20
1220.118471686189
 11
729.42086878273835
 21
1220.1184584341188
  0
LINE
  8
_2-7_ビス
  6
CONTINUOUS
 62
    7
 10
729.72397753273913
 20
1229.0237215865186
 11
729.72397753273913
 21
1229.0237215865186
  0
LINE
  8
_2-7_ビス
  6
CONTINUOUS
 62
    7
 10
729.72397753273913
 20
1229.0237215865186
 11
729.63965170194535
 21
1229.0114616298708
  0
LINE
  8
_2-7_ビス
  6
CONTINUOUS
 62
    7
 10
729.63965170194535
 20
1229.0114616298708
 11
729.55854338048709
 21
1228.9832891631638
  0
LINE
  8
_2-7_ビス
  6
CONTINUOUS
 62
    7
 10
729.55854338048709
 20
1228.9832891631638
 11
729.48311700366901
 21
1228.9400601925422
  0
LINE
  8
_2-7_ビス
  6
CONTINUOUS
 62
    7
 10
729.48311700366901
 20
1228.9400601925422
 11
729.41566436378309
 21
1228.8830882084037
  0
LINE
  8
_2-7_ビス
  6
CONTINUOUS
 62
    7
 10
729.41566436378309
 20
1228.8830882084037
 11
729.35823497515969
 21
1228.814104275657
  0
LINE
  8
_2-7_ビス
  6
CONTINUOUS
 62
    7
 10
729.35823497515969
 20
1228.814104275657
 11
729.31257380071145
 21
1228.735204436191
  0
LINE
  8
_2-7_ビス
  6
CONTINUOUS
 62
    7
 10
729.31257380071145
 20
1228.735204436191
 11
729.2800682321182
 21
1228.6487860217028
  0
LINE
  8
_2-7_ビス
  6
CONTINUOUS
 62
    7
 10
729.2800682321182
 20
1228.6487860217028
 11
729.26170593463314
 21
1228.5574748119868
  0
LINE
  8
_2-7_ビス
  6
CONTINUOUS
 62
    7
 10
729.26170593463314
 20
1228.5574748119868
 11
729.25804483737352
 21
1228.4640452519443
  0
LINE
  8
_2-7_ビス
  6
CONTINUOUS
 62
    7
 10
729.25804483737352
 20
1228.4640452519443
 11
729.269196180927
 21
1228.3713361514797
  0
LINE
  8
_2-7_ビス
  6
CONTINUOUS
 62
    7
 10
729.269196180927
 20
1228.3713361514797
 11
729.29482113736253
 21
1228.2821644296976
  0
LINE
  8
_2-7_ビス
  6
CONTINUOUS
 62
    7
 10
729.29482113736253
 20
1228.2821644296976
 11
729.33414110534568
 21
1228.1992395242412
  0
LINE
  8
_2-7_ビス
  6
CONTINUOUS
 62
    7
 10
729.33414110534568
 20
1228.1992395242412
 11
729.3859613675462
 21
1228.1250810664005
  0
LINE
  8
_2-7_ビス
  6
CONTINUOUS
 62
    7
 10
729.3859613675462
 20
1228.1250810664005
 11
729.44870739151941
 21
1228.0619423233916
  0
LINE
  8
_2-7_ビス
  6
CONTINUOUS
 62
    7
 10
729.44870739151941
 20
1228.0619423233916
 11
729.52047267107798
 21
1228.0117417339707
  0
LINE
  8
_2-7_ビス
  6
CONTINUOUS
 62
    7
 10
729.52047267107798
 20
1228.0117417339707
 11
729.59907665451726
 21
1227.9760046176445
  0
LINE
  8
_2-7_ビス
  6
CONTINUOUS
 62
    7
 10
729.59907665451726
 20
1227.9760046176445
 11
729.68213099957632
 21
1227.9558168286092
  0
LINE
  8
_2-7_ビス
  6
CONTINUOUS
 62
    7
 10
729.68213099957632
 20
1227.9558168286092
 11
729.72397753273913
 21
1227.9517917626185
  0
LINE
  8
_2-7_ビス
  6
CONTINUOUS
 62
    7
 10
729.72397753273913
 20
1236.8570549150188
 11
729.72397753273913
 21
1236.8570549150188
  0
LINE
  8
_2-7_ビス
  6
CONTINUOUS
 62
    7
 10
729.72397753273913
 20
1236.8570549150188
 11
729.63965170194535
 21
1236.844794958371
  0
LINE
  8
_2-7_ビス
  6
CONTINUOUS
 62
    7
 10
729.63965170194535
 20
1236.844794958371
 11
729.55854338048709
 21
1236.816622491664
  0
LINE
  8
_2-7_ビス
  6
CONTINUOUS
 62
    7
 10
729.55854338048709
 20
1236.816622491664
 11
729.48311700366901
 21
1236.7733935210424
  0
LINE
  8
_2-7_ビス
  6
CONTINUOUS
 62
    7
 10
729.48311700366901
 20
1236.7733935210424
 11
729.41566436378309
 21
1236.7164215369039
  0
LINE
  8
_2-7_ビス
  6
CONTINUOUS
 62
    7
 10
729.41566436378309
 20
1236.7164215369039
 11
729.35823497515969
 21
1236.6474376041572
  0
LINE
  8
_2-7_ビス
  6
CONTINUOUS
 62
    7
 10
729.35823497515969
 20
1236.6474376041572
 11
729.31257380071145
 21
1236.5685377646912
  0
LINE
  8
_2-7_ビス
  6
CONTINUOUS
 62
    7
 10
729.31257380071145
 20
1236.5685377646912
 11
729.2800682321182
 21
1236.482119350203
  0
LINE
  8
_2-7_ビス
  6
CONTINUOUS
 62
    7
 10
729.2800682321182
 20
1236.482119350203
 11
729.26170593463314
 21
1236.390808140487
  0
LINE
  8
_2-7_ビス
  6
CONTINUOUS
 62
    7
 10
729.26170593463314
 20
1236.390808140487
 11
729.25804483737352
 21
1236.2973785804445
  0
LINE
  8
_2-7_ビス
  6
CONTINUOUS
 62
    7
 10
729.25804483737352
 20
1236.2973785804445
 11
729.269196180927
 21
1236.2046694799799
  0
LINE
  8
_2-7_ビス
  6
CONTINUOUS
 62
    7
 10
729.269196180927
 20
1236.2046694799799
 11
729.29482113736253
 21
1236.1154977581978
  0
LINE
  8
_2-7_ビス
  6
CONTINUOUS
 62
    7
 10
729.29482113736253
 20
1236.1154977581978
 11
729.33414110534568
 21
1236.0325728527414
  0
LINE
  8
_2-7_ビス
  6
CONTINUOUS
 62
    7
 10
729.33414110534568
 20
1236.0325728527414
 11
729.3859613675462
 21
1235.9584143949007
  0
LINE
  8
_2-7_ビス
  6
CONTINUOUS
 62
    7
 10
729.3859613675462
 20
1235.9584143949007
 11
729.44870739151941
 21
1235.8952756518918
  0
LINE
  8
_2-7_ビス
  6
CONTINUOUS
 62
    7
 10
729.44870739151941
 20
1235.8952756518918
 11
729.52047267107798
 21
1235.8450750624709
  0
LINE
  8
_2-7_ビス
  6
CONTINUOUS
 62
    7
 10
729.52047267107798
 20
1235.8450750624709
 11
729.59907665451726
 21
1235.8093379461448
  0
LINE
  8
_2-7_ビス
  6
CONTINUOUS
 62
    7
 10
729.59907665451726
 20
1235.8093379461448
 11
729.68213099957632
 21
1235.7891501571094
  0
LINE
  8
_2-7_ビス
  6
CONTINUOUS
 62
    7
 10
729.68213099957632
 20
1235.7891501571094
 11
729.72397753273913
 21
1235.7851250911187
  0
LINE
  8
_2-7_ビス
  6
CONTINUOUS
 62
    7
 10
729.3987607219367
 20
1217.7272303654181
 11
729.3987607219367
 21
1217.7272303654181
  0
LINE
  8
_2-7_ビス
  6
CONTINUOUS
 62
    7
 10
729.3987607219367
 20
1217.7272303654181
 11
729.36257550803487
 21
1217.5936460386511
  0
LINE
  8
_2-7_ビス
  6
CONTINUOUS
 62
    7
 10
729.36257550803487
 20
1217.5936460386511
 11
729.34803913209362
 21
1217.4551829864356
  0
LINE
  8
_2-7_ビス
  6
CONTINUOUS
 62
    7
 10
729.34803913209362
 20
1217.4551829864356
 11
729.34848538884853
 21
1217.3974058042181
  0
LINE
  8
_2-7_ビス
  6
CONTINUOUS
 62
    7
 10
728.84094328273886
 20
1215.4184584370187
 11
728.84094328273886
 21
1215.4184584370187
  0
LINE
  8
_2-7_ビス
  6
CONTINUOUS
 62
    7
 10
728.84094328273886
 20
1215.4184584370187
 11
728.83490250519606
 21
1215.4739890121964
  0
LINE
  8
_2-7_ビス
  6
CONTINUOUS
 62
    7
 10
728.83490250519606
 20
1215.4739890121964
 11
728.82018267124636
 21
1215.5275226995809
  0
LINE
  8
_2-7_ビス
  6
CONTINUOUS
 62
    7
 10
728.82018267124636
 20
1215.5275226995809
 11
728.79723103559581
 21
1215.5774329051703
  0
LINE
  8
_2-7_ビス
  6
CONTINUOUS
 62
    7
 10
728.79723103559581
 20
1215.5774329051703
 11
728.76674497207966
 21
1215.6222031326238
  0
LINE
  8
_2-7_ビス
  6
CONTINUOUS
 62
    7
 10
728.76674497207966
 20
1215.6222031326238
 11
728.72965078431105
 21
1215.6604730612346
  0
LINE
  8
_2-7_ビス
  6
CONTINUOUS
 62
    7
 10
728.72965078431105
 20
1215.6604730612346
 11
728.68707556041477
 21
1215.6910798785877
  0
LINE
  8
_2-7_ビス
  6
CONTINUOUS
 62
    7
 10
728.68707556041477
 20
1215.6910798785877
 11
728.64031292702475
 21
1215.7130936120257
  0
LINE
  8
_2-7_ビス
  6
CONTINUOUS
 62
    7
 10
728.64031292702475
 20
1215.7130936120257
 11
728.59078374309365
 21
1215.7258453853974
  0
LINE
  8
_2-7_ビス
  6
CONTINUOUS
 62
    7
 10
728.59078374309365
 20
1215.7258453853974
 11
728.53999292781214
 21
1215.7289477425215
  0
LINE
  8
_2-7_ビス
  6
CONTINUOUS
 62
    7
 10
728.53999292781214
 20
1215.7289477425215
 11
728.48948373440123
 21
1215.722306419847
  0
LINE
  8
_2-7_ビス
  6
CONTINUOUS
 62
    7
 10
728.48948373440123
 20
1215.722306419847
 11
728.44079085914382
 21
1215.7061232106023
  0
LINE
  8
_2-7_ビス
  6
CONTINUOUS
 62
    7
 10
728.44079085914382
 20
1215.7061232106023
 11
728.3953938104147
 21
1215.6808898334116
  0
LINE
  8
_2-7_ビス
  6
CONTINUOUS
 62
    7
 10
728.3953938104147
 20
1215.6808898334116
 11
728.35467195456761
 21
1215.6473729916718
  0
LINE
  8
_2-7_ビス
  6
CONTINUOUS
 62
    7
 10
728.35467195456761
 20
1215.6473729916718
 11
728.31986260458621
 21
1215.6065910776588
  0
LINE
  8
_2-7_ビス
  6
CONTINUOUS
 62
    7
 10
728.31986260458621
 20
1215.6065910776588
 11
728.29202342495523
 21
1215.5597832291935
  0
LINE
  8
_2-7_ビス
  6
CONTINUOUS
 62
    7
 10
728.29202342495523
 20
1215.5597832291935
 11
728.27200029506048
 21
1215.5083716790655
  0
LINE
  8
_2-7_ビス
  6
CONTINUOUS
 62
    7
 10
728.27200029506048
 20
1215.5083716790655
 11
728.26040160757168
 21
1215.45391854121
  0
LINE
  8
_2-7_ビス
  6
CONTINUOUS
 62
    7
 10
728.26040160757168
 20
1215.45391854121
 11
728.25757978273896
 21
1215.3980783466659
  0
LINE
  8
_2-7_ビス
  6
CONTINUOUS
 62
    7
 10
728.25757978273896
 20
1215.3980783466659
 11
728.25757978273896
 21
1215.3980783466659
  0
LINE
  8
_2-7_ビス
  6
CONTINUOUS
 62
    7
 10
723.55522753273772
 20
1252.3861311335068
 11
723.55522753273772
 21
1256.481616306419
  0
LINE
  8
_2-7_ビス
  6
CONTINUOUS
 62
    7
 10
723.55522753273772
 20
1256.481616306419
 11
726.5552275327384
 21
1256.481616306419
  0
LINE
  8
_2-7_ビス
  6
CONTINUOUS
 62
    7
 10
723.55522753273772
 20
1252.3861311335068
 11
722.8052275327384
 21
1251.561570213303
  0
LINE
  8
_2-7_ビス
  6
CONTINUOUS
 62
    7
 10
722.8052275327384
 20
1251.561570213303
 11
722.8052275327384
 21
1249.4629644861882
  0
LINE
  8
_2-7_ビス
  6
CONTINUOUS
 62
    7
 10
722.8052275327384
 20
1249.4629644861882
 11
723.35344678273896
 21
1245.3453711729392
  0
LINE
  8
_2-7_ビス
  6
CONTINUOUS
 62
    7
 10
723.35344678273896
 20
1245.3453711729392
 11
723.5953705327388
 21
1244.9377566644184
  0
LINE
  8
_2-7_ビス
  6
CONTINUOUS
 62
    7
 10
723.5953705327388
 20
1244.9377566644184
 11
723.55522753273772
 21
1244.9377566644184
  0
LINE
  8
_2-7_ビス
  6
CONTINUOUS
 62
    7
 10
723.55522753273772
 20
1244.9377566644184
 11
723.55522753273772
 21
1243.1237215778187
  0
LINE
  8
_2-7_ビス
  6
CONTINUOUS
 62
    7
 10
723.55522753273772
 20
1243.1237215778187
 11
723.98824009330565
 21
1242.2991601748188
  0
LINE
  8
_2-7_ビス
  6
CONTINUOUS
 62
    7
 10
723.85833628273826
 20
1242.051791753918
 11
722.8802275327389
 21
1242.051791753918
  0
LINE
  8
_2-7_ビス
  6
CONTINUOUS
 62
    7
 10
722.8802275327389
 20
1242.051791753918
 11
722.8802275327389
 21
1237.818401160039
  0
LINE
  8
_2-7_ビス
  6
CONTINUOUS
 62
    7
 10
722.8802275327389
 20
1237.818401160039
 11
723.38169703273888
 21
1236.8570549150186
  0
LINE
  8
_2-7_ビス
  6
CONTINUOUS
 62
    7
 10
723.38169703273888
 20
1236.8570549150186
 11
723.38647753273858
 21
1236.8570549150186
  0
LINE
  8
_2-7_ビス
  6
CONTINUOUS
 62
    7
 10
723.38648170602323
 20
1236.8570552688007
 11
723.38647753273858
 21
1236.8570549150186
  0
LINE
  8
_2-7_ビス
  6
CONTINUOUS
 62
    7
 10
723.38648170602323
 20
1236.8570552688007
 11
723.38647753273858
 21
1236.8570549150186
  0
LINE
  8
_2-7_ビス
  6
CONTINUOUS
 62
    7
 10
723.41906878273858
 20
1235.785125091119
 11
722.8802275327389
 21
1235.785125091119
  0
LINE
  8
_2-7_ビス
  6
CONTINUOUS
 62
    7
 10
722.8802275327389
 20
1235.785125091119
 11
722.8802275327389
 21
1229.9878919543451
  0
LINE
  8
_2-7_ビス
  6
CONTINUOUS
 62
    7
 10
722.8802275327389
 20
1229.9878919543451
 11
723.38647471979993
 21
1229.0237405845803
  0
LINE
  8
_2-7_ビス
  6
CONTINUOUS
 62
    7
 10
723.38647753273858
 20
1229.0237215865184
 11
723.39006916309427
 21
1229.5011729837588
  0
LINE
  8
_2-7_ビス
  6
CONTINUOUS
 62
    7
 10
723.39006916309427
 20
1229.5011729837588
 11
723.71074917071792
 21
1229.5184584283188
  0
LINE
  8
_2-7_ビス
  6
CONTINUOUS
 62
    7
 10
723.8694112108858
 20
1229.7658268492185
 11
723.41906878273858
 21
1230.5903882522184
  0
LINE
  8
_2-7_ビス
  6
CONTINUOUS
 62
    7
 10
723.41906878273858
 20
1230.5903882522184
 11
723.41906863061536
 21
1231.0678397212134
  0
LINE
  8
_2-7_ビス
  6
CONTINUOUS
 62
    7
 10
723.41906863061536
 20
1231.0678397212134
 11
723.76710103273876
 21
1231.0851250940188
  0
LINE
  8
_2-7_ビス
  6
CONTINUOUS
 62
    7
 10
723.92669078245899
 20
1231.3324935149185
 11
723.41906878273858
 21
1232.1570549179185
  0
LINE
  8
_2-7_ビス
  6
CONTINUOUS
 62
    7
 10
723.41906878273858
 20
1232.1570549179185
 11
723.41906878273858
 21
1232.6345064790271
  0
LINE
  8
_2-7_ビス
  6
CONTINUOUS
 62
    7
 10
723.41906878273858
 20
1232.6345064790271
 11
723.76710103273876
 21
1232.6517917597189
  0
LINE
  8
_2-7_ビス
  6
CONTINUOUS
 62
    7
 10
723.92669078245899
 20
1232.8991601806185
 11
723.41906878273858
 21
1233.7237215836185
  0
LINE
  8
_2-7_ビス
  6
CONTINUOUS
 62
    7
 10
723.41906878273858
 20
1233.7237215836185
 11
723.41906878273858
 21
1234.2011731447271
  0
LINE
  8
_2-7_ビス
  6
CONTINUOUS
 62
    7
 10
723.41906878273858
 20
1234.2011731447271
 11
723.76710103273876
 21
1234.2184584254189
  0
LINE
  8
_2-7_ビス
  6
CONTINUOUS
 62
    7
 10
723.92669078245899
 20
1234.4658268463186
 11
723.41906863061536
 21
1235.2903882493185
  0
LINE
  8
_2-7_ビス
  6
CONTINUOUS
 62
    7
 10
723.41906863061536
 20
1235.2903882493185
 11
723.41906878273858
 21
1235.785125091119
  0
LINE
  8
_2-7_ビス
  6
CONTINUOUS
 62
    7
 10
723.38648170602323
 20
1236.8570552688007
 11
723.39016690726862
 21
1237.3345067377945
  0
LINE
  8
_2-7_ビス
  6
CONTINUOUS
 62
    7
 10
723.39016690726862
 20
1237.3345067377945
 11
723.70761178273779
 21
1237.351791756819
  0
LINE
  8
_2-7_ビス
  6
CONTINUOUS
 62
    7
 10
723.86970392305966
 20
1237.5991601777187
 11
723.41906863061536
 21
1238.4237215807186
  0
LINE
  8
_2-7_ビス
  6
CONTINUOUS
 62
    7
 10
723.41906863061536
 20
1238.4237215807186
 11
723.41906863061536
 21
1238.9011730497125
  0
LINE
  8
_2-7_ビス
  6
CONTINUOUS
 62
    7
 10
723.41906863061536
 20
1238.9011730497125
 11
723.76710103273876
 21
1238.9184584225191
  0
LINE
  8
_2-7_ビス
  6
CONTINUOUS
 62
    7
 10
723.92669078245899
 20
1239.1658268434187
 11
723.41906878273858
 21
1239.9903882464187
  0
LINE
  8
_2-7_ビス
  6
CONTINUOUS
 62
    7
 10
723.41906878273858
 20
1239.9903882464187
 11
723.41906863061536
 21
1240.4678397154125
  0
LINE
  8
_2-7_ビス
  6
CONTINUOUS
 62
    7
 10
723.41906863061536
 20
1240.4678397154125
 11
723.76798712522668
 21
1240.4853566693785
  0
LINE
  8
_2-7_ビス
  6
CONTINUOUS
 62
    7
 10
723.92669078245899
 20
1240.7324935091187
 11
723.41906863061536
 21
1241.5570549121187
  0
LINE
  8
_2-7_ビス
  6
CONTINUOUS
 62
    7
 10
723.41906863061536
 20
1241.5570549121187
 11
723.41906878824557
 21
1242.051791753918
  0
LINE
  8
_2-7_ビス
  6
CONTINUOUS
 62
    7
 10
723.41906878273858
 20
1227.9517917626188
 11
722.8802275327389
 21
1227.9517917626188
  0
LINE
  8
_2-7_ビス
  6
CONTINUOUS
 62
    7
 10
722.8802275327389
 20
1227.9517917626188
 11
722.8802275327389
 21
1224.7035500277811
  0
LINE
  8
_2-7_ビス
  6
CONTINUOUS
 62
    7
 10
722.8802275327389
 20
1224.7035500277811
 11
723.38601328273808
 21
1221.1903882580182
  0
LINE
  8
_2-7_ビス
  6
CONTINUOUS
 62
    7
 10
723.38601328273808
 20
1221.1903882580182
 11
723.38674780040219
 21
1221.6678393421594
  0
LINE
  8
_2-7_ビス
  6
CONTINUOUS
 62
    7
 10
723.38674780040219
 20
1221.6678393421594
 11
723.69543628273914
 21
1221.6851250998186
  0
LINE
  8
_2-7_ビス
  6
CONTINUOUS
 62
    7
 10
723.38601328273808
 20
1221.1903882580182
 11
723.81949009330538
 21
1220.3658268550182
  0
LINE
  8
_2-7_ビス
  6
CONTINUOUS
 62
    7
 10
723.83999284752645
 20
1221.9324935207183
 11
723.38939051406624
 21
1222.7570549237182
  0
LINE
  8
_2-7_ビス
  6
CONTINUOUS
 62
    7
 10
723.38939051406624
 20
1222.7570549237182
 11
723.39147541832813
 21
1223.2345060078583
  0
LINE
  8
_2-7_ビス
  6
CONTINUOUS
 62
    7
 10
723.39147541832813
 20
1223.2345060078583
 11
723.71380228273847
 21
1223.2517917655186
  0
LINE
  8
_2-7_ビス
  6
CONTINUOUS
 62
    7
 10
723.86230777855712
 20
1223.4991601864183
 11
723.39843991923271
 21
1224.3237212045644
  0
LINE
  8
_2-7_ビス
  6
CONTINUOUS
 62
    7
 10
723.39843991923271
 20
1224.3237212045644
 11
723.40250275992912
 21
1224.8011726735594
  0
LINE
  8
_2-7_ビス
  6
CONTINUOUS
 62
    7
 10
723.40250275992912
 20
1224.8011726735594
 11
723.7371561151981
 21
1224.8184584312187
  0
LINE
  8
_2-7_ビス
  6
CONTINUOUS
 62
    7
 10
723.8944107313655
 20
1225.0658268521183
 11
723.41420810715999
 21
1225.8903878702645
  0
LINE
  8
_2-7_ビス
  6
CONTINUOUS
 62
    7
 10
723.41420810715999
 20
1225.8903878702645
 11
723.41906878273858
 21
1226.3678398162269
  0
LINE
  8
_2-7_ビス
  6
CONTINUOUS
 62
    7
 10
723.41906878273858
 20
1226.3678398162269
 11
723.76710103273876
 21
1226.3851250969187
  0
LINE
  8
_2-7_ビス
  6
CONTINUOUS
 62
    7
 10
723.92669078245899
 20
1226.6324935178184
 11
723.41906863061536
 21
1227.4570549208183
  0
LINE
  8
_2-7_ビス
  6
CONTINUOUS
 62
    7
 10
723.41906863061536
 20
1227.4570549208183
 11
723.41906878273858
 21
1227.9517917626188
  0
LINE
  8
_2-7_ビス
  6
CONTINUOUS
 62
    7
 10
723.68958628273913
 20
1220.1184584341186
 11
723.55522753273772
 21
1220.1184584341186
  0
LINE
  8
_2-7_ビス
  6
CONTINUOUS
 62
    7
 10
723.55522753273772
 20
1220.1184584341186
 11
723.55522753273772
 21
1219.335125101268
  0
LINE
  8
_2-7_ビス
  6
CONTINUOUS
 62
    7
 10
723.55522753273772
 20
1219.335125101268
 11
723.70522753273872
 21
1219.335125101268
  0
LINE
  8
_2-7_ビス
  6
CONTINUOUS
 62
    7
 10
723.70522753273872
 20
1219.335125101268
 11
723.70522753273872
 21
1217.7272303654186
  0
LINE
  8
_2-7_ビス
  6
CONTINUOUS
 62
    7
 10
723.70522753273872
 20
1217.7272303654186
 11
723.71169434353942
 21
1217.7272303654186
  0
LINE
  8
_2-7_ビス
  6
CONTINUOUS
 62
    7
 10
723.76196953273802
 20
1217.397405804219
 11
723.76196967927694
 21
1211.4469642113991
  0
LINE
  8
_2-7_ビス
  6
CONTINUOUS
 62
    7
 10
723.76196967927694
 20
1211.4469642113991
 11
724.20240703273817
 21
1210.7955433872396
  0
LINE
  8
_2-7_ビス
  6
CONTINUOUS
 62
    7
 10
724.20240703273817
 20
1210.7955433872396
 11
725.20522753273849
 21
1209.4816163354189
  0
LINE
  8
_2-7_ビス
  6
CONTINUOUS
 62
    7
 10
725.20522753273849
 20
1209.4816163354189
 11
725.35460601223303
 21
1209.4816163354189
  0
LINE
  8
_2-7_ビス
  6
CONTINUOUS
 62
    7
 10
725.35460601223303
 20
1209.4816163354189
 11
724.26951190291857
 21
1211.4469642113991
  0
LINE
  8
_2-7_ビス
  6
CONTINUOUS
 62
    7
 10
724.26951190291857
 20
1211.4469642113991
 11
724.26951178273794
 21
1215.4184584370184
  0
LINE
  8
_2-7_ビス
  6
CONTINUOUS
 62
    7
 10
724.85287528273784
 20
1215.4184584370184
 11
724.85287500930622
 21
1211.4469643640975
  0
LINE
  8
_2-7_ビス
  6
CONTINUOUS
 62
    7
 10
724.85287500930622
 20
1211.4469643640975
 11
725.93796937453999
 21
1209.4816163354189
  0
LINE
  8
_2-7_ビス
  6
CONTINUOUS
 62
    7
 10
725.93796937453999
 20
1209.4816163354189
 11
726.5552275327384
 21
1209.4816163354189
  0
LINE
  8
_2-7_ビス
  6
CONTINUOUS
 62
    7
 10
723.85833628273826
 20
1242.051791753918
 11
723.85833628273826
 21
1242.051791753918
  0
LINE
  8
_2-7_ビス
  6
CONTINUOUS
 62
    7
 10
723.85833628273826
 20
1242.051791753918
 11
723.88529473363883
 21
1242.0564455386332
  0
LINE
  8
_2-7_ビス
  6
CONTINUOUS
 62
    7
 10
723.88529473363883
 20
1242.0564455386332
 11
723.91110857865192
 21
1242.0661752987633
  0
LINE
  8
_2-7_ビス
  6
CONTINUOUS
 62
    7
 10
723.91110857865192
 20
1242.0661752987633
 11
723.93499347715931
 21
1242.0806854004697
  0
LINE
  8
_2-7_ビス
  6
CONTINUOUS
 62
    7
 10
723.93499347715931
 20
1242.0806854004697
 11
723.9562236986061
 21
1242.0995349616551
  0
LINE
  8
_2-7_ビス
  6
CONTINUOUS
 62
    7
 10
723.9562236986061
 20
1242.0995349616551
 11
723.97415417345667
 21
1242.1221512479408
  0
LINE
  8
_2-7_ビス
  6
CONTINUOUS
 62
    7
 10
723.97415417345667
 20
1242.1221512479408
 11
723.98824009330599
 21
1242.1478470749125
  0
LINE
  8
_2-7_ビス
  6
CONTINUOUS
 62
    7
 10
723.98824009330599
 20
1242.1478470749125
 11
723.99805346460721
 21
1242.1758416878708
  0
LINE
  8
_2-7_ビス
  6
CONTINUOUS
 62
    7
 10
723.99805346460721
 20
1242.1758416878708
 11
724.00329611303914
 21
1242.2052844846664
  0
LINE
  8
_2-7_ビス
  6
CONTINUOUS
 62
    7
 10
724.00329611303914
 20
1242.2052844846664
 11
724.00380874338214
 21
1242.2352808608175
  0
LINE
  8
_2-7_ビス
  6
CONTINUOUS
 62
    7
 10
724.00380874338214
 20
1242.2352808608175
 11
723.99957577962255
 21
1242.2649193916138
  0
LINE
  8
_2-7_ビス
  6
CONTINUOUS
 62
    7
 10
723.99957577962255
 20
1242.2649193916138
 11
723.99072583822237
 21
1242.293299525295
  0
LINE
  8
_2-7_ビス
  6
CONTINUOUS
 62
    7
 10
723.99072583822237
 20
1242.293299525295
 11
723.97752782017255
 21
1242.3195589458599
  0
LINE
  8
_2-7_ビス
  6
CONTINUOUS
 62
    7
 10
723.97752782017255
 20
1242.3195589458599
 11
723.97752742765522
 21
1242.3195595874843
  0
LINE
  8
_2-7_ビス
  6
CONTINUOUS
 62
    7
 10
723.76710103273899
 20
1240.4851250882184
 11
723.76710103273899
 21
1240.4851250882184
  0
LINE
  8
_2-7_ビス
  6
CONTINUOUS
 62
    7
 10
723.76710103273899
 20
1240.4851250882184
 11
723.80162426107404
 21
1240.4976386384776
  0
LINE
  8
_2-7_ビス
  6
CONTINUOUS
 62
    7
 10
723.80162426107404
 20
1240.4976386384776
 11
723.83364653942715
 21
1240.5165529592557
  0
LINE
  8
_2-7_ビス
  6
CONTINUOUS
 62
    7
 10
723.83364653942715
 20
1240.5165529592557
 11
723.86219488707468
 21
1240.541293348487
  0
LINE
  8
_2-7_ビス
  6
CONTINUOUS
 62
    7
 10
723.86219488707468
 20
1240.541293348487
 11
723.88640187691954
 21
1240.5711080819642
  0
LINE
  8
_2-7_ビス
  6
CONTINUOUS
 62
    7
 10
723.88640187691954
 20
1240.5711080819642
 11
723.90553199182455
 21
1240.6050912540975
  0
LINE
  8
_2-7_ビス
  6
CONTINUOUS
 62
    7
 10
723.90553199182455
 20
1240.6050912540975
 11
723.91900397292875
 21
1240.6422103033979
  0
LINE
  8
_2-7_ビス
  6
CONTINUOUS
 62
    7
 10
723.91900397292875
 20
1240.6422103033979
 11
723.92640848090343
 21
1240.6813373863354
  0
LINE
  8
_2-7_ビス
  6
CONTINUOUS
 62
    7
 10
723.92640848090343
 20
1240.6813373863354
 11
723.92752053352046
 21
1240.7212836462945
  0
LINE
  8
_2-7_ビス
  6
CONTINUOUS
 62
    7
 10
723.92752053352046
 20
1240.7212836462945
 11
723.92669078245967
 21
1240.7324935091185
  0
LINE
  8
_2-7_ビス
  6
CONTINUOUS
 62
    7
 10
723.76710103273899
 20
1238.9184584225184
 11
723.76710103273899
 21
1238.9184584225184
  0
LINE
  8
_2-7_ビス
  6
CONTINUOUS
 62
    7
 10
723.76710103273899
 20
1238.9184584225184
 11
723.80162426107404
 21
1238.9309719727776
  0
LINE
  8
_2-7_ビス
  6
CONTINUOUS
 62
    7
 10
723.80162426107404
 20
1238.9309719727776
 11
723.83364653942715
 21
1238.9498862935557
  0
LINE
  8
_2-7_ビス
  6
CONTINUOUS
 62
    7
 10
723.83364653942715
 20
1238.9498862935557
 11
723.86219488707468
 21
1238.9746266827869
  0
LINE
  8
_2-7_ビス
  6
CONTINUOUS
 62
    7
 10
723.86219488707468
 20
1238.9746266827869
 11
723.88640187691954
 21
1239.0044414162642
  0
LINE
  8
_2-7_ビス
  6
CONTINUOUS
 62
    7
 10
723.88640187691954
 20
1239.0044414162642
 11
723.90553199182455
 21
1239.0384245883974
  0
LINE
  8
_2-7_ビス
  6
CONTINUOUS
 62
    7
 10
723.90553199182455
 20
1239.0384245883974
 11
723.91900397292875
 21
1239.0755436376978
  0
LINE
  8
_2-7_ビス
  6
CONTINUOUS
 62
    7
 10
723.91900397292875
 20
1239.0755436376978
 11
723.92640848090343
 21
1239.1146707206353
  0
LINE
  8
_2-7_ビス
  6
CONTINUOUS
 62
    7
 10
723.92640848090343
 20
1239.1146707206353
 11
723.92752053352046
 21
1239.1546169805945
  0
LINE
  8
_2-7_ビス
  6
CONTINUOUS
 62
    7
 10
723.92752053352046
 20
1239.1546169805945
 11
723.92669078245967
 21
1239.1658268434185
  0
LINE
  8
_2-7_ビス
  6
CONTINUOUS
 62
    7
 10
723.71011417333739
 20
1237.3517917568183
 11
723.71011417333739
 21
1237.3517917568183
  0
LINE
  8
_2-7_ビス
  6
CONTINUOUS
 62
    7
 10
723.71011417333739
 20
1237.3517917568183
 11
723.74463740167243
 21
1237.3643053070775
  0
LINE
  8
_2-7_ビス
  6
CONTINUOUS
 62
    7
 10
723.74463740167243
 20
1237.3643053070775
 11
723.77665968002555
 21
1237.3832196278556
  0
LINE
  8
_2-7_ビス
  6
CONTINUOUS
 62
    7
 10
723.77665968002555
 20
1237.3832196278556
 11
723.80520802767307
 21
1237.4079600170869
  0
LINE
  8
_2-7_ビス
  6
CONTINUOUS
 62
    7
 10
723.80520802767307
 20
1237.4079600170869
 11
723.82941501751793
 21
1237.4377747505641
  0
LINE
  8
_2-7_ビス
  6
CONTINUOUS
 62
    7
 10
723.82941501751793
 20
1237.4377747505641
 11
723.84854513242294
 21
1237.4717579226974
  0
LINE
  8
_2-7_ビス
  6
CONTINUOUS
 62
    7
 10
723.84854513242294
 20
1237.4717579226974
 11
723.86201711352714
 21
1237.5088769719978
  0
LINE
  8
_2-7_ビス
  6
CONTINUOUS
 62
    7
 10
723.86201711352714
 20
1237.5088769719978
 11
723.86942162150183
 21
1237.5480040549353
  0
LINE
  8
_2-7_ビス
  6
CONTINUOUS
 62
    7
 10
723.86942162150183
 20
1237.5480040549353
 11
723.87053367411886
 21
1237.5879503148944
  0
LINE
  8
_2-7_ビス
  6
CONTINUOUS
 62
    7
 10
723.87053367411886
 20
1237.5879503148944
 11
723.86970392305807
 21
1237.5991601777184
  0
LINE
  8
_2-7_ビス
  6
CONTINUOUS
 62
    7
 10
723.76710103273899
 20
1234.2184584254182
 11
723.76710103273899
 21
1234.2184584254182
  0
LINE
  8
_2-7_ビス
  6
CONTINUOUS
 62
    7
 10
723.76710103273899
 20
1234.2184584254182
 11
723.80162426107404
 21
1234.2309719756774
  0
LINE
  8
_2-7_ビス
  6
CONTINUOUS
 62
    7
 10
723.80162426107404
 20
1234.2309719756774
 11
723.83364653942715
 21
1234.2498862964555
  0
LINE
  8
_2-7_ビス
  6
CONTINUOUS
 62
    7
 10
723.83364653942715
 20
1234.2498862964555
 11
723.86219488707468
 21
1234.2746266856868
  0
LINE
  8
_2-7_ビス
  6
CONTINUOUS
 62
    7
 10
723.86219488707468
 20
1234.2746266856868
 11
723.88640187691954
 21
1234.304441419164
  0
LINE
  8
_2-7_ビス
  6
CONTINUOUS
 62
    7
 10
723.88640187691954
 20
1234.304441419164
 11
723.90553199182455
 21
1234.3384245912973
  0
LINE
  8
_2-7_ビス
  6
CONTINUOUS
 62
    7
 10
723.90553199182455
 20
1234.3384245912973
 11
723.91900397292875
 21
1234.3755436405977
  0
LINE
  8
_2-7_ビス
  6
CONTINUOUS
 62
    7
 10
723.91900397292875
 20
1234.3755436405977
 11
723.92640848090343
 21
1234.4146707235352
  0
LINE
  8
_2-7_ビス
  6
CONTINUOUS
 62
    7
 10
723.92640848090343
 20
1234.4146707235352
 11
723.92752053352046
 21
1234.4546169834944
  0
LINE
  8
_2-7_ビス
  6
CONTINUOUS
 62
    7
 10
723.92752053352046
 20
1234.4546169834944
 11
723.92669078245967
 21
1234.4658268463184
  0
LINE
  8
_2-7_ビス
  6
CONTINUOUS
 62
    7
 10
723.76710103273899
 20
1232.6517917597182
 11
723.76710103273899
 21
1232.6517917597182
  0
LINE
  8
_2-7_ビス
  6
CONTINUOUS
 62
    7
 10
723.76710103273899
 20
1232.6517917597182
 11
723.80162426107404
 21
1232.6643053099774
  0
LINE
  8
_2-7_ビス
  6
CONTINUOUS
 62
    7
 10
723.80162426107404
 20
1232.6643053099774
 11
723.83364653942715
 21
1232.6832196307555
  0
LINE
  8
_2-7_ビス
  6
CONTINUOUS
 62
    7
 10
723.83364653942715
 20
1232.6832196307555
 11
723.86219488707468
 21
1232.7079600199868
  0
LINE
  8
_2-7_ビス
  6
CONTINUOUS
 62
    7
 10
723.86219488707468
 20
1232.7079600199868
 11
723.88640187691954
 21
1232.737774753464
  0
LINE
  8
_2-7_ビス
  6
CONTINUOUS
 62
    7
 10
723.88640187691954
 20
1232.737774753464
 11
723.90553199182455
 21
1232.7717579255973
  0
LINE
  8
_2-7_ビス
  6
CONTINUOUS
 62
    7
 10
723.90553199182455
 20
1232.7717579255973
 11
723.91900397292875
 21
1232.8088769748977
  0
LINE
  8
_2-7_ビス
  6
CONTINUOUS
 62
    7
 10
723.91900397292875
 20
1232.8088769748977
 11
723.92640848090343
 21
1232.8480040578352
  0
LINE
  8
_2-7_ビス
  6
CONTINUOUS
 62
    7
 10
723.92640848090343
 20
1232.8480040578352
 11
723.92752053352046
 21
1232.8879503177943
  0
LINE
  8
_2-7_ビス
  6
CONTINUOUS
 62
    7
 10
723.92752053352046
 20
1232.8879503177943
 11
723.92669078245967
 21
1232.8991601806183
  0
LINE
  8
_2-7_ビス
  6
CONTINUOUS
 62
    7
 10
723.76710103273899
 20
1231.0851250940182
 11
723.76710103273899
 21
1231.0851250940182
  0
LINE
  8
_2-7_ビス
  6
CONTINUOUS
 62
    7
 10
723.76710103273899
 20
1231.0851250940182
 11
723.80162426107404
 21
1231.0976386442774
  0
LINE
  8
_2-7_ビス
  6
CONTINUOUS
 62
    7
 10
723.80162426107404
 20
1231.0976386442774
 11
723.83364653942715
 21
1231.1165529650555
  0
LINE
  8
_2-7_ビス
  6
CONTINUOUS
 62
    7
 10
723.83364653942715
 20
1231.1165529650555
 11
723.86219488707468
 21
1231.1412933542867
  0
LINE
  8
_2-7_ビス
  6
CONTINUOUS
 62
    7
 10
723.86219488707468
 20
1231.1412933542867
 11
723.88640187691954
 21
1231.171108087764
  0
LINE
  8
_2-7_ビス
  6
CONTINUOUS
 62
    7
 10
723.88640187691954
 20
1231.171108087764
 11
723.90553199182455
 21
1231.2050912598972
  0
LINE
  8
_2-7_ビス
  6
CONTINUOUS
 62
    7
 10
723.90553199182455
 20
1231.2050912598972
 11
723.91900397292875
 21
1231.2422103091976
  0
LINE
  8
_2-7_ビス
  6
CONTINUOUS
 62
    7
 10
723.91900397292875
 20
1231.2422103091976
 11
723.92640848090343
 21
1231.2813373921351
  0
LINE
  8
_2-7_ビス
  6
CONTINUOUS
 62
    7
 10
723.92640848090343
 20
1231.2813373921351
 11
723.92752053352046
 21
1231.3212836520943
  0
LINE
  8
_2-7_ビス
  6
CONTINUOUS
 62
    7
 10
723.92752053352046
 20
1231.3212836520943
 11
723.92669078245967
 21
1231.3324935149183
  0
LINE
  8
_2-7_ビス
  6
CONTINUOUS
 62
    7
 10
723.70982146116467
 20
1229.5184584283181
 11
723.70982146116467
 21
1229.5184584283181
  0
LINE
  8
_2-7_ビス
  6
CONTINUOUS
 62
    7
 10
723.70982146116467
 20
1229.5184584283181
 11
723.74434468949971
 21
1229.5309719785773
  0
LINE
  8
_2-7_ビス
  6
CONTINUOUS
 62
    7
 10
723.74434468949971
 20
1229.5309719785773
 11
723.77636696785282
 21
1229.5498862993554
  0
LINE
  8
_2-7_ビス
  6
CONTINUOUS
 62
    7
 10
723.77636696785282
 20
1229.5498862993554
 11
723.80491531550035
 21
1229.5746266885867
  0
LINE
  8
_2-7_ビス
  6
CONTINUOUS
 62
    7
 10
723.80491531550035
 20
1229.5746266885867
 11
723.82912230534521
 21
1229.6044414220639
  0
LINE
  8
_2-7_ビス
  6
CONTINUOUS
 62
    7
 10
723.82912230534521
 20
1229.6044414220639
 11
723.84825242025022
 21
1229.6384245941972
  0
LINE
  8
_2-7_ビス
  6
CONTINUOUS
 62
    7
 10
723.84825242025022
 20
1229.6384245941972
 11
723.86172440135442
 21
1229.6755436434976
  0
LINE
  8
_2-7_ビス
  6
CONTINUOUS
 62
    7
 10
723.86172440135442
 20
1229.6755436434976
 11
723.86912890932911
 21
1229.7146707264351
  0
LINE
  8
_2-7_ビス
  6
CONTINUOUS
 62
    7
 10
723.86912890932911
 20
1229.7146707264351
 11
723.87024096194614
 21
1229.7546169863942
  0
LINE
  8
_2-7_ビス
  6
CONTINUOUS
 62
    7
 10
723.87024096194614
 20
1229.7546169863942
 11
723.86941121088535
 21
1229.7658268492182
  0
LINE
  8
_2-7_ビス
  6
CONTINUOUS
 62
    7
 10
723.76710103273899
 20
1226.385125096918
 11
723.76710103273899
 21
1226.385125096918
  0
LINE
  8
_2-7_ビス
  6
CONTINUOUS
 62
    7
 10
723.76710103273899
 20
1226.385125096918
 11
723.80162426107404
 21
1226.3976386471772
  0
LINE
  8
_2-7_ビス
  6
CONTINUOUS
 62
    7
 10
723.80162426107404
 20
1226.3976386471772
 11
723.83364653942715
 21
1226.4165529679553
  0
LINE
  8
_2-7_ビス
  6
CONTINUOUS
 62
    7
 10
723.83364653942715
 20
1226.4165529679553
 11
723.86219488707468
 21
1226.4412933571866
  0
LINE
  8
_2-7_ビス
  6
CONTINUOUS
 62
    7
 10
723.86219488707468
 20
1226.4412933571866
 11
723.88640187691954
 21
1226.4711080906638
  0
LINE
  8
_2-7_ビス
  6
CONTINUOUS
 62
    7
 10
723.88640187691954
 20
1226.4711080906638
 11
723.90553199182455
 21
1226.5050912627971
  0
LINE
  8
_2-7_ビス
  6
CONTINUOUS
 62
    7
 10
723.90553199182455
 20
1226.5050912627971
 11
723.91900397292875
 21
1226.5422103120975
  0
LINE
  8
_2-7_ビス
  6
CONTINUOUS
 62
    7
 10
723.91900397292875
 20
1226.5422103120975
 11
723.92640848090343
 21
1226.581337395035
  0
LINE
  8
_2-7_ビス
  6
CONTINUOUS
 62
    7
 10
723.92640848090343
 20
1226.581337395035
 11
723.92752053352046
 21
1226.6212836549942
  0
LINE
  8
_2-7_ビス
  6
CONTINUOUS
 62
    7
 10
723.92752053352046
 20
1226.6212836549942
 11
723.92669078245967
 21
1226.6324935178181
  0
LINE
  8
_2-7_ビス
  6
CONTINUOUS
 62
    7
 10
723.73482098164436
 20
1224.818458431218
 11
723.73482098164436
 21
1224.818458431218
  0
LINE
  8
_2-7_ビス
  6
CONTINUOUS
 62
    7
 10
723.73482098164436
 20
1224.818458431218
 11
723.76934420997941
 21
1224.8309719814772
  0
LINE
  8
_2-7_ビス
  6
CONTINUOUS
 62
    7
 10
723.76934420997941
 20
1224.8309719814772
 11
723.80136648833252
 21
1224.8498863022553
  0
LINE
  8
_2-7_ビス
  6
CONTINUOUS
 62
    7
 10
723.80136648833252
 20
1224.8498863022553
 11
723.82991483598005
 21
1224.8746266914866
  0
LINE
  8
_2-7_ビス
  6
CONTINUOUS
 62
    7
 10
723.82991483598005
 20
1224.8746266914866
 11
723.8541218258249
 21
1224.9044414249638
  0
LINE
  8
_2-7_ビス
  6
CONTINUOUS
 62
    7
 10
723.8541218258249
 20
1224.9044414249638
 11
723.87325194072992
 21
1224.9384245970971
  0
LINE
  8
_2-7_ビス
  6
CONTINUOUS
 62
    7
 10
723.87325194072992
 20
1224.9384245970971
 11
723.88672392183412
 21
1224.9755436463975
  0
LINE
  8
_2-7_ビス
  6
CONTINUOUS
 62
    7
 10
723.88672392183412
 20
1224.9755436463975
 11
723.8941284298088
 21
1225.014670729335
  0
LINE
  8
_2-7_ビス
  6
CONTINUOUS
 62
    7
 10
723.8941284298088
 20
1225.014670729335
 11
723.89524048242583
 21
1225.0546169892941
  0
LINE
  8
_2-7_ビス
  6
CONTINUOUS
 62
    7
 10
723.89524048242583
 20
1225.0546169892941
 11
723.89441073136504
 21
1225.0658268521181
  0
LINE
  8
_2-7_ビス
  6
CONTINUOUS
 62
    7
 10
723.70271802883599
 20
1223.251791765518
 11
723.70271802883599
 21
1223.251791765518
  0
LINE
  8
_2-7_ビス
  6
CONTINUOUS
 62
    7
 10
723.70271802883599
 20
1223.251791765518
 11
723.73724125717104
 21
1223.2643053157772
  0
LINE
  8
_2-7_ビス
  6
CONTINUOUS
 62
    7
 10
723.73724125717104
 20
1223.2643053157772
 11
723.76926353552415
 21
1223.2832196365553
  0
LINE
  8
_2-7_ビス
  6
CONTINUOUS
 62
    7
 10
723.76926353552415
 20
1223.2832196365553
 11
723.79781188317168
 21
1223.3079600257865
  0
LINE
  8
_2-7_ビス
  6
CONTINUOUS
 62
    7
 10
723.79781188317168
 20
1223.3079600257865
 11
723.82201887301653
 21
1223.3377747592638
  0
LINE
  8
_2-7_ビス
  6
CONTINUOUS
 62
    7
 10
723.82201887301653
 20
1223.3377747592638
 11
723.84114898792154
 21
1223.371757931397
  0
LINE
  8
_2-7_ビス
  6
CONTINUOUS
 62
    7
 10
723.84114898792154
 20
1223.371757931397
 11
723.85462096902575
 21
1223.4088769806974
  0
LINE
  8
_2-7_ビス
  6
CONTINUOUS
 62
    7
 10
723.85462096902575
 20
1223.4088769806974
 11
723.86202547700043
 21
1223.4480040636349
  0
LINE
  8
_2-7_ビス
  6
CONTINUOUS
 62
    7
 10
723.86202547700043
 20
1223.4480040636349
 11
723.86313752961746
 21
1223.4879503235941
  0
LINE
  8
_2-7_ビス
  6
CONTINUOUS
 62
    7
 10
723.86313752961746
 20
1223.4879503235941
 11
723.86230777855667
 21
1223.4991601864181
  0
LINE
  8
_2-7_ビス
  6
CONTINUOUS
 62
    7
 10
723.68040309780645
 20
1221.6851250998191
 11
723.68040309780645
 21
1221.6851250998191
  0
LINE
  8
_2-7_ビス
  6
CONTINUOUS
 62
    7
 10
723.68040309780645
 20
1221.6851250998191
 11
723.71492632614149
 21
1221.6976386500783
  0
LINE
  8
_2-7_ビス
  6
CONTINUOUS
 62
    7
 10
723.71492632614149
 20
1221.6976386500783
 11
723.74694860449461
 21
1221.7165529708564
  0
LINE
  8
_2-7_ビス
  6
CONTINUOUS
 62
    7
 10
723.74694860449461
 20
1221.7165529708564
 11
723.77549695214213
 21
1221.7412933600876
  0
LINE
  8
_2-7_ビス
  6
CONTINUOUS
 62
    7
 10
723.77549695214213
 20
1221.7412933600876
 11
723.79970394198699
 21
1221.7711080935649
  0
LINE
  8
_2-7_ビス
  6
CONTINUOUS
 62
    7
 10
723.79970394198699
 20
1221.7711080935649
 11
723.818834056892
 21
1221.8050912656981
  0
LINE
  8
_2-7_ビス
  6
CONTINUOUS
 62
    7
 10
723.818834056892
 20
1221.8050912656981
 11
723.8323060379962
 21
1221.8422103149985
  0
LINE
  8
_2-7_ビス
  6
CONTINUOUS
 62
    7
 10
723.8323060379962
 20
1221.8422103149985
 11
723.83971054597089
 21
1221.881337397936
  0
LINE
  8
_2-7_ビス
  6
CONTINUOUS
 62
    7
 10
723.83971054597089
 20
1221.881337397936
 11
723.84082259858792
 21
1221.9212836578952
  0
LINE
  8
_2-7_ビス
  6
CONTINUOUS
 62
    7
 10
723.84082259858792
 20
1221.9212836578952
 11
723.83999284752713
 21
1221.9324935207192
  0
LINE
  8
_2-7_ビス
  6
CONTINUOUS
 62
    7
 10
723.68958628273845
 20
1220.1184584341188
 11
723.68958628273845
 21
1220.1184584341188
  0
LINE
  8
_2-7_ビス
  6
CONTINUOUS
 62
    7
 10
723.68958628273845
 20
1220.1184584341188
 11
723.71673221867741
 21
1220.1235542529676
  0
LINE
  8
_2-7_ビス
  6
CONTINUOUS
 62
    7
 10
723.71673221867741
 20
1220.1235542529676
 11
723.74266088290915
 21
1220.1337551247791
  0
LINE
  8
_2-7_ビス
  6
CONTINUOUS
 62
    7
 10
723.74266088290915
 20
1220.1337551247791
 11
723.76658444609166
 21
1220.1487511012256
  0
LINE
  8
_2-7_ビス
  6
CONTINUOUS
 62
    7
 10
723.76658444609166
 20
1220.1487511012256
 11
723.78777600286355
 21
1220.1680865371507
  0
LINE
  8
_2-7_ビス
  6
CONTINUOUS
 62
    7
 10
723.78777600286355
 20
1220.1680865371507
 11
723.80559165849559
 21
1220.1911739351183
  0
LINE
  8
_2-7_ビス
  6
CONTINUOUS
 62
    7
 10
723.80559165849559
 20
1220.1911739351183
 11
723.81949009330663
 21
1220.2173117962236
  0
LINE
  8
_2-7_ビス
  6
CONTINUOUS
 62
    7
 10
723.81949009330663
 20
1220.2173117962236
 11
723.82904901038796
 21
1220.2457059347837
  0
LINE
  8
_2-7_ビス
  6
CONTINUOUS
 62
    7
 10
723.82904901038796
 20
1220.2457059347837
 11
723.83397796688109
 21
1220.2754936092665
  0
LINE
  8
_2-7_ビス
  6
CONTINUOUS
 62
    7
 10
723.83397796688109
 20
1220.2754936092665
 11
723.83412719893704
 21
1220.3057697362558
  0
LINE
  8
_2-7_ビス
  6
CONTINUOUS
 62
    7
 10
723.83412719893704
 20
1220.3057697362558
 11
723.8294921722154
 21
1220.3356143909539
  0
LINE
  8
_2-7_ビス
  6
CONTINUOUS
 62
    7
 10
723.8294921722154
 20
1220.3356143909539
 11
723.82021371965766
 21
1220.36412075863
  0
LINE
  8
_2-7_ビス
  6
CONTINUOUS
 62
    7
 10
723.82021371965766
 20
1220.36412075863
 11
723.80657376234967
 21
1220.3904226877266
  0
LINE
  8
_2-7_ビス
  6
CONTINUOUS
 62
    7
 10
723.80657376234967
 20
1220.3904226877266
 11
723.8064902685926
 21
1220.3905551759883
  0
LINE
  8
_2-7_ビス
  6
CONTINUOUS
 62
    7
 10
723.38647753273881
 20
1227.9517917626185
 11
723.38647753273881
 21
1227.9517917626185
  0
LINE
  8
_2-7_ビス
  6
CONTINUOUS
 62
    7
 10
723.38647753273881
 20
1227.9517917626185
 11
723.47080336353247
 21
1227.9640517192663
  0
LINE
  8
_2-7_ビス
  6
CONTINUOUS
 62
    7
 10
723.47080336353247
 20
1227.9640517192663
 11
723.55191168499084
 21
1227.9922241859733
  0
LINE
  8
_2-7_ビス
  6
CONTINUOUS
 62
    7
 10
723.55191168499084
 20
1227.9922241859733
 11
723.62733806180893
 21
1228.0354531565949
  0
LINE
  8
_2-7_ビス
  6
CONTINUOUS
 62
    7
 10
723.62733806180893
 20
1228.0354531565949
 11
723.69479070169484
 21
1228.0924251407334
  0
LINE
  8
_2-7_ビス
  6
CONTINUOUS
 62
    7
 10
723.69479070169484
 20
1228.0924251407334
 11
723.75222009031825
 21
1228.1614090734802
  0
LINE
  8
_2-7_ビス
  6
CONTINUOUS
 62
    7
 10
723.75222009031825
 20
1228.1614090734802
 11
723.79788126476649
 21
1228.2403089129461
  0
LINE
  8
_2-7_ビス
  6
CONTINUOUS
 62
    7
 10
723.79788126476649
 20
1228.2403089129461
 11
723.83038683335974
 21
1228.3267273274344
  0
LINE
  8
_2-7_ビス
  6
CONTINUOUS
 62
    7
 10
723.83038683335974
 20
1228.3267273274344
 11
723.84874913084479
 21
1228.4180385371503
  0
LINE
  8
_2-7_ビス
  6
CONTINUOUS
 62
    7
 10
723.84874913084479
 20
1228.4180385371503
 11
723.85241022810442
 21
1228.5114680971928
  0
LINE
  8
_2-7_ビス
  6
CONTINUOUS
 62
    7
 10
723.85241022810442
 20
1228.5114680971928
 11
723.84125888455094
 21
1228.6041771976575
  0
LINE
  8
_2-7_ビス
  6
CONTINUOUS
 62
    7
 10
723.84125888455094
 20
1228.6041771976575
 11
723.8156339281154
 21
1228.6933489194396
  0
LINE
  8
_2-7_ビス
  6
CONTINUOUS
 62
    7
 10
723.8156339281154
 20
1228.6933489194396
 11
723.77631396013226
 21
1228.776273824896
  0
LINE
  8
_2-7_ビス
  6
CONTINUOUS
 62
    7
 10
723.77631396013226
 20
1228.776273824896
 11
723.72449369793173
 21
1228.8504322827366
  0
LINE
  8
_2-7_ビス
  6
CONTINUOUS
 62
    7
 10
723.72449369793173
 20
1228.8504322827366
 11
723.66174767395853
 21
1228.9135710257456
  0
LINE
  8
_2-7_ビス
  6
CONTINUOUS
 62
    7
 10
723.66174767395853
 20
1228.9135710257456
 11
723.58998239439995
 21
1228.9637716151665
  0
LINE
  8
_2-7_ビス
  6
CONTINUOUS
 62
    7
 10
723.58998239439995
 20
1228.9637716151665
 11
723.51137841096067
 21
1228.9995087314926
  0
LINE
  8
_2-7_ビス
  6
CONTINUOUS
 62
    7
 10
723.51137841096067
 20
1228.9995087314926
 11
723.42832406590162
 21
1229.019696520528
  0
LINE
  8
_2-7_ビス
  6
CONTINUOUS
 62
    7
 10
723.42832406590162
 20
1229.019696520528
 11
723.38647753273881
 21
1229.0237215865186
  0
LINE
  8
_2-7_ビス
  6
CONTINUOUS
 62
    7
 10
723.38647753273881
 20
1235.7851250911187
 11
723.38647753273881
 21
1235.7851250911187
  0
LINE
  8
_2-7_ビス
  6
CONTINUOUS
 62
    7
 10
723.38647753273881
 20
1235.7851250911187
 11
723.47080336353247
 21
1235.7973850477665
  0
LINE
  8
_2-7_ビス
  6
CONTINUOUS
 62
    7
 10
723.47080336353247
 20
1235.7973850477665
 11
723.55191168499084
 21
1235.8255575144735
  0
LINE
  8
_2-7_ビス
  6
CONTINUOUS
 62
    7
 10
723.55191168499084
 20
1235.8255575144735
 11
723.62733806180893
 21
1235.8687864850951
  0
LINE
  8
_2-7_ビス
  6
CONTINUOUS
 62
    7
 10
723.62733806180893
 20
1235.8687864850951
 11
723.69479070169484
 21
1235.9257584692336
  0
LINE
  8
_2-7_ビス
  6
CONTINUOUS
 62
    7
 10
723.69479070169484
 20
1235.9257584692336
 11
723.75222009031825
 21
1235.9947424019804
  0
LINE
  8
_2-7_ビス
  6
CONTINUOUS
 62
    7
 10
723.75222009031825
 20
1235.9947424019804
 11
723.79788126476649
 21
1236.0736422414464
  0
LINE
  8
_2-7_ビス
  6
CONTINUOUS
 62
    7
 10
723.79788126476649
 20
1236.0736422414464
 11
723.83038683335974
 21
1236.1600606559346
  0
LINE
  8
_2-7_ビス
  6
CONTINUOUS
 62
    7
 10
723.83038683335974
 20
1236.1600606559346
 11
723.84874913084479
 21
1236.2513718656505
  0
LINE
  8
_2-7_ビス
  6
CONTINUOUS
 62
    7
 10
723.84874913084479
 20
1236.2513718656505
 11
723.85241022810442
 21
1236.344801425693
  0
LINE
  8
_2-7_ビス
  6
CONTINUOUS
 62
    7
 10
723.85241022810442
 20
1236.344801425693
 11
723.84125888455094
 21
1236.4375105261577
  0
LINE
  8
_2-7_ビス
  6
CONTINUOUS
 62
    7
 10
723.84125888455094
 20
1236.4375105261577
 11
723.8156339281154
 21
1236.5266822479398
  0
LINE
  8
_2-7_ビス
  6
CONTINUOUS
 62
    7
 10
723.8156339281154
 20
1236.5266822479398
 11
723.77631396013226
 21
1236.6096071533962
  0
LINE
  8
_2-7_ビス
  6
CONTINUOUS
 62
    7
 10
723.77631396013226
 20
1236.6096071533962
 11
723.72449369793173
 21
1236.6837656112368
  0
LINE
  8
_2-7_ビス
  6
CONTINUOUS
 62
    7
 10
723.72449369793173
 20
1236.6837656112368
 11
723.66174767395853
 21
1236.7469043542458
  0
LINE
  8
_2-7_ビス
  6
CONTINUOUS
 62
    7
 10
723.66174767395853
 20
1236.7469043542458
 11
723.58998239439995
 21
1236.7971049436667
  0
LINE
  8
_2-7_ビス
  6
CONTINUOUS
 62
    7
 10
723.58998239439995
 20
1236.7971049436667
 11
723.51137841096067
 21
1236.8328420599928
  0
LINE
  8
_2-7_ビス
  6
CONTINUOUS
 62
    7
 10
723.51137841096067
 20
1236.8328420599928
 11
723.42832406590162
 21
1236.8530298490282
  0
LINE
  8
_2-7_ビス
  6
CONTINUOUS
 62
    7
 10
723.42832406590162
 20
1236.8530298490282
 11
723.38647753273881
 21
1236.8570549150188
  0
LINE
  8
_2-7_ビス
  6
CONTINUOUS
 62
    7
 10
723.76196967662827
 20
1217.3974058042181
 11
723.76196967662827
 21
1217.3974058042181
  0
LINE
  8
_2-7_ビス
  6
CONTINUOUS
 62
    7
 10
723.76196967662827
 20
1217.3974058042181
 11
723.75656575220205
 21
1217.5366614261336
  0
LINE
  8
_2-7_ビス
  6
CONTINUOUS
 62
    7
 10
723.75656575220205
 20
1217.5366614261336
 11
723.72924906418268
 21
1217.6727697712163
  0
LINE
  8
_2-7_ビス
  6
CONTINUOUS
 62
    7
 10
723.72924906418268
 20
1217.6727697712163
 11
723.7116943435401
 21
1217.7272303654181
  0
LINE
  8
_2-7_ビス
  6
CONTINUOUS
 62
    7
 10
724.85287528273784
 20
1215.3980783466659
 11
724.85287528273784
 21
1215.3980783466659
  0
LINE
  8
_2-7_ビス
  6
CONTINUOUS
 62
    7
 10
724.85287528273784
 20
1215.3980783466659
 11
724.85005345790512
 21
1215.45391854121
  0
LINE
  8
_2-7_ビス
  6
CONTINUOUS
 62
    7
 10
724.85005345790512
 20
1215.45391854121
 11
724.83845477041632
 21
1215.5083716790655
  0
LINE
  8
_2-7_ビス
  6
CONTINUOUS
 62
    7
 10
724.83845477041632
 20
1215.5083716790655
 11
724.81843164052157
 21
1215.5597832291935
  0
LINE
  8
_2-7_ビス
  6
CONTINUOUS
 62
    7
 10
724.81843164052157
 20
1215.5597832291935
 11
724.79059246089059
 21
1215.6065910776588
  0
LINE
  8
_2-7_ビス
  6
CONTINUOUS
 62
    7
 10
724.79059246089059
 20
1215.6065910776588
 11
724.75578311090919
 21
1215.6473729916715
  0
LINE
  8
_2-7_ビス
  6
CONTINUOUS
 62
    7
 10
724.75578311090919
 20
1215.6473729916715
 11
724.7150612550621
 21
1215.6808898334116
  0
LINE
  8
_2-7_ビス
  6
CONTINUOUS
 62
    7
 10
724.7150612550621
 20
1215.6808898334116
 11
724.6696642063331
 21
1215.7061232106023
  0
LINE
  8
_2-7_ビス
  6
CONTINUOUS
 62
    7
 10
724.6696642063331
 20
1215.7061232106023
 11
724.62097133107557
 21
1215.722306419847
  0
LINE
  8
_2-7_ビス
  6
CONTINUOUS
 62
    7
 10
724.62097133107557
 20
1215.722306419847
 11
724.57046213766466
 21
1215.7289477425215
  0
LINE
  8
_2-7_ビス
  6
CONTINUOUS
 62
    7
 10
724.57046213766466
 20
1215.7289477425215
 11
724.51967132238326
 21
1215.7258453853974
  0
LINE
  8
_2-7_ビス
  6
CONTINUOUS
 62
    7
 10
724.51967132238326
 20
1215.7258453853974
 11
724.47014213845216
 21
1215.7130936120259
  0
LINE
  8
_2-7_ビス
  6
CONTINUOUS
 62
    7
 10
724.47014213845216
 20
1215.7130936120259
 11
724.42337950506214
 21
1215.691079878588
  0
LINE
  8
_2-7_ビス
  6
CONTINUOUS
 62
    7
 10
724.42337950506214
 20
1215.691079878588
 11
724.38080428116587
 21
1215.6604730612348
  0
LINE
  8
_2-7_ビス
  6
CONTINUOUS
 62
    7
 10
724.38080428116587
 20
1215.6604730612348
 11
724.34371009339725
 21
1215.6222031326238
  0
LINE
  8
_2-7_ビス
  6
CONTINUOUS
 62
    7
 10
724.34371009339725
 20
1215.6222031326238
 11
724.31322402988098
 21
1215.5774329051703
  0
LINE
  8
_2-7_ビス
  6
CONTINUOUS
 62
    7
 10
724.31322402988098
 20
1215.5774329051703
 11
724.29027239423044
 21
1215.5275226995809
  0
LINE
  8
_2-7_ビス
  6
CONTINUOUS
 62
    7
 10
724.29027239423044
 20
1215.5275226995809
 11
724.27555256028074
 21
1215.4739890121964
  0
LINE
  8
_2-7_ビス
  6
CONTINUOUS
 62
    7
 10
724.27555256028074
 20
1215.4739890121964
 11
724.26951178273794
 21
1215.4184584370187
  0
LINE
  8
_2-7_ビス
  6
CONTINUOUS
 62
    7
 10
724.26951178273794
 20
1215.4184584370187
 11
724.26951178273794
 21
1215.4184584370187
  0
LINE
  8
_2-7_ビス
  6
CONTINUOUS
 62
    7
 10
1156.1417994452145
 20
1152.3861311335068
 11
1156.1417994452145
 21
1156.481616306419
  0
LINE
  8
_2-7_ビス
  6
CONTINUOUS
 62
    7
 10
1156.1417994452145
 20
1156.481616306419
 11
1153.1417994452138
 21
1156.481616306419
  0
LINE
  8
_2-7_ビス
  6
CONTINUOUS
 62
    7
 10
1156.1417994452145
 20
1152.3861311335068
 11
1156.8917994452138
 21
1151.561570213303
  0
LINE
  8
_2-7_ビス
  6
CONTINUOUS
 62
    7
 10
1156.8917994452138
 20
1151.561570213303
 11
1156.8917994452138
 21
1149.4629644861882
  0
LINE
  8
_2-7_ビス
  6
CONTINUOUS
 62
    7
 10
1156.8917994452138
 20
1149.4629644861882
 11
1156.3435801952132
 21
1145.3453711729392
  0
LINE
  8
_2-7_ビス
  6
CONTINUOUS
 62
    7
 10
1156.3435801952132
 20
1145.3453711729392
 11
1156.1016564452134
 21
1144.9377566644184
  0
LINE
  8
_2-7_ビス
  6
CONTINUOUS
 62
    7
 10
1156.1016564452134
 20
1144.9377566644184
 11
1156.1417994452145
 21
1144.9377566644184
  0
LINE
  8
_2-7_ビス
  6
CONTINUOUS
 62
    7
 10
1156.1417994452145
 20
1144.9377566644184
 11
1156.1417994452145
 21
1143.1237215778187
  0
LINE
  8
_2-7_ビス
  6
CONTINUOUS
 62
    7
 10
1156.1417994452145
 20
1143.1237215778187
 11
1155.7087868846465
 21
1142.2991601748188
  0
LINE
  8
_2-7_ビス
  6
CONTINUOUS
 62
    7
 10
1155.8386906952139
 20
1142.051791753918
 11
1156.8167994452133
 21
1142.051791753918
  0
LINE
  8
_2-7_ビス
  6
CONTINUOUS
 62
    7
 10
1156.8167994452133
 20
1142.051791753918
 11
1156.8167994452133
 21
1137.818401160039
  0
LINE
  8
_2-7_ビス
  6
CONTINUOUS
 62
    7
 10
1156.8167994452133
 20
1137.818401160039
 11
1156.3153299452133
 21
1136.8570549150186
  0
LINE
  8
_2-7_ビス
  6
CONTINUOUS
 62
    7
 10
1156.3153299452133
 20
1136.8570549150186
 11
1156.3105494452136
 21
1136.8570549150186
  0
LINE
  8
_2-7_ビス
  6
CONTINUOUS
 62
    7
 10
1156.310545271929
 20
1136.8570552688007
 11
1156.3105494452136
 21
1136.8570549150186
  0
LINE
  8
_2-7_ビス
  6
CONTINUOUS
 62
    7
 10
1156.310545271929
 20
1136.8570552688007
 11
1156.3105494452136
 21
1136.8570549150186
  0
LINE
  8
_2-7_ビス
  6
CONTINUOUS
 62
    7
 10
1156.2779581952136
 20
1135.785125091119
 11
1156.8167994452133
 21
1135.785125091119
  0
LINE
  8
_2-7_ビス
  6
CONTINUOUS
 62
    7
 10
1156.8167994452133
 20
1135.785125091119
 11
1156.8167994452133
 21
1129.9878919543451
  0
LINE
  8
_2-7_ビス
  6
CONTINUOUS
 62
    7
 10
1156.8167994452133
 20
1129.9878919543451
 11
1156.3105522581534
 21
1129.0237405845803
  0
LINE
  8
_2-7_ビス
  6
CONTINUOUS
 62
    7
 10
1156.3105494452136
 20
1129.0237215865184
 11
1156.3069578148579
 21
1129.5011729837588
  0
LINE
  8
_2-7_ビス
  6
CONTINUOUS
 62
    7
 10
1156.3069578148579
 20
1129.5011729837588
 11
1155.9862778072343
 21
1129.5184584283188
  0
LINE
  8
_2-7_ビス
  6
CONTINUOUS
 62
    7
 10
1155.8276157670664
 20
1129.7658268492185
 11
1156.2779581952136
 21
1130.5903882522184
  0
LINE
  8
_2-7_ビス
  6
CONTINUOUS
 62
    7
 10
1156.2779581952136
 20
1130.5903882522184
 11
1156.2779583473368
 21
1131.0678397212134
  0
LINE
  8
_2-7_ビス
  6
CONTINUOUS
 62
    7
 10
1156.2779583473368
 20
1131.0678397212134
 11
1155.9299259452146
 21
1131.0851250940188
  0
LINE
  8
_2-7_ビス
  6
CONTINUOUS
 62
    7
 10
1155.7703361954932
 20
1131.3324935149185
 11
1156.2779581952136
 21
1132.1570549179185
  0
LINE
  8
_2-7_ビス
  6
CONTINUOUS
 62
    7
 10
1156.2779581952136
 20
1132.1570549179185
 11
1156.2779581952136
 21
1132.6345064790271
  0
LINE
  8
_2-7_ビス
  6
CONTINUOUS
 62
    7
 10
1156.2779581952136
 20
1132.6345064790271
 11
1155.9299259452146
 21
1132.6517917597189
  0
LINE
  8
_2-7_ビス
  6
CONTINUOUS
 62
    7
 10
1155.7703361954932
 20
1132.8991601806185
 11
1156.2779581952136
 21
1133.7237215836185
  0
LINE
  8
_2-7_ビス
  6
CONTINUOUS
 62
    7
 10
1156.2779581952136
 20
1133.7237215836185
 11
1156.2779581952136
 21
1134.2011731447271
  0
LINE
  8
_2-7_ビス
  6
CONTINUOUS
 62
    7
 10
1156.2779581952136
 20
1134.2011731447271
 11
1155.9299259452146
 21
1134.2184584254189
  0
LINE
  8
_2-7_ビス
  6
CONTINUOUS
 62
    7
 10
1155.7703361954932
 20
1134.4658268463186
 11
1156.2779583473368
 21
1135.2903882493185
  0
LINE
  8
_2-7_ビス
  6
CONTINUOUS
 62
    7
 10
1156.2779583473368
 20
1135.2903882493185
 11
1156.2779581952136
 21
1135.785125091119
  0
LINE
  8
_2-7_ビス
  6
CONTINUOUS
 62
    7
 10
1156.310545271929
 20
1136.8570552688007
 11
1156.3068600706836
 21
1137.3345067377945
  0
LINE
  8
_2-7_ビス
  6
CONTINUOUS
 62
    7
 10
1156.3068600706836
 20
1137.3345067377945
 11
1155.9894151952144
 21
1137.351791756819
  0
LINE
  8
_2-7_ビス
  6
CONTINUOUS
 62
    7
 10
1155.8273230548937
 20
1137.5991601777187
 11
1156.2779583473368
 21
1138.4237215807186
  0
LINE
  8
_2-7_ビス
  6
CONTINUOUS
 62
    7
 10
1156.2779583473368
 20
1138.4237215807186
 11
1156.2779583473368
 21
1138.9011730497125
  0
LINE
  8
_2-7_ビス
  6
CONTINUOUS
 62
    7
 10
1156.2779583473368
 20
1138.9011730497125
 11
1155.9299259452146
 21
1138.9184584225191
  0
LINE
  8
_2-7_ビス
  6
CONTINUOUS
 62
    7
 10
1155.7703361954932
 20
1139.1658268434187
 11
1156.2779581952136
 21
1139.9903882464187
  0
LINE
  8
_2-7_ビス
  6
CONTINUOUS
 62
    7
 10
1156.2779581952136
 20
1139.9903882464187
 11
1156.2779583473368
 21
1140.4678397154125
  0
LINE
  8
_2-7_ビス
  6
CONTINUOUS
 62
    7
 10
1156.2779583473368
 20
1140.4678397154125
 11
1155.9290398527255
 21
1140.4853566693785
  0
LINE
  8
_2-7_ビス
  6
CONTINUOUS
 62
    7
 10
1155.7703361954932
 20
1140.7324935091187
 11
1156.2779583473368
 21
1141.5570549121187
  0
LINE
  8
_2-7_ビス
  6
CONTINUOUS
 62
    7
 10
1156.2779583473368
 20
1141.5570549121187
 11
1156.2779581897066
 21
1142.051791753918
  0
LINE
  8
_2-7_ビス
  6
CONTINUOUS
 62
    7
 10
1156.2779581952136
 20
1127.9517917626188
 11
1156.8167994452133
 21
1127.9517917626188
  0
LINE
  8
_2-7_ビス
  6
CONTINUOUS
 62
    7
 10
1156.8167994452133
 20
1127.9517917626188
 11
1156.8167994452133
 21
1124.7035500277811
  0
LINE
  8
_2-7_ビス
  6
CONTINUOUS
 62
    7
 10
1156.8167994452133
 20
1124.7035500277811
 11
1156.3110136952141
 21
1121.1903882580182
  0
LINE
  8
_2-7_ビス
  6
CONTINUOUS
 62
    7
 10
1156.3110136952141
 20
1121.1903882580182
 11
1156.31027917755
 21
1121.6678393421594
  0
LINE
  8
_2-7_ビス
  6
CONTINUOUS
 62
    7
 10
1156.31027917755
 20
1121.6678393421594
 11
1156.0015906952131
 21
1121.6851250998186
  0
LINE
  8
_2-7_ビス
  6
CONTINUOUS
 62
    7
 10
1156.3110136952141
 20
1121.1903882580182
 11
1155.8775368846468
 21
1120.3658268550182
  0
LINE
  8
_2-7_ビス
  6
CONTINUOUS
 62
    7
 10
1155.8570341304257
 20
1121.9324935207183
 11
1156.307636463886
 21
1122.7570549237182
  0
LINE
  8
_2-7_ビス
  6
CONTINUOUS
 62
    7
 10
1156.307636463886
 20
1122.7570549237182
 11
1156.3055515596241
 21
1123.2345060078583
  0
LINE
  8
_2-7_ビス
  6
CONTINUOUS
 62
    7
 10
1156.3055515596241
 20
1123.2345060078583
 11
1155.9832246952137
 21
1123.2517917655186
  0
LINE
  8
_2-7_ビス
  6
CONTINUOUS
 62
    7
 10
1155.8347191993962
 20
1123.4991601864183
 11
1156.2985870587195
 21
1124.3237212045644
  0
LINE
  8
_2-7_ビス
  6
CONTINUOUS
 62
    7
 10
1156.2985870587195
 20
1124.3237212045644
 11
1156.2945242180231
 21
1124.8011726735594
  0
LINE
  8
_2-7_ビス
  6
CONTINUOUS
 62
    7
 10
1156.2945242180231
 20
1124.8011726735594
 11
1155.9598708627552
 21
1124.8184584312187
  0
LINE
  8
_2-7_ビス
  6
CONTINUOUS
 62
    7
 10
1155.8026162465867
 20
1125.0658268521183
 11
1156.2828188707922
 21
1125.8903878702645
  0
LINE
  8
_2-7_ビス
  6
CONTINUOUS
 62
    7
 10
1156.2828188707922
 20
1125.8903878702645
 11
1156.2779581952136
 21
1126.3678398162269
  0
LINE
  8
_2-7_ビス
  6
CONTINUOUS
 62
    7
 10
1156.2779581952136
 20
1126.3678398162269
 11
1155.9299259452146
 21
1126.3851250969187
  0
LINE
  8
_2-7_ビス
  6
CONTINUOUS
 62
    7
 10
1155.7703361954932
 20
1126.6324935178184
 11
1156.2779583473368
 21
1127.4570549208183
  0
LINE
  8
_2-7_ビス
  6
CONTINUOUS
 62
    7
 10
1156.2779583473368
 20
1127.4570549208183
 11
1156.2779581952136
 21
1127.9517917626188
  0
LINE
  8
_2-7_ビス
  6
CONTINUOUS
 62
    7
 10
1156.0074406952131
 20
1120.1184584341186
 11
1156.1417994452145
 21
1120.1184584341186
  0
LINE
  8
_2-7_ビス
  6
CONTINUOUS
 62
    7
 10
1156.1417994452145
 20
1120.1184584341186
 11
1156.1417994452145
 21
1119.335125101268
  0
LINE
  8
_2-7_ビス
  6
CONTINUOUS
 62
    7
 10
1156.1417994452145
 20
1119.335125101268
 11
1155.9917994452135
 21
1119.335125101268
  0
LINE
  8
_2-7_ビス
  6
CONTINUOUS
 62
    7
 10
1155.9917994452135
 20
1119.335125101268
 11
1155.9917994452135
 21
1117.7272303654186
  0
LINE
  8
_2-7_ビス
  6
CONTINUOUS
 62
    7
 10
1155.9917994452135
 20
1117.7272303654186
 11
1155.9853326344128
 21
1117.7272303654186
  0
LINE
  8
_2-7_ビス
  6
CONTINUOUS
 62
    7
 10
1155.9350574452142
 20
1117.397405804219
 11
1155.9350572986752
 21
1111.4469642113991
  0
LINE
  8
_2-7_ビス
  6
CONTINUOUS
 62
    7
 10
1155.9350572986752
 20
1111.4469642113991
 11
1155.494619945214
 21
1110.7955433872396
  0
LINE
  8
_2-7_ビス
  6
CONTINUOUS
 62
    7
 10
1155.494619945214
 20
1110.7955433872396
 11
1154.4917994452137
 21
1109.4816163354189
  0
LINE
  8
_2-7_ビス
  6
CONTINUOUS
 62
    7
 10
1154.4917994452137
 20
1109.4816163354189
 11
1154.3424209657192
 21
1109.4816163354189
  0
LINE
  8
_2-7_ビス
  6
CONTINUOUS
 62
    7
 10
1154.3424209657192
 20
1109.4816163354189
 11
1155.4275150750336
 21
1111.4469642113991
  0
LINE
  8
_2-7_ビス
  6
CONTINUOUS
 62
    7
 10
1155.4275150750336
 20
1111.4469642113991
 11
1155.4275151952143
 21
1115.4184584370184
  0
LINE
  8
_2-7_ビス
  6
CONTINUOUS
 62
    7
 10
1154.8441516952144
 20
1115.4184584370184
 11
1154.844151968646
 21
1111.4469643640975
  0
LINE
  8
_2-7_ビス
  6
CONTINUOUS
 62
    7
 10
1154.844151968646
 20
1111.4469643640975
 11
1153.7590576034133
 21
1109.4816163354189
  0
LINE
  8
_2-7_ビス
  6
CONTINUOUS
 62
    7
 10
1153.7590576034133
 20
1109.4816163354189
 11
1153.1417994452138
 21
1109.4816163354189
  0
LINE
  8
_2-7_ビス
  6
CONTINUOUS
 62
    7
 10
1155.7194995502971
 20
1142.3195595874843
 11
1155.7194995502971
 21
1142.3195595874843
  0
LINE
  8
_2-7_ビス
  6
CONTINUOUS
 62
    7
 10
1155.7194995502971
 20
1142.3195595874843
 11
1155.706301424942
 21
1142.2933002321076
  0
LINE
  8
_2-7_ビス
  6
CONTINUOUS
 62
    7
 10
1155.706301424942
 20
1142.2933002321076
 11
1155.6974513675707
 21
1142.2649201421386
  0
LINE
  8
_2-7_ビス
  6
CONTINUOUS
 62
    7
 10
1155.6974513675707
 20
1142.2649201421386
 11
1155.6932182826977
 21
1142.2352816322502
  0
LINE
  8
_2-7_ビス
  6
CONTINUOUS
 62
    7
 10
1155.6932182826977
 20
1142.2352816322502
 11
1155.6937307904648
 21
1142.2052852535674
  0
LINE
  8
_2-7_ビス
  6
CONTINUOUS
 62
    7
 10
1155.6937307904648
 20
1142.2052852535674
 11
1155.6989733185831
 21
1142.1758424308773
  0
LINE
  8
_2-7_ビス
  6
CONTINUOUS
 62
    7
 10
1155.6989733185831
 20
1142.1758424308773
 11
1155.7087865754881
 21
1142.1478477694491
  0
LINE
  8
_2-7_ビス
  6
CONTINUOUS
 62
    7
 10
1155.7087865754881
 20
1142.1478477694491
 11
1155.7228723903352
 21
1142.1221518729037
  0
LINE
  8
_2-7_ビス
  6
CONTINUOUS
 62
    7
 10
1155.7228723903352
 20
1142.1221518729037
 11
1155.7408027727672
 21
1142.0995354980555
  0
LINE
  8
_2-7_ビス
  6
CONTINUOUS
 62
    7
 10
1155.7408027727672
 20
1142.0995354980555
 11
1155.762032917188
 21
1142.0806858320093
  0
LINE
  8
_2-7_ビス
  6
CONTINUOUS
 62
    7
 10
1155.762032917188
 20
1142.0806858320093
 11
1155.7859177564017
 21
1142.0661756123297
  0
LINE
  8
_2-7_ビス
  6
CONTINUOUS
 62
    7
 10
1155.7859177564017
 20
1142.0661756123297
 11
1155.8117315616553
 21
1142.0564457246994
  0
LINE
  8
_2-7_ビス
  6
CONTINUOUS
 62
    7
 10
1155.8117315616553
 20
1142.0564457246994
 11
1155.8386899935385
 21
1142.0517918068301
  0
LINE
  8
_2-7_ビス
  6
CONTINUOUS
 62
    7
 10
1155.8386899935385
 20
1142.0517918068301
 11
1155.8386906952139
 21
1142.051791753918
  0
LINE
  8
_2-7_ビス
  6
CONTINUOUS
 62
    7
 10
1155.7703361954925
 20
1140.7324935091185
 11
1155.7703361954925
 21
1140.7324935091185
  0
LINE
  8
_2-7_ビス
  6
CONTINUOUS
 62
    7
 10
1155.7703361954925
 20
1140.7324935091185
 11
1155.7696650899054
 21
1140.6925353551301
  0
LINE
  8
_2-7_ビス
  6
CONTINUOUS
 62
    7
 10
1155.7696650899054
 20
1140.6925353551301
 11
1155.7753154084694
 21
1140.6530561335478
  0
LINE
  8
_2-7_ビス
  6
CONTINUOUS
 62
    7
 10
1155.7753154084694
 20
1140.6530561335478
 11
1155.7871154691143
 21
1140.6152554005421
  0
LINE
  8
_2-7_ビス
  6
CONTINUOUS
 62
    7
 10
1155.7871154691143
 20
1140.6152554005421
 11
1155.8047067329683
 21
1140.5802817122567
  0
LINE
  8
_2-7_ビス
  6
CONTINUOUS
 62
    7
 10
1155.8047067329683
 20
1140.5802817122567
 11
1155.8275546983807
 21
1140.5491977265133
  0
LINE
  8
_2-7_ビス
  6
CONTINUOUS
 62
    7
 10
1155.8275546983807
 20
1140.5491977265133
 11
1155.8549651414844
 21
1140.5229479144889
  0
LINE
  8
_2-7_ビス
  6
CONTINUOUS
 62
    7
 10
1155.8549651414844
 20
1140.5229479144889
 11
1155.8861052098359
 21
1140.5023298634392
  0
LINE
  8
_2-7_ビス
  6
CONTINUOUS
 62
    7
 10
1155.8861052098359
 20
1140.5023298634392
 11
1155.920028728216
 21
1140.4879700424121
  0
LINE
  8
_2-7_ビス
  6
CONTINUOUS
 62
    7
 10
1155.920028728216
 20
1140.4879700424121
 11
1155.9299259452132
 21
1140.4851250882184
  0
LINE
  8
_2-7_ビス
  6
CONTINUOUS
 62
    7
 10
1155.7703361954925
 20
1139.1658268434185
 11
1155.7703361954925
 21
1139.1658268434185
  0
LINE
  8
_2-7_ビス
  6
CONTINUOUS
 62
    7
 10
1155.7703361954925
 20
1139.1658268434185
 11
1155.7696650899054
 21
1139.12586868943
  0
LINE
  8
_2-7_ビス
  6
CONTINUOUS
 62
    7
 10
1155.7696650899054
 20
1139.12586868943
 11
1155.7753154084694
 21
1139.0863894678478
  0
LINE
  8
_2-7_ビス
  6
CONTINUOUS
 62
    7
 10
1155.7753154084694
 20
1139.0863894678478
 11
1155.7871154691143
 21
1139.048588734842
  0
LINE
  8
_2-7_ビス
  6
CONTINUOUS
 62
    7
 10
1155.7871154691143
 20
1139.048588734842
 11
1155.8047067329683
 21
1139.0136150465567
  0
LINE
  8
_2-7_ビス
  6
CONTINUOUS
 62
    7
 10
1155.8047067329683
 20
1139.0136150465567
 11
1155.8275546983807
 21
1138.9825310608132
  0
LINE
  8
_2-7_ビス
  6
CONTINUOUS
 62
    7
 10
1155.8275546983807
 20
1138.9825310608132
 11
1155.8549651414844
 21
1138.9562812487889
  0
LINE
  8
_2-7_ビス
  6
CONTINUOUS
 62
    7
 10
1155.8549651414844
 20
1138.9562812487889
 11
1155.8861052098359
 21
1138.9356631977391
  0
LINE
  8
_2-7_ビス
  6
CONTINUOUS
 62
    7
 10
1155.8861052098359
 20
1138.9356631977391
 11
1155.920028728216
 21
1138.9213033767121
  0
LINE
  8
_2-7_ビス
  6
CONTINUOUS
 62
    7
 10
1155.920028728216
 20
1138.9213033767121
 11
1155.9299259452132
 21
1138.9184584225184
  0
LINE
  8
_2-7_ビス
  6
CONTINUOUS
 62
    7
 10
1155.8273230548941
 20
1137.5991601777184
 11
1155.8273230548941
 21
1137.5991601777184
  0
LINE
  8
_2-7_ビス
  6
CONTINUOUS
 62
    7
 10
1155.8273230548941
 20
1137.5991601777184
 11
1155.826651949307
 21
1137.55920202373
  0
LINE
  8
_2-7_ビス
  6
CONTINUOUS
 62
    7
 10
1155.826651949307
 20
1137.55920202373
 11
1155.832302267871
 21
1137.5197228021477
  0
LINE
  8
_2-7_ビス
  6
CONTINUOUS
 62
    7
 10
1155.832302267871
 20
1137.5197228021477
 11
1155.8441023285159
 21
1137.481922069142
  0
LINE
  8
_2-7_ビス
  6
CONTINUOUS
 62
    7
 10
1155.8441023285159
 20
1137.481922069142
 11
1155.8616935923699
 21
1137.4469483808566
  0
LINE
  8
_2-7_ビス
  6
CONTINUOUS
 62
    7
 10
1155.8616935923699
 20
1137.4469483808566
 11
1155.8845415577823
 21
1137.4158643951132
  0
LINE
  8
_2-7_ビス
  6
CONTINUOUS
 62
    7
 10
1155.8845415577823
 20
1137.4158643951132
 11
1155.911952000886
 21
1137.3896145830888
  0
LINE
  8
_2-7_ビス
  6
CONTINUOUS
 62
    7
 10
1155.911952000886
 20
1137.3896145830888
 11
1155.9430920692375
 21
1137.3689965320391
  0
LINE
  8
_2-7_ビス
  6
CONTINUOUS
 62
    7
 10
1155.9430920692375
 20
1137.3689965320391
 11
1155.9770155876176
 21
1137.3546367110121
  0
LINE
  8
_2-7_ビス
  6
CONTINUOUS
 62
    7
 10
1155.9770155876176
 20
1137.3546367110121
 11
1155.9869128046148
 21
1137.3517917568183
  0
LINE
  8
_2-7_ビス
  6
CONTINUOUS
 62
    7
 10
1155.7703361954925
 20
1134.4658268463184
 11
1155.7703361954925
 21
1134.4658268463184
  0
LINE
  8
_2-7_ビス
  6
CONTINUOUS
 62
    7
 10
1155.7703361954925
 20
1134.4658268463184
 11
1155.7696650899054
 21
1134.4258686923299
  0
LINE
  8
_2-7_ビス
  6
CONTINUOUS
 62
    7
 10
1155.7696650899054
 20
1134.4258686923299
 11
1155.7753154084694
 21
1134.3863894707476
  0
LINE
  8
_2-7_ビス
  6
CONTINUOUS
 62
    7
 10
1155.7753154084694
 20
1134.3863894707476
 11
1155.7871154691143
 21
1134.3485887377419
  0
LINE
  8
_2-7_ビス
  6
CONTINUOUS
 62
    7
 10
1155.7871154691143
 20
1134.3485887377419
 11
1155.8047067329683
 21
1134.3136150494565
  0
LINE
  8
_2-7_ビス
  6
CONTINUOUS
 62
    7
 10
1155.8047067329683
 20
1134.3136150494565
 11
1155.8275546983807
 21
1134.2825310637131
  0
LINE
  8
_2-7_ビス
  6
CONTINUOUS
 62
    7
 10
1155.8275546983807
 20
1134.2825310637131
 11
1155.8549651414844
 21
1134.2562812516887
  0
LINE
  8
_2-7_ビス
  6
CONTINUOUS
 62
    7
 10
1155.8549651414844
 20
1134.2562812516887
 11
1155.8861052098359
 21
1134.235663200639
  0
LINE
  8
_2-7_ビス
  6
CONTINUOUS
 62
    7
 10
1155.8861052098359
 20
1134.235663200639
 11
1155.920028728216
 21
1134.221303379612
  0
LINE
  8
_2-7_ビス
  6
CONTINUOUS
 62
    7
 10
1155.920028728216
 20
1134.221303379612
 11
1155.9299259452132
 21
1134.2184584254182
  0
LINE
  8
_2-7_ビス
  6
CONTINUOUS
 62
    7
 10
1155.7703361954925
 20
1132.8991601806183
 11
1155.7703361954925
 21
1132.8991601806183
  0
LINE
  8
_2-7_ビス
  6
CONTINUOUS
 62
    7
 10
1155.7703361954925
 20
1132.8991601806183
 11
1155.7696650899054
 21
1132.8592020266299
  0
LINE
  8
_2-7_ビス
  6
CONTINUOUS
 62
    7
 10
1155.7696650899054
 20
1132.8592020266299
 11
1155.7753154084694
 21
1132.8197228050476
  0
LINE
  8
_2-7_ビス
  6
CONTINUOUS
 62
    7
 10
1155.7753154084694
 20
1132.8197228050476
 11
1155.7871154691143
 21
1132.7819220720419
  0
LINE
  8
_2-7_ビス
  6
CONTINUOUS
 62
    7
 10
1155.7871154691143
 20
1132.7819220720419
 11
1155.8047067329683
 21
1132.7469483837565
  0
LINE
  8
_2-7_ビス
  6
CONTINUOUS
 62
    7
 10
1155.8047067329683
 20
1132.7469483837565
 11
1155.8275546983807
 21
1132.7158643980131
  0
LINE
  8
_2-7_ビス
  6
CONTINUOUS
 62
    7
 10
1155.8275546983807
 20
1132.7158643980131
 11
1155.8549651414844
 21
1132.6896145859887
  0
LINE
  8
_2-7_ビス
  6
CONTINUOUS
 62
    7
 10
1155.8549651414844
 20
1132.6896145859887
 11
1155.8861052098359
 21
1132.668996534939
  0
LINE
  8
_2-7_ビス
  6
CONTINUOUS
 62
    7
 10
1155.8861052098359
 20
1132.668996534939
 11
1155.920028728216
 21
1132.6546367139119
  0
LINE
  8
_2-7_ビス
  6
CONTINUOUS
 62
    7
 10
1155.920028728216
 20
1132.6546367139119
 11
1155.9299259452132
 21
1132.6517917597182
  0
LINE
  8
_2-7_ビス
  6
CONTINUOUS
 62
    7
 10
1155.7703361954925
 20
1131.3324935149183
 11
1155.7703361954925
 21
1131.3324935149183
  0
LINE
  8
_2-7_ビス
  6
CONTINUOUS
 62
    7
 10
1155.7703361954925
 20
1131.3324935149183
 11
1155.7696650899054
 21
1131.2925353609298
  0
LINE
  8
_2-7_ビス
  6
CONTINUOUS
 62
    7
 10
1155.7696650899054
 20
1131.2925353609298
 11
1155.7753154084694
 21
1131.2530561393476
  0
LINE
  8
_2-7_ビス
  6
CONTINUOUS
 62
    7
 10
1155.7753154084694
 20
1131.2530561393476
 11
1155.7871154691143
 21
1131.2152554063418
  0
LINE
  8
_2-7_ビス
  6
CONTINUOUS
 62
    7
 10
1155.7871154691143
 20
1131.2152554063418
 11
1155.8047067329683
 21
1131.1802817180564
  0
LINE
  8
_2-7_ビス
  6
CONTINUOUS
 62
    7
 10
1155.8047067329683
 20
1131.1802817180564
 11
1155.8275546983807
 21
1131.149197732313
  0
LINE
  8
_2-7_ビス
  6
CONTINUOUS
 62
    7
 10
1155.8275546983807
 20
1131.149197732313
 11
1155.8549651414844
 21
1131.1229479202887
  0
LINE
  8
_2-7_ビス
  6
CONTINUOUS
 62
    7
 10
1155.8549651414844
 20
1131.1229479202887
 11
1155.8861052098359
 21
1131.1023298692389
  0
LINE
  8
_2-7_ビス
  6
CONTINUOUS
 62
    7
 10
1155.8861052098359
 20
1131.1023298692389
 11
1155.920028728216
 21
1131.0879700482119
  0
LINE
  8
_2-7_ビス
  6
CONTINUOUS
 62
    7
 10
1155.920028728216
 20
1131.0879700482119
 11
1155.9299259452132
 21
1131.0851250940182
  0
LINE
  8
_2-7_ビス
  6
CONTINUOUS
 62
    7
 10
1155.8276157670668
 20
1129.7658268492182
 11
1155.8276157670668
 21
1129.7658268492182
  0
LINE
  8
_2-7_ビス
  6
CONTINUOUS
 62
    7
 10
1155.8276157670668
 20
1129.7658268492182
 11
1155.8269446614797
 21
1129.7258686952298
  0
LINE
  8
_2-7_ビス
  6
CONTINUOUS
 62
    7
 10
1155.8269446614797
 20
1129.7258686952298
 11
1155.8325949800437
 21
1129.6863894736475
  0
LINE
  8
_2-7_ビス
  6
CONTINUOUS
 62
    7
 10
1155.8325949800437
 20
1129.6863894736475
 11
1155.8443950406886
 21
1129.6485887406418
  0
LINE
  8
_2-7_ビス
  6
CONTINUOUS
 62
    7
 10
1155.8443950406886
 20
1129.6485887406418
 11
1155.8619863045426
 21
1129.6136150523564
  0
LINE
  8
_2-7_ビス
  6
CONTINUOUS
 62
    7
 10
1155.8619863045426
 20
1129.6136150523564
 11
1155.884834269955
 21
1129.582531066613
  0
LINE
  8
_2-7_ビス
  6
CONTINUOUS
 62
    7
 10
1155.884834269955
 20
1129.582531066613
 11
1155.9122447130587
 21
1129.5562812545886
  0
LINE
  8
_2-7_ビス
  6
CONTINUOUS
 62
    7
 10
1155.9122447130587
 20
1129.5562812545886
 11
1155.9433847814103
 21
1129.5356632035389
  0
LINE
  8
_2-7_ビス
  6
CONTINUOUS
 62
    7
 10
1155.9433847814103
 20
1129.5356632035389
 11
1155.9773082997904
 21
1129.5213033825119
  0
LINE
  8
_2-7_ビス
  6
CONTINUOUS
 62
    7
 10
1155.9773082997904
 20
1129.5213033825119
 11
1155.9872055167875
 21
1129.5184584283181
  0
LINE
  8
_2-7_ビス
  6
CONTINUOUS
 62
    7
 10
1155.7703361954925
 20
1126.6324935178181
 11
1155.7703361954925
 21
1126.6324935178181
  0
LINE
  8
_2-7_ビス
  6
CONTINUOUS
 62
    7
 10
1155.7703361954925
 20
1126.6324935178181
 11
1155.7696650899054
 21
1126.5925353638297
  0
LINE
  8
_2-7_ビス
  6
CONTINUOUS
 62
    7
 10
1155.7696650899054
 20
1126.5925353638297
 11
1155.7753154084694
 21
1126.5530561422474
  0
LINE
  8
_2-7_ビス
  6
CONTINUOUS
 62
    7
 10
1155.7753154084694
 20
1126.5530561422474
 11
1155.7871154691143
 21
1126.5152554092417
  0
LINE
  8
_2-7_ビス
  6
CONTINUOUS
 62
    7
 10
1155.7871154691143
 20
1126.5152554092417
 11
1155.8047067329683
 21
1126.4802817209563
  0
LINE
  8
_2-7_ビス
  6
CONTINUOUS
 62
    7
 10
1155.8047067329683
 20
1126.4802817209563
 11
1155.8275546983807
 21
1126.4491977352129
  0
LINE
  8
_2-7_ビス
  6
CONTINUOUS
 62
    7
 10
1155.8275546983807
 20
1126.4491977352129
 11
1155.8549651414844
 21
1126.4229479231885
  0
LINE
  8
_2-7_ビス
  6
CONTINUOUS
 62
    7
 10
1155.8549651414844
 20
1126.4229479231885
 11
1155.8861052098359
 21
1126.4023298721388
  0
LINE
  8
_2-7_ビス
  6
CONTINUOUS
 62
    7
 10
1155.8861052098359
 20
1126.4023298721388
 11
1155.920028728216
 21
1126.3879700511118
  0
LINE
  8
_2-7_ビス
  6
CONTINUOUS
 62
    7
 10
1155.920028728216
 20
1126.3879700511118
 11
1155.9299259452132
 21
1126.385125096918
  0
LINE
  8
_2-7_ビス
  6
CONTINUOUS
 62
    7
 10
1155.8026162465871
 20
1125.0658268521181
 11
1155.8026162465871
 21
1125.0658268521181
  0
LINE
  8
_2-7_ビス
  6
CONTINUOUS
 62
    7
 10
1155.8026162465871
 20
1125.0658268521181
 11
1155.801945141
 21
1125.0258686981297
  0
LINE
  8
_2-7_ビス
  6
CONTINUOUS
 62
    7
 10
1155.801945141
 20
1125.0258686981297
 11
1155.807595459564
 21
1124.9863894765474
  0
LINE
  8
_2-7_ビス
  6
CONTINUOUS
 62
    7
 10
1155.807595459564
 20
1124.9863894765474
 11
1155.8193955202089
 21
1124.9485887435417
  0
LINE
  8
_2-7_ビス
  6
CONTINUOUS
 62
    7
 10
1155.8193955202089
 20
1124.9485887435417
 11
1155.8369867840629
 21
1124.9136150552563
  0
LINE
  8
_2-7_ビス
  6
CONTINUOUS
 62
    7
 10
1155.8369867840629
 20
1124.9136150552563
 11
1155.8598347494753
 21
1124.8825310695129
  0
LINE
  8
_2-7_ビス
  6
CONTINUOUS
 62
    7
 10
1155.8598347494753
 20
1124.8825310695129
 11
1155.887245192579
 21
1124.8562812574885
  0
LINE
  8
_2-7_ビス
  6
CONTINUOUS
 62
    7
 10
1155.887245192579
 20
1124.8562812574885
 11
1155.9183852609306
 21
1124.8356632064388
  0
LINE
  8
_2-7_ビス
  6
CONTINUOUS
 62
    7
 10
1155.9183852609306
 20
1124.8356632064388
 11
1155.9523087793107
 21
1124.8213033854117
  0
LINE
  8
_2-7_ビス
  6
CONTINUOUS
 62
    7
 10
1155.9523087793107
 20
1124.8213033854117
 11
1155.9622059963078
 21
1124.818458431218
  0
LINE
  8
_2-7_ビス
  6
CONTINUOUS
 62
    7
 10
1155.8347191993955
 20
1123.4991601864181
 11
1155.8347191993955
 21
1123.4991601864181
  0
LINE
  8
_2-7_ビス
  6
CONTINUOUS
 62
    7
 10
1155.8347191993955
 20
1123.4991601864181
 11
1155.8340480938084
 21
1123.4592020324296
  0
LINE
  8
_2-7_ビス
  6
CONTINUOUS
 62
    7
 10
1155.8340480938084
 20
1123.4592020324296
 11
1155.8396984123724
 21
1123.4197228108474
  0
LINE
  8
_2-7_ビス
  6
CONTINUOUS
 62
    7
 10
1155.8396984123724
 20
1123.4197228108474
 11
1155.8514984730173
 21
1123.3819220778416
  0
LINE
  8
_2-7_ビス
  6
CONTINUOUS
 62
    7
 10
1155.8514984730173
 20
1123.3819220778416
 11
1155.8690897368713
 21
1123.3469483895562
  0
LINE
  8
_2-7_ビス
  6
CONTINUOUS
 62
    7
 10
1155.8690897368713
 20
1123.3469483895562
 11
1155.8919377022837
 21
1123.3158644038128
  0
LINE
  8
_2-7_ビス
  6
CONTINUOUS
 62
    7
 10
1155.8919377022837
 20
1123.3158644038128
 11
1155.9193481453874
 21
1123.2896145917884
  0
LINE
  8
_2-7_ビス
  6
CONTINUOUS
 62
    7
 10
1155.9193481453874
 20
1123.2896145917884
 11
1155.9504882137389
 21
1123.2689965407387
  0
LINE
  8
_2-7_ビス
  6
CONTINUOUS
 62
    7
 10
1155.9504882137389
 20
1123.2689965407387
 11
1155.984411732119
 21
1123.2546367197117
  0
LINE
  8
_2-7_ビス
  6
CONTINUOUS
 62
    7
 10
1155.984411732119
 20
1123.2546367197117
 11
1155.9943089491162
 21
1123.251791765518
  0
LINE
  8
_2-7_ビス
  6
CONTINUOUS
 62
    7
 10
1155.8570341304251
 20
1121.9324935207192
 11
1155.8570341304251
 21
1121.9324935207192
  0
LINE
  8
_2-7_ビス
  6
CONTINUOUS
 62
    7
 10
1155.8570341304251
 20
1121.9324935207192
 11
1155.8563630248379
 21
1121.8925353667307
  0
LINE
  8
_2-7_ビス
  6
CONTINUOUS
 62
    7
 10
1155.8563630248379
 20
1121.8925353667307
 11
1155.8620133434019
 21
1121.8530561451485
  0
LINE
  8
_2-7_ビス
  6
CONTINUOUS
 62
    7
 10
1155.8620133434019
 20
1121.8530561451485
 11
1155.8738134040468
 21
1121.8152554121427
  0
LINE
  8
_2-7_ビス
  6
CONTINUOUS
 62
    7
 10
1155.8738134040468
 20
1121.8152554121427
 11
1155.8914046679008
 21
1121.7802817238573
  0
LINE
  8
_2-7_ビス
  6
CONTINUOUS
 62
    7
 10
1155.8914046679008
 20
1121.7802817238573
 11
1155.9142526333133
 21
1121.7491977381139
  0
LINE
  8
_2-7_ビス
  6
CONTINUOUS
 62
    7
 10
1155.9142526333133
 20
1121.7491977381139
 11
1155.9416630764169
 21
1121.7229479260895
  0
LINE
  8
_2-7_ビス
  6
CONTINUOUS
 62
    7
 10
1155.9416630764169
 20
1121.7229479260895
 11
1155.9728031447685
 21
1121.7023298750398
  0
LINE
  8
_2-7_ビス
  6
CONTINUOUS
 62
    7
 10
1155.9728031447685
 20
1121.7023298750398
 11
1156.0067266631486
 21
1121.6879700540128
  0
LINE
  8
_2-7_ビス
  6
CONTINUOUS
 62
    7
 10
1156.0067266631486
 20
1121.6879700540128
 11
1156.0166238801457
 21
1121.6851250998191
  0
LINE
  8
_2-7_ビス
  6
CONTINUOUS
 62
    7
 10
1155.8905367093596
 20
1120.3905551759883
 11
1155.8905367093596
 21
1120.3905551759883
  0
LINE
  8
_2-7_ビス
  6
CONTINUOUS
 62
    7
 10
1155.8905367093596
 20
1120.3905551759883
 11
1155.8768745576097
 21
1120.3642671740113
  0
LINE
  8
_2-7_ビス
  6
CONTINUOUS
 62
    7
 10
1155.8768745576097
 20
1120.3642671740113
 11
1155.8675720480612
 21
1120.3357702846977
  0
LINE
  8
_2-7_ビス
  6
CONTINUOUS
 62
    7
 10
1155.8675720480612
 20
1120.3357702846977
 11
1155.8629118327597
 21
1120.3059303716093
  0
LINE
  8
_2-7_ビス
  6
CONTINUOUS
 62
    7
 10
1155.8629118327597
 20
1120.3059303716093
 11
1155.8630355099888
 21
1120.2756541054057
  0
LINE
  8
_2-7_ビス
  6
CONTINUOUS
 62
    7
 10
1155.8630355099888
 20
1120.2756541054057
 11
1155.8679393218788
 21
1120.2458614151149
  0
LINE
  8
_2-7_ビス
  6
CONTINUOUS
 62
    7
 10
1155.8679393218788
 20
1120.2458614151149
 11
1155.8774742685864
 21
1120.2174575365555
  0
LINE
  8
_2-7_ビス
  6
CONTINUOUS
 62
    7
 10
1155.8774742685864
 20
1120.2174575365555
 11
1155.8913506355811
 21
1120.1913055072043
  0
LINE
  8
_2-7_ビス
  6
CONTINUOUS
 62
    7
 10
1155.8913506355811
 20
1120.1913055072043
 11
1155.9091467964736
 21
1120.1681999432401
  0
LINE
  8
_2-7_ビス
  6
CONTINUOUS
 62
    7
 10
1155.9091467964736
 20
1120.1681999432401
 11
1155.9303220239201
 21
1120.1488428955315
  0
LINE
  8
_2-7_ビス
  6
CONTINUOUS
 62
    7
 10
1155.9303220239201
 20
1120.1488428955315
 11
1155.9542329193503
 21
1120.1338225181782
  0
LINE
  8
_2-7_ビス
  6
CONTINUOUS
 62
    7
 10
1155.9542329193503
 20
1120.1338225181782
 11
1155.9801529623057
 21
1120.1235951977453
  0
LINE
  8
_2-7_ビス
  6
CONTINUOUS
 62
    7
 10
1155.9801529623057
 20
1120.1235951977453
 11
1156.0072945853976
 21
1120.118471686189
  0
LINE
  8
_2-7_ビス
  6
CONTINUOUS
 62
    7
 10
1156.0072945853976
 20
1120.118471686189
 11
1156.0074406952137
 21
1120.1184584341188
  0
LINE
  8
_2-7_ビス
  6
CONTINUOUS
 62
    7
 10
1156.3105494452145
 20
1129.0237215865186
 11
1156.3105494452145
 21
1129.0237215865186
  0
LINE
  8
_2-7_ビス
  6
CONTINUOUS
 62
    7
 10
1156.3105494452145
 20
1129.0237215865186
 11
1156.2262236144209
 21
1129.0114616298708
  0
LINE
  8
_2-7_ビス
  6
CONTINUOUS
 62
    7
 10
1156.2262236144209
 20
1129.0114616298708
 11
1156.1451152929626
 21
1128.9832891631638
  0
LINE
  8
_2-7_ビス
  6
CONTINUOUS
 62
    7
 10
1156.1451152929626
 20
1128.9832891631638
 11
1156.0696889161445
 21
1128.9400601925422
  0
LINE
  8
_2-7_ビス
  6
CONTINUOUS
 62
    7
 10
1156.0696889161445
 20
1128.9400601925422
 11
1156.0022362762586
 21
1128.8830882084037
  0
LINE
  8
_2-7_ビス
  6
CONTINUOUS
 62
    7
 10
1156.0022362762586
 20
1128.8830882084037
 11
1155.9448068876352
 21
1128.814104275657
  0
LINE
  8
_2-7_ビス
  6
CONTINUOUS
 62
    7
 10
1155.9448068876352
 20
1128.814104275657
 11
1155.8991457131867
 21
1128.735204436191
  0
LINE
  8
_2-7_ビス
  6
CONTINUOUS
 62
    7
 10
1155.8991457131867
 20
1128.735204436191
 11
1155.8666401445935
 21
1128.6487860217028
  0
LINE
  8
_2-7_ビス
  6
CONTINUOUS
 62
    7
 10
1155.8666401445935
 20
1128.6487860217028
 11
1155.8482778471084
 21
1128.5574748119868
  0
LINE
  8
_2-7_ビス
  6
CONTINUOUS
 62
    7
 10
1155.8482778471084
 20
1128.5574748119868
 11
1155.8446167498489
 21
1128.4640452519443
  0
LINE
  8
_2-7_ビス
  6
CONTINUOUS
 62
    7
 10
1155.8446167498489
 20
1128.4640452519443
 11
1155.8557680934023
 21
1128.3713361514797
  0
LINE
  8
_2-7_ビス
  6
CONTINUOUS
 62
    7
 10
1155.8557680934023
 20
1128.3713361514797
 11
1155.8813930498379
 21
1128.2821644296976
  0
LINE
  8
_2-7_ビス
  6
CONTINUOUS
 62
    7
 10
1155.8813930498379
 20
1128.2821644296976
 11
1155.9207130178211
 21
1128.1992395242412
  0
LINE
  8
_2-7_ビス
  6
CONTINUOUS
 62
    7
 10
1155.9207130178211
 20
1128.1992395242412
 11
1155.9725332800217
 21
1128.1250810664005
  0
LINE
  8
_2-7_ビス
  6
CONTINUOUS
 62
    7
 10
1155.9725332800217
 20
1128.1250810664005
 11
1156.0352793039949
 21
1128.0619423233916
  0
LINE
  8
_2-7_ビス
  6
CONTINUOUS
 62
    7
 10
1156.0352793039949
 20
1128.0619423233916
 11
1156.1070445835533
 21
1128.0117417339707
  0
LINE
  8
_2-7_ビス
  6
CONTINUOUS
 62
    7
 10
1156.1070445835533
 20
1128.0117417339707
 11
1156.1856485669928
 21
1127.9760046176445
  0
LINE
  8
_2-7_ビス
  6
CONTINUOUS
 62
    7
 10
1156.1856485669928
 20
1127.9760046176445
 11
1156.2687029120516
 21
1127.9558168286092
  0
LINE
  8
_2-7_ビス
  6
CONTINUOUS
 62
    7
 10
1156.2687029120516
 20
1127.9558168286092
 11
1156.3105494452145
 21
1127.9517917626185
  0
LINE
  8
_2-7_ビス
  6
CONTINUOUS
 62
    7
 10
1156.3105494452145
 20
1136.8570549150188
 11
1156.3105494452145
 21
1136.8570549150188
  0
LINE
  8
_2-7_ビス
  6
CONTINUOUS
 62
    7
 10
1156.3105494452145
 20
1136.8570549150188
 11
1156.2262236144209
 21
1136.844794958371
  0
LINE
  8
_2-7_ビス
  6
CONTINUOUS
 62
    7
 10
1156.2262236144209
 20
1136.844794958371
 11
1156.1451152929626
 21
1136.816622491664
  0
LINE
  8
_2-7_ビス
  6
CONTINUOUS
 62
    7
 10
1156.1451152929626
 20
1136.816622491664
 11
1156.0696889161445
 21
1136.7733935210424
  0
LINE
  8
_2-7_ビス
  6
CONTINUOUS
 62
    7
 10
1156.0696889161445
 20
1136.7733935210424
 11
1156.0022362762586
 21
1136.7164215369039
  0
LINE
  8
_2-7_ビス
  6
CONTINUOUS
 62
    7
 10
1156.0022362762586
 20
1136.7164215369039
 11
1155.9448068876352
 21
1136.6474376041572
  0
LINE
  8
_2-7_ビス
  6
CONTINUOUS
 62
    7
 10
1155.9448068876352
 20
1136.6474376041572
 11
1155.8991457131867
 21
1136.5685377646912
  0
LINE
  8
_2-7_ビス
  6
CONTINUOUS
 62
    7
 10
1155.8991457131867
 20
1136.5685377646912
 11
1155.8666401445935
 21
1136.482119350203
  0
LINE
  8
_2-7_ビス
  6
CONTINUOUS
 62
    7
 10
1155.8666401445935
 20
1136.482119350203
 11
1155.8482778471084
 21
1136.390808140487
  0
LINE
  8
_2-7_ビス
  6
CONTINUOUS
 62
    7
 10
1155.8482778471084
 20
1136.390808140487
 11
1155.8446167498489
 21
1136.2973785804445
  0
LINE
  8
_2-7_ビス
  6
CONTINUOUS
 62
    7
 10
1155.8446167498489
 20
1136.2973785804445
 11
1155.8557680934023
 21
1136.2046694799799
  0
LINE
  8
_2-7_ビス
  6
CONTINUOUS
 62
    7
 10
1155.8557680934023
 20
1136.2046694799799
 11
1155.8813930498379
 21
1136.1154977581978
  0
LINE
  8
_2-7_ビス
  6
CONTINUOUS
 62
    7
 10
1155.8813930498379
 20
1136.1154977581978
 11
1155.9207130178211
 21
1136.0325728527414
  0
LINE
  8
_2-7_ビス
  6
CONTINUOUS
 62
    7
 10
1155.9207130178211
 20
1136.0325728527414
 11
1155.9725332800217
 21
1135.9584143949007
  0
LINE
  8
_2-7_ビス
  6
CONTINUOUS
 62
    7
 10
1155.9725332800217
 20
1135.9584143949007
 11
1156.0352793039949
 21
1135.8952756518918
  0
LINE
  8
_2-7_ビス
  6
CONTINUOUS
 62
    7
 10
1156.0352793039949
 20
1135.8952756518918
 11
1156.1070445835533
 21
1135.8450750624709
  0
LINE
  8
_2-7_ビス
  6
CONTINUOUS
 62
    7
 10
1156.1070445835533
 20
1135.8450750624709
 11
1156.1856485669928
 21
1135.8093379461448
  0
LINE
  8
_2-7_ビス
  6
CONTINUOUS
 62
    7
 10
1156.1856485669928
 20
1135.8093379461448
 11
1156.2687029120516
 21
1135.7891501571094
  0
LINE
  8
_2-7_ビス
  6
CONTINUOUS
 62
    7
 10
1156.2687029120516
 20
1135.7891501571094
 11
1156.3105494452145
 21
1135.7851250911187
  0
LINE
  8
_2-7_ビス
  6
CONTINUOUS
 62
    7
 10
1155.9853326344121
 20
1117.7272303654181
 11
1155.9853326344121
 21
1117.7272303654181
  0
LINE
  8
_2-7_ビス
  6
CONTINUOUS
 62
    7
 10
1155.9853326344121
 20
1117.7272303654181
 11
1155.9491474205101
 21
1117.5936460386511
  0
LINE
  8
_2-7_ビス
  6
CONTINUOUS
 62
    7
 10
1155.9491474205101
 20
1117.5936460386511
 11
1155.934611044569
 21
1117.4551829864356
  0
LINE
  8
_2-7_ビス
  6
CONTINUOUS
 62
    7
 10
1155.934611044569
 20
1117.4551829864356
 11
1155.9350573013239
 21
1117.3974058042181
  0
LINE
  8
_2-7_ビス
  6
CONTINUOUS
 62
    7
 10
1155.4275151952143
 20
1115.4184584370187
 11
1155.4275151952143
 21
1115.4184584370187
  0
LINE
  8
_2-7_ビス
  6
CONTINUOUS
 62
    7
 10
1155.4275151952143
 20
1115.4184584370187
 11
1155.4214744176713
 21
1115.4739890121964
  0
LINE
  8
_2-7_ビス
  6
CONTINUOUS
 62
    7
 10
1155.4214744176713
 20
1115.4739890121964
 11
1155.4067545837217
 21
1115.5275226995809
  0
LINE
  8
_2-7_ビス
  6
CONTINUOUS
 62
    7
 10
1155.4067545837217
 20
1115.5275226995809
 11
1155.3838029480712
 21
1115.5774329051703
  0
LINE
  8
_2-7_ビス
  6
CONTINUOUS
 62
    7
 10
1155.3838029480712
 20
1115.5774329051703
 11
1155.3533168845549
 21
1115.6222031326238
  0
LINE
  8
_2-7_ビス
  6
CONTINUOUS
 62
    7
 10
1155.3533168845549
 20
1115.6222031326238
 11
1155.3162226967863
 21
1115.6604730612346
  0
LINE
  8
_2-7_ビス
  6
CONTINUOUS
 62
    7
 10
1155.3162226967863
 20
1115.6604730612346
 11
1155.2736474728902
 21
1115.6910798785877
  0
LINE
  8
_2-7_ビス
  6
CONTINUOUS
 62
    7
 10
1155.2736474728902
 20
1115.6910798785877
 11
1155.2268848395001
 21
1115.7130936120257
  0
LINE
  8
_2-7_ビス
  6
CONTINUOUS
 62
    7
 10
1155.2268848395001
 20
1115.7130936120257
 11
1155.177355655569
 21
1115.7258453853974
  0
LINE
  8
_2-7_ビス
  6
CONTINUOUS
 62
    7
 10
1155.177355655569
 20
1115.7258453853974
 11
1155.1265648402875
 21
1115.7289477425215
  0
LINE
  8
_2-7_ビス
  6
CONTINUOUS
 62
    7
 10
1155.1265648402875
 20
1115.7289477425215
 11
1155.0760556468767
 21
1115.722306419847
  0
LINE
  8
_2-7_ビス
  6
CONTINUOUS
 62
    7
 10
1155.0760556468767
 20
1115.722306419847
 11
1155.0273627716192
 21
1115.7061232106023
  0
LINE
  8
_2-7_ビス
  6
CONTINUOUS
 62
    7
 10
1155.0273627716192
 20
1115.7061232106023
 11
1154.9819657228902
 21
1115.6808898334116
  0
LINE
  8
_2-7_ビス
  6
CONTINUOUS
 62
    7
 10
1154.9819657228902
 20
1115.6808898334116
 11
1154.9412438670431
 21
1115.6473729916718
  0
LINE
  8
_2-7_ビス
  6
CONTINUOUS
 62
    7
 10
1154.9412438670431
 20
1115.6473729916718
 11
1154.9064345170616
 21
1115.6065910776588
  0
LINE
  8
_2-7_ビス
  6
CONTINUOUS
 62
    7
 10
1154.9064345170616
 20
1115.6065910776588
 11
1154.8785953374306
 21
1115.5597832291935
  0
LINE
  8
_2-7_ビス
  6
CONTINUOUS
 62
    7
 10
1154.8785953374306
 20
1115.5597832291935
 11
1154.8585722075359
 21
1115.5083716790655
  0
LINE
  8
_2-7_ビス
  6
CONTINUOUS
 62
    7
 10
1154.8585722075359
 20
1115.5083716790655
 11
1154.8469735200472
 21
1115.45391854121
  0
LINE
  8
_2-7_ビス
  6
CONTINUOUS
 62
    7
 10
1154.8469735200472
 20
1115.45391854121
 11
1154.8441516952144
 21
1115.3980783466659
  0
LINE
  8
_2-7_ビス
  6
CONTINUOUS
 62
    7
 10
1154.8441516952144
 20
1115.3980783466659
 11
1154.8441516952144
 21
1115.3980783466659
  0
LINE
  8
_2-7_ビス
  6
CONTINUOUS
 62
    7
 10
1150.1417994452131
 20
1152.3861311335068
 11
1150.1417994452131
 21
1156.481616306419
  0
LINE
  8
_2-7_ビス
  6
CONTINUOUS
 62
    7
 10
1150.1417994452131
 20
1156.481616306419
 11
1153.1417994452138
 21
1156.481616306419
  0
LINE
  8
_2-7_ビス
  6
CONTINUOUS
 62
    7
 10
1150.1417994452131
 20
1152.3861311335068
 11
1149.3917994452138
 21
1151.561570213303
  0
LINE
  8
_2-7_ビス
  6
CONTINUOUS
 62
    7
 10
1149.3917994452138
 20
1151.561570213303
 11
1149.3917994452138
 21
1149.4629644861882
  0
LINE
  8
_2-7_ビス
  6
CONTINUOUS
 62
    7
 10
1149.3917994452138
 20
1149.4629644861882
 11
1149.9400186952143
 21
1145.3453711729392
  0
LINE
  8
_2-7_ビス
  6
CONTINUOUS
 62
    7
 10
1149.9400186952143
 20
1145.3453711729392
 11
1150.1819424452142
 21
1144.9377566644184
  0
LINE
  8
_2-7_ビス
  6
CONTINUOUS
 62
    7
 10
1150.1819424452142
 20
1144.9377566644184
 11
1150.1417994452131
 21
1144.9377566644184
  0
LINE
  8
_2-7_ビス
  6
CONTINUOUS
 62
    7
 10
1150.1417994452131
 20
1144.9377566644184
 11
1150.1417994452131
 21
1143.1237215778187
  0
LINE
  8
_2-7_ビス
  6
CONTINUOUS
 62
    7
 10
1150.1417994452131
 20
1143.1237215778187
 11
1150.574812005781
 21
1142.2991601748188
  0
LINE
  8
_2-7_ビス
  6
CONTINUOUS
 62
    7
 10
1150.4449081952137
 20
1142.051791753918
 11
1149.4667994452143
 21
1142.051791753918
  0
LINE
  8
_2-7_ビス
  6
CONTINUOUS
 62
    7
 10
1149.4667994452143
 20
1142.051791753918
 11
1149.4667994452143
 21
1137.818401160039
  0
LINE
  8
_2-7_ビス
  6
CONTINUOUS
 62
    7
 10
1149.4667994452143
 20
1137.818401160039
 11
1149.9682689452143
 21
1136.8570549150186
  0
LINE
  8
_2-7_ビス
  6
CONTINUOUS
 62
    7
 10
1149.9682689452143
 20
1136.8570549150186
 11
1149.973049445214
 21
1136.8570549150186
  0
LINE
  8
_2-7_ビス
  6
CONTINUOUS
 62
    7
 10
1149.9730536184986
 20
1136.8570552688007
 11
1149.973049445214
 21
1136.8570549150186
  0
LINE
  8
_2-7_ビス
  6
CONTINUOUS
 62
    7
 10
1149.9730536184986
 20
1136.8570552688007
 11
1149.973049445214
 21
1136.8570549150186
  0
LINE
  8
_2-7_ビス
  6
CONTINUOUS
 62
    7
 10
1150.005640695214
 20
1135.785125091119
 11
1149.4667994452143
 21
1135.785125091119
  0
LINE
  8
_2-7_ビス
  6
CONTINUOUS
 62
    7
 10
1149.4667994452143
 20
1135.785125091119
 11
1149.4667994452143
 21
1129.9878919543451
  0
LINE
  8
_2-7_ビス
  6
CONTINUOUS
 62
    7
 10
1149.4667994452143
 20
1129.9878919543451
 11
1149.9730466322753
 21
1129.0237405845803
  0
LINE
  8
_2-7_ビス
  6
CONTINUOUS
 62
    7
 10
1149.973049445214
 20
1129.0237215865184
 11
1149.9766410755697
 21
1129.5011729837588
  0
LINE
  8
_2-7_ビス
  6
CONTINUOUS
 62
    7
 10
1149.9766410755697
 20
1129.5011729837588
 11
1150.2973210831933
 21
1129.5184584283188
  0
LINE
  8
_2-7_ビス
  6
CONTINUOUS
 62
    7
 10
1150.4559831233612
 20
1129.7658268492185
 11
1150.005640695214
 21
1130.5903882522184
  0
LINE
  8
_2-7_ビス
  6
CONTINUOUS
 62
    7
 10
1150.005640695214
 20
1130.5903882522184
 11
1150.0056405430907
 21
1131.0678397212134
  0
LINE
  8
_2-7_ビス
  6
CONTINUOUS
 62
    7
 10
1150.0056405430907
 20
1131.0678397212134
 11
1150.3536729452142
 21
1131.0851250940188
  0
LINE
  8
_2-7_ビス
  6
CONTINUOUS
 62
    7
 10
1150.5132626949344
 20
1131.3324935149185
 11
1150.005640695214
 21
1132.1570549179185
  0
LINE
  8
_2-7_ビス
  6
CONTINUOUS
 62
    7
 10
1150.005640695214
 20
1132.1570549179185
 11
1150.005640695214
 21
1132.6345064790271
  0
LINE
  8
_2-7_ビス
  6
CONTINUOUS
 62
    7
 10
1150.005640695214
 20
1132.6345064790271
 11
1150.3536729452142
 21
1132.6517917597189
  0
LINE
  8
_2-7_ビス
  6
CONTINUOUS
 62
    7
 10
1150.5132626949344
 20
1132.8991601806185
 11
1150.005640695214
 21
1133.7237215836185
  0
LINE
  8
_2-7_ビス
  6
CONTINUOUS
 62
    7
 10
1150.005640695214
 20
1133.7237215836185
 11
1150.005640695214
 21
1134.2011731447271
  0
LINE
  8
_2-7_ビス
  6
CONTINUOUS
 62
    7
 10
1150.005640695214
 20
1134.2011731447271
 11
1150.3536729452142
 21
1134.2184584254189
  0
LINE
  8
_2-7_ビス
  6
CONTINUOUS
 62
    7
 10
1150.5132626949344
 20
1134.4658268463186
 11
1150.0056405430907
 21
1135.2903882493185
  0
LINE
  8
_2-7_ビス
  6
CONTINUOUS
 62
    7
 10
1150.0056405430907
 20
1135.2903882493185
 11
1150.005640695214
 21
1135.785125091119
  0
LINE
  8
_2-7_ビス
  6
CONTINUOUS
 62
    7
 10
1149.9730536184986
 20
1136.8570552688007
 11
1149.976738819744
 21
1137.3345067377945
  0
LINE
  8
_2-7_ビス
  6
CONTINUOUS
 62
    7
 10
1149.976738819744
 20
1137.3345067377945
 11
1150.2941836952132
 21
1137.351791756819
  0
LINE
  8
_2-7_ビス
  6
CONTINUOUS
 62
    7
 10
1150.4562758355351
 20
1137.5991601777187
 11
1150.0056405430907
 21
1138.4237215807186
  0
LINE
  8
_2-7_ビス
  6
CONTINUOUS
 62
    7
 10
1150.0056405430907
 20
1138.4237215807186
 11
1150.0056405430907
 21
1138.9011730497125
  0
LINE
  8
_2-7_ビス
  6
CONTINUOUS
 62
    7
 10
1150.0056405430907
 20
1138.9011730497125
 11
1150.3536729452142
 21
1138.9184584225191
  0
LINE
  8
_2-7_ビス
  6
CONTINUOUS
 62
    7
 10
1150.5132626949344
 20
1139.1658268434187
 11
1150.005640695214
 21
1139.9903882464187
  0
LINE
  8
_2-7_ビス
  6
CONTINUOUS
 62
    7
 10
1150.005640695214
 20
1139.9903882464187
 11
1150.0056405430907
 21
1140.4678397154125
  0
LINE
  8
_2-7_ビス
  6
CONTINUOUS
 62
    7
 10
1150.0056405430907
 20
1140.4678397154125
 11
1150.3545590377021
 21
1140.4853566693785
  0
LINE
  8
_2-7_ビス
  6
CONTINUOUS
 62
    7
 10
1150.5132626949344
 20
1140.7324935091187
 11
1150.0056405430907
 21
1141.5570549121187
  0
LINE
  8
_2-7_ビス
  6
CONTINUOUS
 62
    7
 10
1150.0056405430907
 20
1141.5570549121187
 11
1150.005640700721
 21
1142.051791753918
  0
LINE
  8
_2-7_ビス
  6
CONTINUOUS
 62
    7
 10
1150.005640695214
 20
1127.9517917626188
 11
1149.4667994452143
 21
1127.9517917626188
  0
LINE
  8
_2-7_ビス
  6
CONTINUOUS
 62
    7
 10
1149.4667994452143
 20
1127.9517917626188
 11
1149.4667994452143
 21
1124.7035500277811
  0
LINE
  8
_2-7_ビス
  6
CONTINUOUS
 62
    7
 10
1149.4667994452143
 20
1124.7035500277811
 11
1149.9725851952135
 21
1121.1903882580182
  0
LINE
  8
_2-7_ビス
  6
CONTINUOUS
 62
    7
 10
1149.9725851952135
 20
1121.1903882580182
 11
1149.9733197128776
 21
1121.6678393421594
  0
LINE
  8
_2-7_ビス
  6
CONTINUOUS
 62
    7
 10
1149.9733197128776
 20
1121.6678393421594
 11
1150.2820081952145
 21
1121.6851250998186
  0
LINE
  8
_2-7_ビス
  6
CONTINUOUS
 62
    7
 10
1149.9725851952135
 20
1121.1903882580182
 11
1150.4060620057808
 21
1120.3658268550182
  0
LINE
  8
_2-7_ビス
  6
CONTINUOUS
 62
    7
 10
1150.4265647600018
 20
1121.9324935207183
 11
1149.9759624265416
 21
1122.7570549237182
  0
LINE
  8
_2-7_ビス
  6
CONTINUOUS
 62
    7
 10
1149.9759624265416
 20
1122.7570549237182
 11
1149.9780473308035
 21
1123.2345060078583
  0
LINE
  8
_2-7_ビス
  6
CONTINUOUS
 62
    7
 10
1149.9780473308035
 20
1123.2345060078583
 11
1150.3003741952139
 21
1123.2517917655186
  0
LINE
  8
_2-7_ビス
  6
CONTINUOUS
 62
    7
 10
1150.4488796910325
 20
1123.4991601864183
 11
1149.9850118317081
 21
1124.3237212045644
  0
LINE
  8
_2-7_ビス
  6
CONTINUOUS
 62
    7
 10
1149.9850118317081
 20
1124.3237212045644
 11
1149.9890746724045
 21
1124.8011726735594
  0
LINE
  8
_2-7_ビス
  6
CONTINUOUS
 62
    7
 10
1149.9890746724045
 20
1124.8011726735594
 11
1150.3237280276735
 21
1124.8184584312187
  0
LINE
  8
_2-7_ビス
  6
CONTINUOUS
 62
    7
 10
1150.4809826438409
 20
1125.0658268521183
 11
1150.0007800196354
 21
1125.8903878702645
  0
LINE
  8
_2-7_ビス
  6
CONTINUOUS
 62
    7
 10
1150.0007800196354
 20
1125.8903878702645
 11
1150.005640695214
 21
1126.3678398162269
  0
LINE
  8
_2-7_ビス
  6
CONTINUOUS
 62
    7
 10
1150.005640695214
 20
1126.3678398162269
 11
1150.3536729452142
 21
1126.3851250969187
  0
LINE
  8
_2-7_ビス
  6
CONTINUOUS
 62
    7
 10
1150.5132626949344
 20
1126.6324935178184
 11
1150.0056405430907
 21
1127.4570549208183
  0
LINE
  8
_2-7_ビス
  6
CONTINUOUS
 62
    7
 10
1150.0056405430907
 20
1127.4570549208183
 11
1150.005640695214
 21
1127.9517917626188
  0
LINE
  8
_2-7_ビス
  6
CONTINUOUS
 62
    7
 10
1150.2761581952145
 20
1120.1184584341186
 11
1150.1417994452131
 21
1120.1184584341186
  0
LINE
  8
_2-7_ビス
  6
CONTINUOUS
 62
    7
 10
1150.1417994452131
 20
1120.1184584341186
 11
1150.1417994452131
 21
1119.335125101268
  0
LINE
  8
_2-7_ビス
  6
CONTINUOUS
 62
    7
 10
1150.1417994452131
 20
1119.335125101268
 11
1150.2917994452141
 21
1119.335125101268
  0
LINE
  8
_2-7_ビス
  6
CONTINUOUS
 62
    7
 10
1150.2917994452141
 20
1119.335125101268
 11
1150.2917994452141
 21
1117.7272303654186
  0
LINE
  8
_2-7_ビス
  6
CONTINUOUS
 62
    7
 10
1150.2917994452141
 20
1117.7272303654186
 11
1150.2982662560148
 21
1117.7272303654186
  0
LINE
  8
_2-7_ビス
  6
CONTINUOUS
 62
    7
 10
1150.3485414452134
 20
1117.397405804219
 11
1150.3485415917523
 21
1111.4469642113991
  0
LINE
  8
_2-7_ビス
  6
CONTINUOUS
 62
    7
 10
1150.3485415917523
 20
1111.4469642113991
 11
1150.7889789452136
 21
1110.7955433872396
  0
LINE
  8
_2-7_ビス
  6
CONTINUOUS
 62
    7
 10
1150.7889789452136
 20
1110.7955433872396
 11
1151.7917994452139
 21
1109.4816163354189
  0
LINE
  8
_2-7_ビス
  6
CONTINUOUS
 62
    7
 10
1151.7917994452139
 20
1109.4816163354189
 11
1151.9411779247084
 21
1109.4816163354189
  0
LINE
  8
_2-7_ビス
  6
CONTINUOUS
 62
    7
 10
1151.9411779247084
 20
1109.4816163354189
 11
1150.856083815394
 21
1111.4469642113991
  0
LINE
  8
_2-7_ビス
  6
CONTINUOUS
 62
    7
 10
1150.856083815394
 20
1111.4469642113991
 11
1150.8560836952133
 21
1115.4184584370184
  0
LINE
  8
_2-7_ビス
  6
CONTINUOUS
 62
    7
 10
1151.4394471952132
 20
1115.4184584370184
 11
1151.4394469217816
 21
1111.4469643640975
  0
LINE
  8
_2-7_ビス
  6
CONTINUOUS
 62
    7
 10
1151.4394469217816
 20
1111.4469643640975
 11
1152.5245412870154
 21
1109.4816163354189
  0
LINE
  8
_2-7_ビス
  6
CONTINUOUS
 62
    7
 10
1152.5245412870154
 20
1109.4816163354189
 11
1153.1417994452138
 21
1109.4816163354189
  0
LINE
  8
_2-7_ビス
  6
CONTINUOUS
 62
    7
 10
1150.4449081952137
 20
1142.051791753918
 11
1150.4449081952137
 21
1142.051791753918
  0
LINE
  8
_2-7_ビス
  6
CONTINUOUS
 62
    7
 10
1150.4449081952137
 20
1142.051791753918
 11
1150.4718666461142
 21
1142.0564455386332
  0
LINE
  8
_2-7_ビス
  6
CONTINUOUS
 62
    7
 10
1150.4718666461142
 20
1142.0564455386332
 11
1150.4976804911273
 21
1142.0661752987633
  0
LINE
  8
_2-7_ビス
  6
CONTINUOUS
 62
    7
 10
1150.4976804911273
 20
1142.0661752987633
 11
1150.5215653896346
 21
1142.0806854004697
  0
LINE
  8
_2-7_ビス
  6
CONTINUOUS
 62
    7
 10
1150.5215653896346
 20
1142.0806854004697
 11
1150.5427956110814
 21
1142.0995349616551
  0
LINE
  8
_2-7_ビス
  6
CONTINUOUS
 62
    7
 10
1150.5427956110814
 20
1142.0995349616551
 11
1150.5607260859319
 21
1142.1221512479408
  0
LINE
  8
_2-7_ビス
  6
CONTINUOUS
 62
    7
 10
1150.5607260859319
 20
1142.1221512479408
 11
1150.5748120057813
 21
1142.1478470749125
  0
LINE
  8
_2-7_ビス
  6
CONTINUOUS
 62
    7
 10
1150.5748120057813
 20
1142.1478470749125
 11
1150.5846253770826
 21
1142.1758416878708
  0
LINE
  8
_2-7_ビス
  6
CONTINUOUS
 62
    7
 10
1150.5846253770826
 20
1142.1758416878708
 11
1150.5898680255145
 21
1142.2052844846664
  0
LINE
  8
_2-7_ビス
  6
CONTINUOUS
 62
    7
 10
1150.5898680255145
 20
1142.2052844846664
 11
1150.5903806558574
 21
1142.2352808608175
  0
LINE
  8
_2-7_ビス
  6
CONTINUOUS
 62
    7
 10
1150.5903806558574
 20
1142.2352808608175
 11
1150.5861476920979
 21
1142.2649193916138
  0
LINE
  8
_2-7_ビス
  6
CONTINUOUS
 62
    7
 10
1150.5861476920979
 20
1142.2649193916138
 11
1150.5772977506977
 21
1142.293299525295
  0
LINE
  8
_2-7_ビス
  6
CONTINUOUS
 62
    7
 10
1150.5772977506977
 20
1142.293299525295
 11
1150.5640997326479
 21
1142.3195589458599
  0
LINE
  8
_2-7_ビス
  6
CONTINUOUS
 62
    7
 10
1150.5640997326479
 20
1142.3195589458599
 11
1150.5640993401305
 21
1142.3195595874843
  0
LINE
  8
_2-7_ビス
  6
CONTINUOUS
 62
    7
 10
1150.3536729452144
 20
1140.4851250882184
 11
1150.3536729452144
 21
1140.4851250882184
  0
LINE
  8
_2-7_ビス
  6
CONTINUOUS
 62
    7
 10
1150.3536729452144
 20
1140.4851250882184
 11
1150.3881961735494
 21
1140.4976386384776
  0
LINE
  8
_2-7_ビス
  6
CONTINUOUS
 62
    7
 10
1150.3881961735494
 20
1140.4976386384776
 11
1150.4202184519024
 21
1140.5165529592557
  0
LINE
  8
_2-7_ビス
  6
CONTINUOUS
 62
    7
 10
1150.4202184519024
 20
1140.5165529592557
 11
1150.44876679955
 21
1140.541293348487
  0
LINE
  8
_2-7_ビス
  6
CONTINUOUS
 62
    7
 10
1150.44876679955
 20
1140.541293348487
 11
1150.4729737893949
 21
1140.5711080819642
  0
LINE
  8
_2-7_ビス
  6
CONTINUOUS
 62
    7
 10
1150.4729737893949
 20
1140.5711080819642
 11
1150.4921039042999
 21
1140.6050912540975
  0
LINE
  8
_2-7_ビス
  6
CONTINUOUS
 62
    7
 10
1150.4921039042999
 20
1140.6050912540975
 11
1150.5055758854041
 21
1140.6422103033979
  0
LINE
  8
_2-7_ビス
  6
CONTINUOUS
 62
    7
 10
1150.5055758854041
 20
1140.6422103033979
 11
1150.5129803933787
 21
1140.6813373863354
  0
LINE
  8
_2-7_ビス
  6
CONTINUOUS
 62
    7
 10
1150.5129803933787
 20
1140.6813373863354
 11
1150.5140924459959
 21
1140.7212836462945
  0
LINE
  8
_2-7_ビス
  6
CONTINUOUS
 62
    7
 10
1150.5140924459959
 20
1140.7212836462945
 11
1150.5132626949351
 21
1140.7324935091185
  0
LINE
  8
_2-7_ビス
  6
CONTINUOUS
 62
    7
 10
1150.3536729452144
 20
1138.9184584225184
 11
1150.3536729452144
 21
1138.9184584225184
  0
LINE
  8
_2-7_ビス
  6
CONTINUOUS
 62
    7
 10
1150.3536729452144
 20
1138.9184584225184
 11
1150.3881961735494
 21
1138.9309719727776
  0
LINE
  8
_2-7_ビス
  6
CONTINUOUS
 62
    7
 10
1150.3881961735494
 20
1138.9309719727776
 11
1150.4202184519024
 21
1138.9498862935557
  0
LINE
  8
_2-7_ビス
  6
CONTINUOUS
 62
    7
 10
1150.4202184519024
 20
1138.9498862935557
 11
1150.44876679955
 21
1138.9746266827869
  0
LINE
  8
_2-7_ビス
  6
CONTINUOUS
 62
    7
 10
1150.44876679955
 20
1138.9746266827869
 11
1150.4729737893949
 21
1139.0044414162642
  0
LINE
  8
_2-7_ビス
  6
CONTINUOUS
 62
    7
 10
1150.4729737893949
 20
1139.0044414162642
 11
1150.4921039042999
 21
1139.0384245883974
  0
LINE
  8
_2-7_ビス
  6
CONTINUOUS
 62
    7
 10
1150.4921039042999
 20
1139.0384245883974
 11
1150.5055758854041
 21
1139.0755436376978
  0
LINE
  8
_2-7_ビス
  6
CONTINUOUS
 62
    7
 10
1150.5055758854041
 20
1139.0755436376978
 11
1150.5129803933787
 21
1139.1146707206353
  0
LINE
  8
_2-7_ビス
  6
CONTINUOUS
 62
    7
 10
1150.5129803933787
 20
1139.1146707206353
 11
1150.5140924459959
 21
1139.1546169805945
  0
LINE
  8
_2-7_ビス
  6
CONTINUOUS
 62
    7
 10
1150.5140924459959
 20
1139.1546169805945
 11
1150.5132626949351
 21
1139.1658268434185
  0
LINE
  8
_2-7_ビス
  6
CONTINUOUS
 62
    7
 10
1150.2966860858128
 20
1137.3517917568183
 11
1150.2966860858128
 21
1137.3517917568183
  0
LINE
  8
_2-7_ビス
  6
CONTINUOUS
 62
    7
 10
1150.2966860858128
 20
1137.3517917568183
 11
1150.3312093141478
 21
1137.3643053070775
  0
LINE
  8
_2-7_ビス
  6
CONTINUOUS
 62
    7
 10
1150.3312093141478
 20
1137.3643053070775
 11
1150.3632315925008
 21
1137.3832196278556
  0
LINE
  8
_2-7_ビス
  6
CONTINUOUS
 62
    7
 10
1150.3632315925008
 20
1137.3832196278556
 11
1150.3917799401484
 21
1137.4079600170869
  0
LINE
  8
_2-7_ビス
  6
CONTINUOUS
 62
    7
 10
1150.3917799401484
 20
1137.4079600170869
 11
1150.4159869299933
 21
1137.4377747505641
  0
LINE
  8
_2-7_ビス
  6
CONTINUOUS
 62
    7
 10
1150.4159869299933
 20
1137.4377747505641
 11
1150.4351170448983
 21
1137.4717579226974
  0
LINE
  8
_2-7_ビス
  6
CONTINUOUS
 62
    7
 10
1150.4351170448983
 20
1137.4717579226974
 11
1150.4485890260025
 21
1137.5088769719978
  0
LINE
  8
_2-7_ビス
  6
CONTINUOUS
 62
    7
 10
1150.4485890260025
 20
1137.5088769719978
 11
1150.4559935339771
 21
1137.5480040549353
  0
LINE
  8
_2-7_ビス
  6
CONTINUOUS
 62
    7
 10
1150.4559935339771
 20
1137.5480040549353
 11
1150.4571055865943
 21
1137.5879503148944
  0
LINE
  8
_2-7_ビス
  6
CONTINUOUS
 62
    7
 10
1150.4571055865943
 20
1137.5879503148944
 11
1150.4562758355335
 21
1137.5991601777184
  0
LINE
  8
_2-7_ビス
  6
CONTINUOUS
 62
    7
 10
1150.3536729452144
 20
1134.2184584254182
 11
1150.3536729452144
 21
1134.2184584254182
  0
LINE
  8
_2-7_ビス
  6
CONTINUOUS
 62
    7
 10
1150.3536729452144
 20
1134.2184584254182
 11
1150.3881961735494
 21
1134.2309719756774
  0
LINE
  8
_2-7_ビス
  6
CONTINUOUS
 62
    7
 10
1150.3881961735494
 20
1134.2309719756774
 11
1150.4202184519024
 21
1134.2498862964555
  0
LINE
  8
_2-7_ビス
  6
CONTINUOUS
 62
    7
 10
1150.4202184519024
 20
1134.2498862964555
 11
1150.44876679955
 21
1134.2746266856868
  0
LINE
  8
_2-7_ビス
  6
CONTINUOUS
 62
    7
 10
1150.44876679955
 20
1134.2746266856868
 11
1150.4729737893949
 21
1134.304441419164
  0
LINE
  8
_2-7_ビス
  6
CONTINUOUS
 62
    7
 10
1150.4729737893949
 20
1134.304441419164
 11
1150.4921039042999
 21
1134.3384245912973
  0
LINE
  8
_2-7_ビス
  6
CONTINUOUS
 62
    7
 10
1150.4921039042999
 20
1134.3384245912973
 11
1150.5055758854041
 21
1134.3755436405977
  0
LINE
  8
_2-7_ビス
  6
CONTINUOUS
 62
    7
 10
1150.5055758854041
 20
1134.3755436405977
 11
1150.5129803933787
 21
1134.4146707235352
  0
LINE
  8
_2-7_ビス
  6
CONTINUOUS
 62
    7
 10
1150.5129803933787
 20
1134.4146707235352
 11
1150.5140924459959
 21
1134.4546169834944
  0
LINE
  8
_2-7_ビス
  6
CONTINUOUS
 62
    7
 10
1150.5140924459959
 20
1134.4546169834944
 11
1150.5132626949351
 21
1134.4658268463184
  0
LINE
  8
_2-7_ビス
  6
CONTINUOUS
 62
    7
 10
1150.3536729452144
 20
1132.6517917597182
 11
1150.3536729452144
 21
1132.6517917597182
  0
LINE
  8
_2-7_ビス
  6
CONTINUOUS
 62
    7
 10
1150.3536729452144
 20
1132.6517917597182
 11
1150.3881961735494
 21
1132.6643053099774
  0
LINE
  8
_2-7_ビス
  6
CONTINUOUS
 62
    7
 10
1150.3881961735494
 20
1132.6643053099774
 11
1150.4202184519024
 21
1132.6832196307555
  0
LINE
  8
_2-7_ビス
  6
CONTINUOUS
 62
    7
 10
1150.4202184519024
 20
1132.6832196307555
 11
1150.44876679955
 21
1132.7079600199868
  0
LINE
  8
_2-7_ビス
  6
CONTINUOUS
 62
    7
 10
1150.44876679955
 20
1132.7079600199868
 11
1150.4729737893949
 21
1132.737774753464
  0
LINE
  8
_2-7_ビス
  6
CONTINUOUS
 62
    7
 10
1150.4729737893949
 20
1132.737774753464
 11
1150.4921039042999
 21
1132.7717579255973
  0
LINE
  8
_2-7_ビス
  6
CONTINUOUS
 62
    7
 10
1150.4921039042999
 20
1132.7717579255973
 11
1150.5055758854041
 21
1132.8088769748977
  0
LINE
  8
_2-7_ビス
  6
CONTINUOUS
 62
    7
 10
1150.5055758854041
 20
1132.8088769748977
 11
1150.5129803933787
 21
1132.8480040578352
  0
LINE
  8
_2-7_ビス
  6
CONTINUOUS
 62
    7
 10
1150.5129803933787
 20
1132.8480040578352
 11
1150.5140924459959
 21
1132.8879503177943
  0
LINE
  8
_2-7_ビス
  6
CONTINUOUS
 62
    7
 10
1150.5140924459959
 20
1132.8879503177943
 11
1150.5132626949351
 21
1132.8991601806183
  0
LINE
  8
_2-7_ビス
  6
CONTINUOUS
 62
    7
 10
1150.3536729452144
 20
1131.0851250940182
 11
1150.3536729452144
 21
1131.0851250940182
  0
LINE
  8
_2-7_ビス
  6
CONTINUOUS
 62
    7
 10
1150.3536729452144
 20
1131.0851250940182
 11
1150.3881961735494
 21
1131.0976386442774
  0
LINE
  8
_2-7_ビス
  6
CONTINUOUS
 62
    7
 10
1150.3881961735494
 20
1131.0976386442774
 11
1150.4202184519024
 21
1131.1165529650555
  0
LINE
  8
_2-7_ビス
  6
CONTINUOUS
 62
    7
 10
1150.4202184519024
 20
1131.1165529650555
 11
1150.44876679955
 21
1131.1412933542867
  0
LINE
  8
_2-7_ビス
  6
CONTINUOUS
 62
    7
 10
1150.44876679955
 20
1131.1412933542867
 11
1150.4729737893949
 21
1131.171108087764
  0
LINE
  8
_2-7_ビス
  6
CONTINUOUS
 62
    7
 10
1150.4729737893949
 20
1131.171108087764
 11
1150.4921039042999
 21
1131.2050912598972
  0
LINE
  8
_2-7_ビス
  6
CONTINUOUS
 62
    7
 10
1150.4921039042999
 20
1131.2050912598972
 11
1150.5055758854041
 21
1131.2422103091976
  0
LINE
  8
_2-7_ビス
  6
CONTINUOUS
 62
    7
 10
1150.5055758854041
 20
1131.2422103091976
 11
1150.5129803933787
 21
1131.2813373921351
  0
LINE
  8
_2-7_ビス
  6
CONTINUOUS
 62
    7
 10
1150.5129803933787
 20
1131.2813373921351
 11
1150.5140924459959
 21
1131.3212836520943
  0
LINE
  8
_2-7_ビス
  6
CONTINUOUS
 62
    7
 10
1150.5140924459959
 20
1131.3212836520943
 11
1150.5132626949351
 21
1131.3324935149183
  0
LINE
  8
_2-7_ビス
  6
CONTINUOUS
 62
    7
 10
1150.2963933736401
 20
1129.5184584283181
 11
1150.2963933736401
 21
1129.5184584283181
  0
LINE
  8
_2-7_ビス
  6
CONTINUOUS
 62
    7
 10
1150.2963933736401
 20
1129.5184584283181
 11
1150.3309166019751
 21
1129.5309719785773
  0
LINE
  8
_2-7_ビス
  6
CONTINUOUS
 62
    7
 10
1150.3309166019751
 20
1129.5309719785773
 11
1150.3629388803281
 21
1129.5498862993554
  0
LINE
  8
_2-7_ビス
  6
CONTINUOUS
 62
    7
 10
1150.3629388803281
 20
1129.5498862993554
 11
1150.3914872279756
 21
1129.5746266885867
  0
LINE
  8
_2-7_ビス
  6
CONTINUOUS
 62
    7
 10
1150.3914872279756
 20
1129.5746266885867
 11
1150.4156942178206
 21
1129.6044414220639
  0
LINE
  8
_2-7_ビス
  6
CONTINUOUS
 62
    7
 10
1150.4156942178206
 20
1129.6044414220639
 11
1150.4348243327256
 21
1129.6384245941972
  0
LINE
  8
_2-7_ビス
  6
CONTINUOUS
 62
    7
 10
1150.4348243327256
 20
1129.6384245941972
 11
1150.4482963138298
 21
1129.6755436434976
  0
LINE
  8
_2-7_ビス
  6
CONTINUOUS
 62
    7
 10
1150.4482963138298
 20
1129.6755436434976
 11
1150.4557008218044
 21
1129.7146707264351
  0
LINE
  8
_2-7_ビス
  6
CONTINUOUS
 62
    7
 10
1150.4557008218044
 20
1129.7146707264351
 11
1150.4568128744215
 21
1129.7546169863942
  0
LINE
  8
_2-7_ビス
  6
CONTINUOUS
 62
    7
 10
1150.4568128744215
 20
1129.7546169863942
 11
1150.4559831233607
 21
1129.7658268492182
  0
LINE
  8
_2-7_ビス
  6
CONTINUOUS
 62
    7
 10
1150.3536729452144
 20
1126.385125096918
 11
1150.3536729452144
 21
1126.385125096918
  0
LINE
  8
_2-7_ビス
  6
CONTINUOUS
 62
    7
 10
1150.3536729452144
 20
1126.385125096918
 11
1150.3881961735494
 21
1126.3976386471772
  0
LINE
  8
_2-7_ビス
  6
CONTINUOUS
 62
    7
 10
1150.3881961735494
 20
1126.3976386471772
 11
1150.4202184519024
 21
1126.4165529679553
  0
LINE
  8
_2-7_ビス
  6
CONTINUOUS
 62
    7
 10
1150.4202184519024
 20
1126.4165529679553
 11
1150.44876679955
 21
1126.4412933571866
  0
LINE
  8
_2-7_ビス
  6
CONTINUOUS
 62
    7
 10
1150.44876679955
 20
1126.4412933571866
 11
1150.4729737893949
 21
1126.4711080906638
  0
LINE
  8
_2-7_ビス
  6
CONTINUOUS
 62
    7
 10
1150.4729737893949
 20
1126.4711080906638
 11
1150.4921039042999
 21
1126.5050912627971
  0
LINE
  8
_2-7_ビス
  6
CONTINUOUS
 62
    7
 10
1150.4921039042999
 20
1126.5050912627971
 11
1150.5055758854041
 21
1126.5422103120975
  0
LINE
  8
_2-7_ビス
  6
CONTINUOUS
 62
    7
 10
1150.5055758854041
 20
1126.5422103120975
 11
1150.5129803933787
 21
1126.581337395035
  0
LINE
  8
_2-7_ビス
  6
CONTINUOUS
 62
    7
 10
1150.5129803933787
 20
1126.581337395035
 11
1150.5140924459959
 21
1126.6212836549942
  0
LINE
  8
_2-7_ビス
  6
CONTINUOUS
 62
    7
 10
1150.5140924459959
 20
1126.6212836549942
 11
1150.5132626949351
 21
1126.6324935178181
  0
LINE
  8
_2-7_ビス
  6
CONTINUOUS
 62
    7
 10
1150.3213928941198
 20
1124.818458431218
 11
1150.3213928941198
 21
1124.818458431218
  0
LINE
  8
_2-7_ビス
  6
CONTINUOUS
 62
    7
 10
1150.3213928941198
 20
1124.818458431218
 11
1150.3559161224548
 21
1124.8309719814772
  0
LINE
  8
_2-7_ビス
  6
CONTINUOUS
 62
    7
 10
1150.3559161224548
 20
1124.8309719814772
 11
1150.3879384008078
 21
1124.8498863022553
  0
LINE
  8
_2-7_ビス
  6
CONTINUOUS
 62
    7
 10
1150.3879384008078
 20
1124.8498863022553
 11
1150.4164867484553
 21
1124.8746266914866
  0
LINE
  8
_2-7_ビス
  6
CONTINUOUS
 62
    7
 10
1150.4164867484553
 20
1124.8746266914866
 11
1150.4406937383003
 21
1124.9044414249638
  0
LINE
  8
_2-7_ビス
  6
CONTINUOUS
 62
    7
 10
1150.4406937383003
 20
1124.9044414249638
 11
1150.4598238532053
 21
1124.9384245970971
  0
LINE
  8
_2-7_ビス
  6
CONTINUOUS
 62
    7
 10
1150.4598238532053
 20
1124.9384245970971
 11
1150.4732958343095
 21
1124.9755436463975
  0
LINE
  8
_2-7_ビス
  6
CONTINUOUS
 62
    7
 10
1150.4732958343095
 20
1124.9755436463975
 11
1150.4807003422841
 21
1125.014670729335
  0
LINE
  8
_2-7_ビス
  6
CONTINUOUS
 62
    7
 10
1150.4807003422841
 20
1125.014670729335
 11
1150.4818123949012
 21
1125.0546169892941
  0
LINE
  8
_2-7_ビス
  6
CONTINUOUS
 62
    7
 10
1150.4818123949012
 20
1125.0546169892941
 11
1150.4809826438404
 21
1125.0658268521181
  0
LINE
  8
_2-7_ビス
  6
CONTINUOUS
 62
    7
 10
1150.2892899413114
 20
1123.251791765518
 11
1150.2892899413114
 21
1123.251791765518
  0
LINE
  8
_2-7_ビス
  6
CONTINUOUS
 62
    7
 10
1150.2892899413114
 20
1123.251791765518
 11
1150.3238131696464
 21
1123.2643053157772
  0
LINE
  8
_2-7_ビス
  6
CONTINUOUS
 62
    7
 10
1150.3238131696464
 20
1123.2643053157772
 11
1150.3558354479994
 21
1123.2832196365553
  0
LINE
  8
_2-7_ビス
  6
CONTINUOUS
 62
    7
 10
1150.3558354479994
 20
1123.2832196365553
 11
1150.384383795647
 21
1123.3079600257865
  0
LINE
  8
_2-7_ビス
  6
CONTINUOUS
 62
    7
 10
1150.384383795647
 20
1123.3079600257865
 11
1150.4085907854919
 21
1123.3377747592638
  0
LINE
  8
_2-7_ビス
  6
CONTINUOUS
 62
    7
 10
1150.4085907854919
 20
1123.3377747592638
 11
1150.4277209003969
 21
1123.371757931397
  0
LINE
  8
_2-7_ビス
  6
CONTINUOUS
 62
    7
 10
1150.4277209003969
 20
1123.371757931397
 11
1150.4411928815011
 21
1123.4088769806974
  0
LINE
  8
_2-7_ビス
  6
CONTINUOUS
 62
    7
 10
1150.4411928815011
 20
1123.4088769806974
 11
1150.4485973894757
 21
1123.4480040636349
  0
LINE
  8
_2-7_ビス
  6
CONTINUOUS
 62
    7
 10
1150.4485973894757
 20
1123.4480040636349
 11
1150.4497094420929
 21
1123.4879503235941
  0
LINE
  8
_2-7_ビス
  6
CONTINUOUS
 62
    7
 10
1150.4497094420929
 20
1123.4879503235941
 11
1150.4488796910321
 21
1123.4991601864181
  0
LINE
  8
_2-7_ビス
  6
CONTINUOUS
 62
    7
 10
1150.2669750102818
 20
1121.6851250998191
 11
1150.2669750102818
 21
1121.6851250998191
  0
LINE
  8
_2-7_ビス
  6
CONTINUOUS
 62
    7
 10
1150.2669750102818
 20
1121.6851250998191
 11
1150.3014982386169
 21
1121.6976386500783
  0
LINE
  8
_2-7_ビス
  6
CONTINUOUS
 62
    7
 10
1150.3014982386169
 20
1121.6976386500783
 11
1150.3335205169699
 21
1121.7165529708564
  0
LINE
  8
_2-7_ビス
  6
CONTINUOUS
 62
    7
 10
1150.3335205169699
 20
1121.7165529708564
 11
1150.3620688646174
 21
1121.7412933600876
  0
LINE
  8
_2-7_ビス
  6
CONTINUOUS
 62
    7
 10
1150.3620688646174
 20
1121.7412933600876
 11
1150.3862758544624
 21
1121.7711080935649
  0
LINE
  8
_2-7_ビス
  6
CONTINUOUS
 62
    7
 10
1150.3862758544624
 20
1121.7711080935649
 11
1150.4054059693674
 21
1121.8050912656981
  0
LINE
  8
_2-7_ビス
  6
CONTINUOUS
 62
    7
 10
1150.4054059693674
 20
1121.8050912656981
 11
1150.4188779504716
 21
1121.8422103149985
  0
LINE
  8
_2-7_ビス
  6
CONTINUOUS
 62
    7
 10
1150.4188779504716
 20
1121.8422103149985
 11
1150.4262824584462
 21
1121.881337397936
  0
LINE
  8
_2-7_ビス
  6
CONTINUOUS
 62
    7
 10
1150.4262824584462
 20
1121.881337397936
 11
1150.4273945110633
 21
1121.9212836578952
  0
LINE
  8
_2-7_ビス
  6
CONTINUOUS
 62
    7
 10
1150.4273945110633
 20
1121.9212836578952
 11
1150.4265647600025
 21
1121.9324935207192
  0
LINE
  8
_2-7_ビス
  6
CONTINUOUS
 62
    7
 10
1150.2761581952138
 20
1120.1184584341188
 11
1150.2761581952138
 21
1120.1184584341188
  0
LINE
  8
_2-7_ビス
  6
CONTINUOUS
 62
    7
 10
1150.2761581952138
 20
1120.1184584341188
 11
1150.3033041311528
 21
1120.1235542529676
  0
LINE
  8
_2-7_ビス
  6
CONTINUOUS
 62
    7
 10
1150.3033041311528
 20
1120.1235542529676
 11
1150.3292327953845
 21
1120.1337551247791
  0
LINE
  8
_2-7_ビス
  6
CONTINUOUS
 62
    7
 10
1150.3292327953845
 20
1120.1337551247791
 11
1150.353156358567
 21
1120.1487511012256
  0
LINE
  8
_2-7_ビス
  6
CONTINUOUS
 62
    7
 10
1150.353156358567
 20
1120.1487511012256
 11
1150.3743479153388
 21
1120.1680865371507
  0
LINE
  8
_2-7_ビス
  6
CONTINUOUS
 62
    7
 10
1150.3743479153388
 20
1120.1680865371507
 11
1150.392163570971
 21
1120.1911739351183
  0
LINE
  8
_2-7_ビス
  6
CONTINUOUS
 62
    7
 10
1150.392163570971
 20
1120.1911739351183
 11
1150.4060620057821
 21
1120.2173117962236
  0
LINE
  8
_2-7_ビス
  6
CONTINUOUS
 62
    7
 10
1150.4060620057821
 20
1120.2173117962236
 11
1150.4156209228634
 21
1120.2457059347837
  0
LINE
  8
_2-7_ビス
  6
CONTINUOUS
 62
    7
 10
1150.4156209228634
 20
1120.2457059347837
 11
1150.4205498793565
 21
1120.2754936092665
  0
LINE
  8
_2-7_ビス
  6
CONTINUOUS
 62
    7
 10
1150.4205498793565
 20
1120.2754936092665
 11
1150.4206991114124
 21
1120.3057697362558
  0
LINE
  8
_2-7_ビス
  6
CONTINUOUS
 62
    7
 10
1150.4206991114124
 20
1120.3057697362558
 11
1150.4160640846908
 21
1120.3356143909539
  0
LINE
  8
_2-7_ビス
  6
CONTINUOUS
 62
    7
 10
1150.4160640846908
 20
1120.3356143909539
 11
1150.4067856321331
 21
1120.36412075863
  0
LINE
  8
_2-7_ビス
  6
CONTINUOUS
 62
    7
 10
1150.4067856321331
 20
1120.36412075863
 11
1150.3931456748251
 21
1120.3904226877266
  0
LINE
  8
_2-7_ビス
  6
CONTINUOUS
 62
    7
 10
1150.3931456748251
 20
1120.3904226877266
 11
1150.393062181068
 21
1120.3905551759883
  0
LINE
  8
_2-7_ビス
  6
CONTINUOUS
 62
    7
 10
1149.9730494452142
 20
1127.9517917626185
 11
1149.9730494452142
 21
1127.9517917626185
  0
LINE
  8
_2-7_ビス
  6
CONTINUOUS
 62
    7
 10
1149.9730494452142
 20
1127.9517917626185
 11
1150.0573752760079
 21
1127.9640517192663
  0
LINE
  8
_2-7_ビス
  6
CONTINUOUS
 62
    7
 10
1150.0573752760079
 20
1127.9640517192663
 11
1150.1384835974661
 21
1127.9922241859733
  0
LINE
  8
_2-7_ビス
  6
CONTINUOUS
 62
    7
 10
1150.1384835974661
 20
1127.9922241859733
 11
1150.2139099742842
 21
1128.0354531565949
  0
LINE
  8
_2-7_ビス
  6
CONTINUOUS
 62
    7
 10
1150.2139099742842
 20
1128.0354531565949
 11
1150.2813626141701
 21
1128.0924251407334
  0
LINE
  8
_2-7_ビス
  6
CONTINUOUS
 62
    7
 10
1150.2813626141701
 20
1128.0924251407334
 11
1150.3387920027935
 21
1128.1614090734802
  0
LINE
  8
_2-7_ビス
  6
CONTINUOUS
 62
    7
 10
1150.3387920027935
 20
1128.1614090734802
 11
1150.384453177242
 21
1128.2403089129461
  0
LINE
  8
_2-7_ビス
  6
CONTINUOUS
 62
    7
 10
1150.384453177242
 20
1128.2403089129461
 11
1150.4169587458352
 21
1128.3267273274344
  0
LINE
  8
_2-7_ビス
  6
CONTINUOUS
 62
    7
 10
1150.4169587458352
 20
1128.3267273274344
 11
1150.4353210433203
 21
1128.4180385371503
  0
LINE
  8
_2-7_ビス
  6
CONTINUOUS
 62
    7
 10
1150.4353210433203
 20
1128.4180385371503
 11
1150.4389821405798
 21
1128.5114680971928
  0
LINE
  8
_2-7_ビス
  6
CONTINUOUS
 62
    7
 10
1150.4389821405798
 20
1128.5114680971928
 11
1150.4278307970264
 21
1128.6041771976575
  0
LINE
  8
_2-7_ビス
  6
CONTINUOUS
 62
    7
 10
1150.4278307970264
 20
1128.6041771976575
 11
1150.4022058405908
 21
1128.6933489194396
  0
LINE
  8
_2-7_ビス
  6
CONTINUOUS
 62
    7
 10
1150.4022058405908
 20
1128.6933489194396
 11
1150.3628858726076
 21
1128.776273824896
  0
LINE
  8
_2-7_ビス
  6
CONTINUOUS
 62
    7
 10
1150.3628858726076
 20
1128.776273824896
 11
1150.311065610407
 21
1128.8504322827366
  0
LINE
  8
_2-7_ビス
  6
CONTINUOUS
 62
    7
 10
1150.311065610407
 20
1128.8504322827366
 11
1150.2483195864338
 21
1128.9135710257456
  0
LINE
  8
_2-7_ビス
  6
CONTINUOUS
 62
    7
 10
1150.2483195864338
 20
1128.9135710257456
 11
1150.1765543068755
 21
1128.9637716151665
  0
LINE
  8
_2-7_ビス
  6
CONTINUOUS
 62
    7
 10
1150.1765543068755
 20
1128.9637716151665
 11
1150.097950323436
 21
1128.9995087314926
  0
LINE
  8
_2-7_ビス
  6
CONTINUOUS
 62
    7
 10
1150.097950323436
 20
1128.9995087314926
 11
1150.0148959783771
 21
1129.019696520528
  0
LINE
  8
_2-7_ビス
  6
CONTINUOUS
 62
    7
 10
1150.0148959783771
 20
1129.019696520528
 11
1149.9730494452142
 21
1129.0237215865186
  0
LINE
  8
_2-7_ビス
  6
CONTINUOUS
 62
    7
 10
1149.9730494452142
 20
1135.7851250911187
 11
1149.9730494452142
 21
1135.7851250911187
  0
LINE
  8
_2-7_ビス
  6
CONTINUOUS
 62
    7
 10
1149.9730494452142
 20
1135.7851250911187
 11
1150.0573752760079
 21
1135.7973850477665
  0
LINE
  8
_2-7_ビス
  6
CONTINUOUS
 62
    7
 10
1150.0573752760079
 20
1135.7973850477665
 11
1150.1384835974661
 21
1135.8255575144735
  0
LINE
  8
_2-7_ビス
  6
CONTINUOUS
 62
    7
 10
1150.1384835974661
 20
1135.8255575144735
 11
1150.2139099742842
 21
1135.8687864850951
  0
LINE
  8
_2-7_ビス
  6
CONTINUOUS
 62
    7
 10
1150.2139099742842
 20
1135.8687864850951
 11
1150.2813626141701
 21
1135.9257584692336
  0
LINE
  8
_2-7_ビス
  6
CONTINUOUS
 62
    7
 10
1150.2813626141701
 20
1135.9257584692336
 11
1150.3387920027935
 21
1135.9947424019804
  0
LINE
  8
_2-7_ビス
  6
CONTINUOUS
 62
    7
 10
1150.3387920027935
 20
1135.9947424019804
 11
1150.384453177242
 21
1136.0736422414464
  0
LINE
  8
_2-7_ビス
  6
CONTINUOUS
 62
    7
 10
1150.384453177242
 20
1136.0736422414464
 11
1150.4169587458352
 21
1136.1600606559346
  0
LINE
  8
_2-7_ビス
  6
CONTINUOUS
 62
    7
 10
1150.4169587458352
 20
1136.1600606559346
 11
1150.4353210433203
 21
1136.2513718656505
  0
LINE
  8
_2-7_ビス
  6
CONTINUOUS
 62
    7
 10
1150.4353210433203
 20
1136.2513718656505
 11
1150.4389821405798
 21
1136.344801425693
  0
LINE
  8
_2-7_ビス
  6
CONTINUOUS
 62
    7
 10
1150.4389821405798
 20
1136.344801425693
 11
1150.4278307970264
 21
1136.4375105261577
  0
LINE
  8
_2-7_ビス
  6
CONTINUOUS
 62
    7
 10
1150.4278307970264
 20
1136.4375105261577
 11
1150.4022058405908
 21
1136.5266822479398
  0
LINE
  8
_2-7_ビス
  6
CONTINUOUS
 62
    7
 10
1150.4022058405908
 20
1136.5266822479398
 11
1150.3628858726076
 21
1136.6096071533962
  0
LINE
  8
_2-7_ビス
  6
CONTINUOUS
 62
    7
 10
1150.3628858726076
 20
1136.6096071533962
 11
1150.311065610407
 21
1136.6837656112368
  0
LINE
  8
_2-7_ビス
  6
CONTINUOUS
 62
    7
 10
1150.311065610407
 20
1136.6837656112368
 11
1150.2483195864338
 21
1136.7469043542458
  0
LINE
  8
_2-7_ビス
  6
CONTINUOUS
 62
    7
 10
1150.2483195864338
 20
1136.7469043542458
 11
1150.1765543068755
 21
1136.7971049436667
  0
LINE
  8
_2-7_ビス
  6
CONTINUOUS
 62
    7
 10
1150.1765543068755
 20
1136.7971049436667
 11
1150.097950323436
 21
1136.8328420599928
  0
LINE
  8
_2-7_ビス
  6
CONTINUOUS
 62
    7
 10
1150.097950323436
 20
1136.8328420599928
 11
1150.0148959783771
 21
1136.8530298490282
  0
LINE
  8
_2-7_ビス
  6
CONTINUOUS
 62
    7
 10
1150.0148959783771
 20
1136.8530298490282
 11
1149.9730494452142
 21
1136.8570549150188
  0
LINE
  8
_2-7_ビス
  6
CONTINUOUS
 62
    7
 10
1150.3485415891037
 20
1117.3974058042181
 11
1150.3485415891037
 21
1117.3974058042181
  0
LINE
  8
_2-7_ビス
  6
CONTINUOUS
 62
    7
 10
1150.3485415891037
 20
1117.3974058042181
 11
1150.3431376646774
 21
1117.5366614261336
  0
LINE
  8
_2-7_ビス
  6
CONTINUOUS
 62
    7
 10
1150.3431376646774
 20
1117.5366614261336
 11
1150.315820976658
 21
1117.6727697712163
  0
LINE
  8
_2-7_ビス
  6
CONTINUOUS
 62
    7
 10
1150.315820976658
 20
1117.6727697712163
 11
1150.2982662560155
 21
1117.7272303654181
  0
LINE
  8
_2-7_ビス
  6
CONTINUOUS
 62
    7
 10
1151.4394471952132
 20
1115.3980783466659
 11
1151.4394471952132
 21
1115.3980783466659
  0
LINE
  8
_2-7_ビス
  6
CONTINUOUS
 62
    7
 10
1151.4394471952132
 20
1115.3980783466659
 11
1151.4366253703804
 21
1115.45391854121
  0
LINE
  8
_2-7_ビス
  6
CONTINUOUS
 62
    7
 10
1151.4366253703804
 20
1115.45391854121
 11
1151.4250266828917
 21
1115.5083716790655
  0
LINE
  8
_2-7_ビス
  6
CONTINUOUS
 62
    7
 10
1151.4250266828917
 20
1115.5083716790655
 11
1151.405003552997
 21
1115.5597832291935
  0
LINE
  8
_2-7_ビス
  6
CONTINUOUS
 62
    7
 10
1151.405003552997
 20
1115.5597832291935
 11
1151.377164373366
 21
1115.6065910776588
  0
LINE
  8
_2-7_ビス
  6
CONTINUOUS
 62
    7
 10
1151.377164373366
 20
1115.6065910776588
 11
1151.3423550233847
 21
1115.6473729916715
  0
LINE
  8
_2-7_ビス
  6
CONTINUOUS
 62
    7
 10
1151.3423550233847
 20
1115.6473729916715
 11
1151.3016331675376
 21
1115.6808898334116
  0
LINE
  8
_2-7_ビス
  6
CONTINUOUS
 62
    7
 10
1151.3016331675376
 20
1115.6808898334116
 11
1151.2562361188084
 21
1115.7061232106023
  0
LINE
  8
_2-7_ビス
  6
CONTINUOUS
 62
    7
 10
1151.2562361188084
 20
1115.7061232106023
 11
1151.2075432435511
 21
1115.722306419847
  0
LINE
  8
_2-7_ビス
  6
CONTINUOUS
 62
    7
 10
1151.2075432435511
 20
1115.722306419847
 11
1151.1570340501401
 21
1115.7289477425215
  0
LINE
  8
_2-7_ビス
  6
CONTINUOUS
 62
    7
 10
1151.1570340501401
 20
1115.7289477425215
 11
1151.1062432348585
 21
1115.7258453853974
  0
LINE
  8
_2-7_ビス
  6
CONTINUOUS
 62
    7
 10
1151.1062432348585
 20
1115.7258453853974
 11
1151.0567140509274
 21
1115.7130936120259
  0
LINE
  8
_2-7_ビス
  6
CONTINUOUS
 62
    7
 10
1151.0567140509274
 20
1115.7130936120259
 11
1151.0099514175376
 21
1115.691079878588
  0
LINE
  8
_2-7_ビス
  6
CONTINUOUS
 62
    7
 10
1151.0099514175376
 20
1115.691079878588
 11
1150.9673761936413
 21
1115.6604730612348
  0
LINE
  8
_2-7_ビス
  6
CONTINUOUS
 62
    7
 10
1150.9673761936413
 20
1115.6604730612348
 11
1150.9302820058726
 21
1115.6222031326238
  0
LINE
  8
_2-7_ビス
  6
CONTINUOUS
 62
    7
 10
1150.9302820058726
 20
1115.6222031326238
 11
1150.8997959423564
 21
1115.5774329051703
  0
LINE
  8
_2-7_ビス
  6
CONTINUOUS
 62
    7
 10
1150.8997959423564
 20
1115.5774329051703
 11
1150.8768443067058
 21
1115.5275226995809
  0
LINE
  8
_2-7_ビス
  6
CONTINUOUS
 62
    7
 10
1150.8768443067058
 20
1115.5275226995809
 11
1150.8621244727562
 21
1115.4739890121964
  0
LINE
  8
_2-7_ビス
  6
CONTINUOUS
 62
    7
 10
1150.8621244727562
 20
1115.4739890121964
 11
1150.8560836952133
 21
1115.4184584370187
  0
LINE
  8
_2-7_ビス
  6
CONTINUOUS
 62
    7
 10
1150.8560836952133
 20
1115.4184584370187
 11
1150.8560836952133
 21
1115.4184584370187
  0
LINE
  8
_2-6_鋼板__アングル
  6
CONTINUOUS
 62
    2
 10
1178.1417994452138
 20
1198.9327650933446
 11
1177.7623261259944
 21
1197.7943451356841
  0
LINE
  8
_2-6_鋼板__アングル
  6
CONTINUOUS
 62
    2
 10
1174.9470662530123
 20
1198.7327650933448
 11
1160.138855720061
 21
1198.7327650933448
  0
LINE
  8
_2-6_鋼板__アングル
  6
CONTINUOUS
 62
    2
 10
1174.9470662530123
 20
1198.7327650933448
 11
1177.7623261259944
 21
1197.7943451356841
  0
LINE
  8
_2-6_鋼板__アングル
  6
CONTINUOUS
 62
    2
 10
1129.1417994452152
 20
1149.9327650933449
 11
1130.2802194028757
 21
1150.3122384125654
  0
LINE
  8
_2-6_鋼板__アングル
  6
CONTINUOUS
 62
    2
 10
1128.1417994452138
 20
1152.9327650933456
 11
1128.1417994452138
 21
1199.9327650933449
  0
LINE
  8
_2-6_鋼板__アングル
  6
CONTINUOUS
 62
    2
 10
1128.1417994452138
 20
1152.9327650933456
 11
1129.1417994452152
 21
1149.9327650933449
  0
LINE
  8
_2-6_鋼板__アングル
  6
CONTINUOUS
 62
    2
 10
1129.341799445215
 20
1153.1274982855475
 11
1130.2802194028757
 21
1150.3122384125654
  0
LINE
  8
_2-6_鋼板__アングル
  6
CONTINUOUS
 62
    2
 10
1175.1417994452142
 20
1199.9327650933449
 11
1178.1417994452138
 21
1198.9327650933446
  0
LINE
  8
_2-6_鋼板__アングル
  6
CONTINUOUS
 62
    2
 10
1146.1447431703666
 20
1198.7327650933448
 11
1129.341799445215
 21
1198.7327650933448
  0
LINE
  8
_2-6_鋼板__アングル
  6
CONTINUOUS
 62
    2
 10
1129.341799445215
 20
1153.1274982855475
 11
1129.341799445215
 21
1198.7327650933448
  0
LINE
  8
_2-6_鋼板__アングル
  6
CONTINUOUS
 62
    2
 10
1147.2888125992088
 20
1199.4350626671965
 11
1149.8917994452156
 21
1197.4327650933449
  0
ARC
  8
_2-6_鋼板__アングル
  6
CONTINUOUS
 62
    2
 10
1145.8255067731695
 20
1197.5327650933448
 40
2.3999999999999999
 50
52.431407971173961
 51
90
  0
LINE
  8
_2-6_鋼板__アングル
  6
CONTINUOUS
 62
    2
 10
1158.9947862912211
 20
1199.4350626671965
 11
1156.3917994452142
 21
1197.4327650933449
  0
ARC
  8
_2-6_鋼板__アングル
  6
CONTINUOUS
 62
    2
 10
1160.4580921172603
 20
1197.5327650933448
 40
2.3999999999999999
 50
90
 51
127.56859202882603
  0
LINE
  8
_2-6_鋼板__アングル
  6
CONTINUOUS
 62
    4
 10
1145.8255067731695
 20
1199.9327650933449
 11
1160.4580921172603
 21
1199.9327650933449
  0
LINE
  8
_2-6_鋼板__アングル
  6
CONTINUOUS
 62
    2
 10
1149.8917994452156
 20
1197.4327650933449
 11
1149.1601465321949
 21
1196.481616306419
  0
LINE
  8
_2-6_鋼板__アングル
  6
CONTINUOUS
 62
    2
 10
1156.3917994452142
 20
1197.4327650933449
 11
1157.123452358235
 21
1196.481616306419
  0
LINE
  8
_2-6_鋼板__アングル
  6
CONTINUOUS
 62
    4
 10
1157.123452358235
 20
1196.481616306419
 11
1149.1601465321949
 21
1196.481616306419
  0
LINE
  8
_2-6_鋼板__アングル
  6
CONTINUOUS
 62
    2
 10
1146.557159686188
 20
1198.4839138802706
 11
1149.1601465321949
 21
1196.481616306419
  0
ARC
  8
_2-6_鋼板__アングル
  6
CONTINUOUS
 62
    2
 10
1145.8255067731695
 20
1197.5327650933448
 40
1.2
 50
52.431407971174927
 51
90
  0
LINE
  8
_2-6_鋼板__アングル
  6
CONTINUOUS
 62
    2
 10
1159.7264392042396
 20
1198.4839138802706
 11
1157.123452358235
 21
1196.481616306419
  0
ARC
  8
_2-6_鋼板__アングル
  6
CONTINUOUS
 62
    2
 10
1160.4580921172603
 20
1197.5327650933448
 40
1.2
 50
89.999999999999943
 51
127.56859202882802
  0
LINE
  8
_2-6_鋼板__アングル
  6
CONTINUOUS
 62
    2
 10
1175.1417994452142
 20
1199.9327650933449
 11
1160.4580921172603
 21
1199.9327650933449
  0
LINE
  8
_2-6_鋼板__アングル
  6
CONTINUOUS
 62
    2
 10
1145.8255067731695
 20
1199.9327650933449
 11
1128.1417994452138
 21
1199.9327650933449
  0
LINE
  8
_2-2_in_line
  6
CONTINUOUS
 62
    7
 10
1128.1417994452138
 20
1199.9327650933449
 11
1123.1417994452138
 21
1199.9327650933449
  0
LINE
  8
_2-2_in_line
  6
CONTINUOUS
 62
    7
 10
1123.1417994452138
 20
1199.9327650933449
 11
1123.1417994452138
 21
1152.1702280055777
  0
ARC
  8
_2-4_out_line
  6
CONTINUOUS
 62
    2
 10
1121.1417994452145
 20
1201.9327650933476
 40
3
 50
90
 51
180
  0
LINE
  8
_2-4_out_line
  6
CONTINUOUS
 62
    2
 10
1118.1417994452138
 20
1201.9327650933476
 11
1118.1417994452138
 21
1152.1702280055777
  0
LINE
  8
_2-4_out_line
  6
CONTINUOUS
 62
    2
 10
1121.1417994452145
 20
1204.9327650933494
 11
1176.099741385266
 21
1204.9327650933494
  0
LINE
  8
_2-4_out_line
  6
CONTINUOUS
 62
    2
 10
1176.099741385266
 20
1204.9327650933494
 11
1186.4531877460618
 21
1201.481616306419
  0
TEXT
  8
_2-a_moji
 62
    7
 10
1296.9003455605878
 20
1337.2082412741111
 40
15
 41
1
 50
0
  1
ＢＰ－Ｈ６または
  0
TEXT
  8
_2-a_moji
 62
    7
 10
1296.9003455605878
 20
1317.2082412741111
 40
15
 41
1
 50
0
  1
特注塩ビ鋼板
  0
LINE
  8
_2-a_moji
  6
CONTINUOUS
 62
    7
 10
1286.9003455605878
 20
1344.7082412741111
 11
1249.6600306037144
 21
1344.7082412741111
  0
LINE
  8
_2-a_moji
  6
CONTINUOUS
 62
    7
 10
1166.1020747197144
 20
1199.9816163064227
 11
1249.6600306037144
 21
1344.7082412741111
  0
TEXT
  8
_2-a_moji
 62
    7
 10
1296.9003455605878
 20
1262.2082412741113
 40
15
 41
1
 50
0
  1
ＱＮパネル
  0
ENDSEC
  0
EOF
