  0
SECTION
  2
HEADER
  9
$ACADVER
  1
AC1009
  9
$INSBASE
 10
0
 20
0
 30
0
  9
$EXTMIN
 10
0
 20
0
  9
$EXTMAX
 10
2100
 20
1485
  9
$LIMMIN
 10
0
 20
0
  9
$LIMMAX
 10
2100
 20
1485
  9
$LTSCALE
 40
5
  0
ENDSEC
  0
SECTION
  2
TABLES
  0
TABLE
  2
LTYPE
 70
     9
  0
LTYPE
  2
CONTINUOUS
 70
    64
  3
実線
 72
    65
 73
     0
 40
0.0
  0
LTYPE
  2
DASHED1
 70
    64
  3
--  --  --  --  --  --  --  --  
 72
    65
 73
     2
 40
2.5
 49
1.25
 49
-1.25
  0
LTYPE
  2
DASHED2
 70
    64
  3
----    ----    ----    ----    
 72
    65
 73
     2
 40
5.0
 49
2.5
 49
-2.5
  0
LTYPE
  2
DASHED3
 70
    64
  3
------  ------  ------  ------  
 72
    65
 73
     2
 40
5.0
 49
3.75
 49
-1.25
  0
LTYPE
  2
CENTER1
 70
    64
  3
----- - ----- - ----- - ----- - 
 72
    65
 73
     4
 40
10.0
 49
6.25
 49
-1.25
 49
1.25
 49
-1.25
  0
LTYPE
  2
CENTER2
 70
    64
  3
----------  --  ----------  --  
 72
    65
 73
     4
 40
20.0
 49
12.5
 49
-2.5
 49
2.5
 49
-2.5
  0
LTYPE
  2
PHANTOM1
 70
    64
  3
--- - - --- - - --- - - --- - - 
 72
    65
 73
     6
 40
10.0
 49
3.25
 49
-1.25
 49
1.25
 49
-1.25
 49
1.25
 49
-1.25
  0
LTYPE
  2
PHANTOM2
 70
    64
  3
--------  -  -  --------  -  -  
 72
    65
 73
     6
 40
20.0
 49
10.0
 49
-2.5
 49
1.25
 49
-2.5
 49
1.25
 49
-2.5
  0
LTYPE
  2
DOT
 70
    64
  3
-   -   -   -   -   -   -   -   
 72
    65
 73
     2
 40
2.5
 49
0.625
 49
-1.875
  0
LTYPE
  2
DUMMY
 70
    64
  3
ダミー
 72
    65
 73
     0
 40
0.0
  0
LTYPE
  2
RAND1
 70
    64
  3
ランダム線1
 72
    65
 73
     4
 40
10.0
 49
1.0
 49
-2.0
 49
3.0
 49
-4.0
  0
LTYPE
  2
RAND2
 70
    64
  3
ランダム線2
 72
    65
 73
     4
 40
14.0
 49
2.0
 49
-3.0
 49
4.0
 49
-5.0
  0
LTYPE
  2
RAND3
 70
    64
  3
ランダム線3
 72
    65
 73
     4
 40
18.0
 49
3.0
 49
-4.0
 49
5.0
 49
-6.0
  0
LTYPE
  2
RAND4
 70
    64
  3
ランダム線4
 72
    65
 73
     4
 40
22.0
 49
4.0
 49
-5.0
 49
6.0
 49
-7.0
  0
LTYPE
  2
RAND5
 70
    64
  3
ランダム線5
 72
    65
 73
     4
 40
26.0
 49
5.0
 49
-6.0
 49
7.0
 49
-8.0
  0
LTYPE
  2
LONG1
 70
    64
  3
----------  --  ----------  --  
 72
    65
 73
     4
 40
40.0
 49
32.5
 49
-2.5
 49
2.5
 49
-2.5
  0
LTYPE
  2
LONG2
 70
    64
  3
--------  -  -  --------  -  -  
 72
    65
 73
     6
 40
40.0
 49
30.0
 49
-2.5
 49
1.25
 49
-2.5
 49
1.25
 49
-2.5
  0
LTYPE
  2
LONG3
 70
    64
  3
+++++++++++++++..+++++++++++++++
 72
    65
 73
     2
 40
40.0
 49
37.5
 49
-2.5
  0
LTYPE
  2
LONG4
 70
    64
  3
+++++++++++++++..+++++++++++++++
 72
    65
 73
     2
 40
80.0
 49
75.0
 49
-5.0
  0
LTYPE
  2
LONG5
 70
    64
  3
----------  --  ----------  --  
 72
    65
 73
     4
 40
60.0
 49
37.5
 49
-7.5
 49
7.5
 49
-7.5
  0
LTYPE
  2
dashed
 70
   64
  3
-------   -------------   ------
 72
   65
 73
    2
 40
7.5
 49
6
 49
-1.5
  0
LTYPE
  2
dashed_spaced
 70
   64
  3
----        --------        ----
 72
   65
 73
    2
 40
12
 49
6
 49
-6
  0
LTYPE
  2
long_dashed_dotted
 70
   64
  3
------------- --- --------------
 72
   65
 73
    4
 40
15.25
 49
12
 49
-1.5
 49
0.25
 49
-1.5
  0
LTYPE
  2
long_dashed_double-dotted
 70
   64
  3
----------- --- --- ------------
 72
   65
 73
    6
 40
17
 49
12
 49
-1.5
 49
0.25
 49
-1.5
 49
0.25
 49
-1.5
  0
LTYPE
  2
long_dashed_triplicate-dotted
 70
   64
  3
--------- --- --- --- ----------
 72
   65
 73
    8
 40
18.75
 49
12
 49
-1.5
 49
0.25
 49
-1.5
 49
0.25
 49
-1.5
 49
0.25
 49
-1.5
  0
LTYPE
  2
dotted
 70
   64
  3
   -       -       -       -    
 72
   65
 73
    2
 40
1.75
 49
0.25
 49
-1.5
  0
LTYPE
  2
chain
 70
   64
  3
-------------- -- --------------
 72
   65
 73
    4
 40
18.5
 49
12
 49
-1.5
 49
3.5
 49
-1.5
  0
LTYPE
  2
chain_double_dash
 70
   64
  3
------------ -- -- -------------
 72
   65
 73
    6
 40
23.5
 49
12
 49
-1.5
 49
3.5
 49
-1.5
 49
3.5
 49
-1.5
  0
LTYPE
  2
dashed_dotted
 70
   64
  3
-----------     -     ----------
 72
   65
 73
    4
 40
9.25
 49
6
 49
-1.5
 49
0.25
 49
-1.5
  0
LTYPE
  2
double-dashed_dotted
 70
   64
  3
------   -----------   -   -----
 72
   65
 73
    6
 40
16.75
 49
6
 49
-1.5
 49
6
 49
-1.5
 49
0.25
 49
-1.5
  0
LTYPE
  2
dashed_double-dotted
 70
   64
  3
---------    -    -    ---------
 72
   65
 73
    6
 40
11
 49
6
 49
-1.5
 49
0.25
 49
-1.5
 49
0.25
 49
-1.5
  0
LTYPE
  2
double-dashed_double-dotted
 70
   64
  3
-----   ---------   -   -   ----
 72
   65
 73
    8
 40
18.5
 49
6
 49
-1.5
 49
6
 49
-1.5
 49
0.25
 49
-1.5
 49
0.25
 49
-1.5
  0
LTYPE
  2
dashed_triplicate-dotted
 70
   64
  3
-------    -    -    -    ------
 72
   65
 73
    8
 40
12.75
 49
6
 49
-1.5
 49
0.25
 49
-1.5
 49
0.25
 49
-1.5
 49
0.25
 49
-1.5
  0
LTYPE
  2
double-dashed_triplicate-dotted
 70
   64
  3
-----  ---------  -  -  -  -----
 72
   65
 73
   10
 40
20.25
 49
6
 49
-1.5
 49
6
 49
-1.5
 49
0.25
 49
-1.5
 49
0.25
 49
-1.5
 49
0.25
 49
-1.5
  0
LTYPE
  2
undefined
 70
   64
  3
--------------------------------
 72
   65
 73
    0
 40
0
  0
LTYPE
  2
_
 70
   64
  3
                                
 72
   65
 73
    0
 40
0
  0
LTYPE
  2
__18
 70
   64
  3
                                
 72
   65
 73
    0
 40
0
  0
LTYPE
  2
__19
 70
   64
  3
                                
 72
   65
 73
    0
 40
0
  0
LTYPE
  2
__20
 70
   64
  3
                                
 72
   65
 73
    0
 40
0
  0
LTYPE
  2
__21
 70
   64
  3
                                
 72
   65
 73
    0
 40
0
  0
LTYPE
  2
__22
 70
   64
  3
                                
 72
   65
 73
    0
 40
0
  0
LTYPE
  2
__23
 70
   64
  3
                                
 72
   65
 73
    0
 40
0
  0
LTYPE
  2
__24
 70
   64
  3
                                
 72
   65
 73
    0
 40
0
  0
LTYPE
  2
__25
 70
   64
  3
                                
 72
   65
 73
    0
 40
0
  0
LTYPE
  2
__26
 70
   64
  3
                                
 72
   65
 73
    0
 40
0
  0
LTYPE
  2
__27
 70
   64
  3
                                
 72
   65
 73
    0
 40
0
  0
LTYPE
  2
__28
 70
   64
  3
                                
 72
   65
 73
    0
 40
0
  0
LTYPE
  2
__29
 70
   64
  3
                                
 72
   65
 73
    0
 40
0
  0
LTYPE
  2
__30
 70
   64
  3
                                
 72
   65
 73
    0
 40
0
  0
LTYPE
  2
__31
 70
   64
  3
                                
 72
   65
 73
    0
 40
0
  0
LTYPE
  2
__32
 70
   64
  3
                                
 72
   65
 73
    0
 40
0
  0
ENDTAB
  0
TABLE
  2
STYLE
  5
3
100
AcDbSymbolTable
 70
     1
  0
STYLE
  5
10
100
AcDbSymbolTableRecord
100
AcDbTextStyleTableRecord
  2
STANDARD
 70
     0
 40
0.0
 41
1.0
 50
0.0
 71
     0
 42
0.2
  3
txt
  4
bigfont.shx
  0
STYLE
  5
26
100
AcDbSymbolTableRecord
100
AcDbTextStyleTableRecord
  2
TATEGAKI
 70
    68
 40
0.0
 41
1.0
 50
0.0
 71
     0
 42
1.0
  3
txt
  4
bigfont.shx
  0
ENDTAB
  0
TABLE
  2
LAYER
 70
   16
  0
LAYER
  2
_2-2_in_line
 70
   64
 62
    7
  6
CONTINUOUS
  0
LAYER
  2
_2-3_
 70
   64
 62
    7
  6
CONTINUOUS
  0
LAYER
  2
_2-4_out_line
 70
   64
 62
    7
  6
CONTINUOUS
  0
LAYER
  2
_2-5_金属
 70
   64
 62
    7
  6
CONTINUOUS
  0
LAYER
  2
_2-6_鋼板__アングル
 70
   64
 62
    7
  6
CONTINUOUS
  0
LAYER
  2
_2-7_ビス
 70
   64
 62
    7
  6
CONTINUOUS
  0
LAYER
  2
_2-a_moji
 70
   64
 62
    7
  6
CONTINUOUS
  0
LAYER
  2
_2-b_dim
 70
   64
 62
    7
  6
CONTINUOUS
  0
LAYER
  2
_2-d_ハッチ他
 70
   64
 62
    7
  6
CONTINUOUS
  0
LAYER
  2
_2-e_con他
 70
   64
 62
    7
  6
CONTINUOUS
  0
LAYER
  2
_f-2_
 70
   64
 62
    7
  6
CONTINUOUS
  0
LAYER
  2
_f-5_
 70
   64
 62
    7
  6
CONTINUOUS
  0
LAYER
  2
_f-7_
 70
   64
 62
    7
  6
CONTINUOUS
  0
LAYER
  2
_f-8_
 70
   64
 62
    7
  6
CONTINUOUS
  0
LAYER
  2
_f-a_
 70
   64
 62
    7
  6
CONTINUOUS
  0
LAYER
  2
ADD_LINE
 70
   64
 62
    7
  6
CONTINUOUS
  0
ENDTAB
  0
ENDSEC
  0
SECTION
  2
BLOCKS
  0
ENDSEC
  0
SECTION
  2
ENTITIES
  0
LINE
  8
ADD_LINE
  6
DOT
 62
  136
 10
541.71148053696561
 20
1463.5193839985236
 11
541.71148053696561
 21
33.519383998523722
  0
LINE
  8
ADD_LINE
  6
DOT
 62
  136
 10
541.71148053696561
 20
1463.5193839985236
 11
1541.7114805369656
 21
1463.5193839985236
  0
LINE
  8
_f-7_
  6
CONTINUOUS
 62
    1
 10
641.71148053696561
 20
1363.5193839985236
 11
1441.7114805369656
 21
1363.5193839985236
  0
LINE
  8
ADD_LINE
  6
DOT
 62
  136
 10
1541.7114805369656
 20
1463.5193839985236
 11
1541.7114805369656
 21
33.519383998523722
  0
LINE
  8
ADD_LINE
  6
DOT
 62
  136
 10
1541.7114805369656
 20
33.519383998523722
 11
541.71148053696334
 21
33.519383998523722
  0
LINE
  8
_f-7_
  6
CONTINUOUS
 62
    1
 10
641.71148053696561
 20
773.51938399852372
 11
1441.7114805369656
 21
773.51938399852372
  0
LINE
  8
_f-7_
  6
CONTINUOUS
 62
    1
 10
1441.7114805369656
 20
1363.5193839985236
 11
1441.7114805369656
 21
773.51938399852372
  0
LINE
  8
_f-7_
  6
CONTINUOUS
 62
    1
 10
641.71148053696561
 20
1363.5193839985236
 11
641.71148053696561
 21
773.51938399852372
  0
LINE
  8
ADD_LINE
  6
DOT
 62
  136
 10
641.71148053696561
 20
793.51938399852372
 11
1441.7114805369656
 21
793.51938399852372
  0
LINE
  8
_f-7_
  6
CONTINUOUS
 62
    1
 10
641.71148053696561
 20
723.51938399852372
 11
641.71148053696561
 21
133.51938399852372
  0
LINE
  8
_f-7_
  6
CONTINUOUS
 62
    1
 10
1441.7114805369656
 20
723.51938399852372
 11
1441.7114805369656
 21
133.51938399852372
  0
LINE
  8
_f-5_
  6
CONTINUOUS
 62
    6
 10
641.71148053696561
 20
813.51938399852372
 11
1441.7114805369656
 21
813.51938399852372
  0
LINE
  8
ADD_LINE
  6
DOT
 62
  136
 10
661.71148053696561
 20
813.51938399852372
 11
661.71148053696561
 21
773.51938399852372
  0
LINE
  8
_f-7_
  6
CONTINUOUS
 62
    1
 10
641.71148053696561
 20
133.51938399852372
 11
1441.7114805369656
 21
133.51938399852372
  0
LINE
  8
ADD_LINE
  6
DOT
 62
  136
 10
641.71148053696561
 20
153.51938399852372
 11
1441.7114805369656
 21
153.51938399852372
  0
LINE
  8
_f-5_
  6
CONTINUOUS
 62
    6
 10
641.71148053696561
 20
173.51938399852372
 11
1441.7114805369656
 21
173.51938399852372
  0
LINE
  8
ADD_LINE
  6
DOT
 62
  136
 10
661.71148053696561
 20
173.51938399852372
 11
661.71148053696561
 21
133.51938399852372
  0
LINE
  8
_f-7_
  6
CONTINUOUS
 62
    1
 10
641.71148053696561
 20
723.51938399852372
 11
1441.7114805369656
 21
723.51938399852372
  0
LINE
  8
_f-2_
  6
CONTINUOUS
 62
    7
 10
1011.7114805369656
 20
813.51938399852372
 11
1011.7114805369656
 21
773.51938399852372
  0
LINE
  8
ADD_LINE
  6
DOT
 62
  136
 10
1026.7114805369656
 20
813.51938399852372
 11
1026.7114805369656
 21
773.51938399852372
  0
LINE
  8
ADD_LINE
  6
DOT
 62
  136
 10
876.71148053696561
 20
813.51938399852372
 11
876.71148053696561
 21
773.51938399852372
  0
TEXT
  8
_f-a_
 62
    7
 10
876.71148053696561
 20
783.51938399852372
 40
17.5
 41
1
 50
0
  1
下地：ＲＣ
  0
LINE
  8
_f-2_
  6
CONTINUOUS
 62
    7
 10
1011.7114805369656
 20
173.51938399852372
 11
1011.7114805369656
 21
133.51938399852372
  0
LINE
  8
ADD_LINE
  6
DOT
 62
  136
 10
1026.7114805369656
 20
173.51938399852372
 11
1026.7114805369656
 21
133.51938399852372
  0
LINE
  8
ADD_LINE
  6
DOT
 62
  136
 10
876.71148053696561
 20
173.51938399852372
 11
876.71148053696561
 21
133.51938399852372
  0
LINE
  8
_f-5_
  6
CONTINUOUS
 62
    6
 10
861.71148053696561
 20
813.51938399852372
 11
861.71148053696561
 21
773.51938399852372
  0
LINE
  8
_f-5_
  6
CONTINUOUS
 62
    6
 10
861.71148053696561
 20
173.51938399852372
 11
861.71148053696561
 21
133.51938399852372
  0
LINE
  8
_f-5_
  6
CONTINUOUS
 62
    6
 10
859.21148053696561
 20
813.51938399852372
 11
859.21148053696561
 21
773.51938399852372
  0
LINE
  8
_f-5_
  6
CONTINUOUS
 62
    6
 10
859.21148053696561
 20
173.51938399852372
 11
859.21148053696561
 21
133.51938399852372
  0
TEXT
  8
_f-a_
 62
    7
 10
1026.7114805369656
 20
783.51938399852372
 40
17.5
 41
1
 50
0
  1
部位：立上り角
  0
TEXT
  8
_f-a_
 62
    7
 10
1026.7114805369656
 20
143.51938399852372
 40
17.5
 41
1
 50
0
  1
部位：立上り角
  0
TEXT
  8
_f-a_
 62
    7
 10
661.71148053696561
 20
783.51938399852372
 40
20
 41
1
 50
0
  1
１２５・１２７仕様
  0
TEXT
  8
_f-a_
 62
    7
 10
661.71148053696561
 20
143.51938399852372
 40
20
 41
1
 50
0
  1
１２５・１２７仕様
  0
LINE
  8
ADD_LINE
  6
DOT
 62
  136
 10
1326.7114805369656
 20
813.51938399852372
 11
1326.7114805369656
 21
773.51938399852372
  0
LINE
  8
_f-2_
  6
CONTINUOUS
 62
    7
 10
1311.7114805369656
 20
813.51938399852372
 11
1311.7114805369656
 21
773.51938399852372
  0
LINE
  8
ADD_LINE
  6
DOT
 62
  136
 10
1221.7114805369656
 20
813.51938399852372
 11
1221.7114805369656
 21
773.51938399852372
  0
LINE
  8
_f-2_
  6
CONTINUOUS
 62
    7
 10
1206.7114805369656
 20
813.51938399852372
 11
1206.7114805369656
 21
773.51938399852372
  0
TEXT
  8
_f-a_
 62
    7
 10
1221.7114805369656
 20
783.51938399852372
 40
15
 41
1
 50
0
  1
Ｓ＝１：５
  0
TEXT
  8
_f-a_
 62
    7
 10
1326.7114805369656
 20
783.51938399852372
 40
15
 41
1
 50
0
  1
図番
  0
LINE
  8
ADD_LINE
  6
DOT
 62
  136
 10
1326.7114805369656
 20
173.51938399852372
 11
1326.7114805369656
 21
133.51938399852372
  0
LINE
  8
_f-2_
  6
CONTINUOUS
 62
    7
 10
1311.7114805369656
 20
173.51938399852372
 11
1311.7114805369656
 21
133.51938399852372
  0
LINE
  8
ADD_LINE
  6
DOT
 62
  136
 10
1221.7114805369656
 20
173.51938399852372
 11
1221.7114805369656
 21
133.51938399852372
  0
LINE
  8
_f-2_
  6
CONTINUOUS
 62
    7
 10
1206.7114805369656
 20
173.51938399852372
 11
1206.7114805369656
 21
133.51938399852372
  0
TEXT
  8
_f-a_
 62
    7
 10
1221.7114805369656
 20
143.51938399852372
 40
15
 41
1
 50
0
  1
Ｓ＝１：５
  0
TEXT
  8
_f-a_
 62
    7
 10
1326.7114805369656
 20
143.51938399852372
 40
15
 41
1
 50
0
  1
図番
  0
TEXT
  8
_f-a_
 62
    7
 10
1373.1291492610726
 20
783.51938399852372
 40
15
 41
1
 50
0
  1
３－３
  0
TEXT
  8
_f-a_
 62
    7
 10
1373.1291492610726
 20
143.51938399852372
 40
15
 41
1
 50
0
  1
３－４
  0
TEXT
  8
_f-a_
 62
    7
 10
876.71148053696561
 20
143.51938399852372
 40
17.5
 41
1
 50
0
  1
下地：ＡＬＣ
  0
LINE
  8
_2-e_con他
  6
CONTINUOUS
 62
    4
 10
716.71148053696561
 20
495.68591012787067
 11
866.71148053696561
 21
645.68591012787067
  0
LINE
  8
_2-e_con他
  6
CONTINUOUS
 62
    4
 10
716.71148053696561
 20
1135.6859101278706
 11
866.71148053696561
 21
1285.6859101278706
  0
LINE
  8
_2-e_con他
  6
CONTINUOUS
 62
    4
 10
716.71148053696561
 20
1128.6148423160039
 11
866.71148053696561
 21
1278.6148423160039
  0
LINE
  8
_2-e_con他
  6
CONTINUOUS
 62
    4
 10
716.71148053696561
 20
1121.5437745041418
 11
866.71148053696561
 21
1271.5437745041395
  0
LINE
  8
_2-e_con他
  6
CONTINUOUS
 62
    4
 10
716.71148053696561
 20
921.54377450414188
 11
866.71148053696561
 21
1071.5437745041395
  0
LINE
  8
_2-e_con他
  6
CONTINUOUS
 62
    4
 10
716.71148053696561
 20
935.68591012787067
 11
866.71148053696561
 21
1085.6859101278706
  0
LINE
  8
_2-e_con他
  6
CONTINUOUS
 62
    4
 10
716.71148053696561
 20
928.614842316004
 11
866.71148053696561
 21
1078.6148423160039
  0
LINE
  8
_2-e_con他
  6
CONTINUOUS
 62
    4
 10
1094.5449544076198
 20
913.51938399852372
 11
1244.5449544076198
 21
1063.5193839985236
  0
LINE
  8
_2-e_con他
  6
CONTINUOUS
 62
    4
 10
1108.6870900313497
 20
913.51938399852372
 11
1258.6870900313497
 21
1063.5193839985236
  0
LINE
  8
_2-e_con他
  6
CONTINUOUS
 62
    4
 10
1101.6160222194853
 20
913.51938399852372
 11
1251.6160222194853
 21
1063.5193839985236
  0
LINE
  8
_2-e_con他
  6
CONTINUOUS
 62
    4
 10
1308.6870900313497
 20
913.51938399852372
 11
1366.7114805369656
 21
971.54377450413961
  0
LINE
  8
_2-e_con他
  6
CONTINUOUS
 62
    4
 10
1301.6160222194853
 20
913.51938399852372
 11
1366.7114805369656
 21
978.614842316004
  0
LINE
  8
_2-e_con他
  6
CONTINUOUS
 62
    4
 10
1294.5449544076198
 20
913.51938399852372
 11
1366.7114805369656
 21
985.68591012787067
  0
LINE
  8
_2-d_ハッチ他
  6
CONTINUOUS
 62
    4
 10
1315.4537499283592
 20
1063.5193839985259
 11
1345.4537499283581
 21
1093.5193839985259
  0
LINE
  8
_2-d_ハッチ他
  6
CONTINUOUS
 62
    4
 10
1287.1694786808914
 20
1063.5193839985236
 11
1317.1694786808914
 21
1093.5193839985259
  0
LINE
  8
_2-d_ハッチ他
  6
CONTINUOUS
 62
    4
 10
1258.8852074334316
 20
1063.5193839985236
 11
1288.8852074334338
 21
1093.5193839985259
  0
LINE
  8
_2-d_ハッチ他
  6
CONTINUOUS
 62
    4
 10
1230.6009361859672
 20
1063.5193839985259
 11
1260.6009361859672
 21
1093.5193839985236
  0
LINE
  8
_2-d_ハッチ他
  6
CONTINUOUS
 62
    4
 10
1202.3166649385073
 20
1063.5193839985236
 11
1232.3166649385107
 21
1093.5193839985259
  0
LINE
  8
_2-d_ハッチ他
  6
CONTINUOUS
 62
    4
 10
1174.0323936910429
 20
1063.5193839985259
 11
1204.032393691044
 21
1093.5193839985259
  0
LINE
  8
_2-d_ハッチ他
  6
CONTINUOUS
 62
    4
 10
1145.748122443583
 20
1063.5193839985236
 11
1175.7481224435842
 21
1093.5193839985236
  0
LINE
  8
_2-d_ハッチ他
  6
CONTINUOUS
 62
    4
 10
1117.4638511961198
 20
1063.5193839985259
 11
1147.4638511961198
 21
1093.5193839985259
  0
LINE
  8
_2-d_ハッチ他
  6
CONTINUOUS
 62
    4
 10
1060.8953087011955
 20
1063.5193839985259
 11
1090.8953087011955
 21
1093.5193839985259
  0
LINE
  8
_2-d_ハッチ他
  6
CONTINUOUS
 62
    4
 10
1032.6110374537357
 20
1063.5193839985236
 11
1062.6110374537368
 21
1093.5193839985236
  0
LINE
  8
_2-d_ハッチ他
  6
CONTINUOUS
 62
    4
 10
1004.326766206269
 20
1063.5193839985236
 11
1034.3267662062678
 21
1093.5193839985236
  0
LINE
  8
_2-d_ハッチ他
  6
CONTINUOUS
 62
    4
 10
976.04249495881254
 20
1063.5193839985236
 11
1006.0424949588125
 21
1093.5193839985236
  0
LINE
  8
_2-d_ハッチ他
  6
CONTINUOUS
 62
    4
 10
947.75822371135496
 20
1063.5193839985236
 11
977.75822371135496
 21
1093.5193839985236
  0
LINE
  8
_2-d_ハッチ他
  6
CONTINUOUS
 62
    4
 10
919.47395246388828
 20
1063.5193839985236
 11
949.47395246388828
 21
1093.5193839985236
  0
LINE
  8
_2-d_ハッチ他
  6
CONTINUOUS
 62
    4
 10
866.71148053696334
 20
1068.7900910269223
 11
871.98218756536426
 21
1063.5193839985213
  0
LINE
  8
_2-d_ハッチ他
  6
CONTINUOUS
 62
    4
 10
898.55073006028852
 20
1093.5193839985213
 11
928.55073006028738
 21
1063.5193839985213
  0
LINE
  8
_2-d_ハッチ他
  6
CONTINUOUS
 62
    4
 10
926.83500130775292
 20
1093.5193839985236
 11
956.83500130775178
 21
1063.5193839985236
  0
LINE
  8
_2-d_ハッチ他
  6
CONTINUOUS
 62
    4
 10
955.11927255521164
 20
1093.5193839985213
 11
985.11927255521277
 21
1063.5193839985213
  0
LINE
  8
_2-d_ハッチ他
  6
CONTINUOUS
 62
    4
 10
983.40354380267718
 20
1093.5193839985236
 11
1013.4035438026795
 21
1063.5193839985213
  0
LINE
  8
_2-d_ハッチ他
  6
CONTINUOUS
 62
    4
 10
1011.6878150501359
 20
1093.5193839985213
 11
1041.6878150501359
 21
1063.5193839985213
  0
LINE
  8
_2-d_ハッチ他
  6
CONTINUOUS
 62
    4
 10
1039.9720862976003
 20
1093.5193839985236
 11
1069.9720862976026
 21
1063.5193839985213
  0
LINE
  8
_2-d_ハッチ他
  6
CONTINUOUS
 62
    4
 10
1068.2563575450602
 20
1093.5193839985213
 11
1098.2563575450602
 21
1063.5193839985236
  0
LINE
  8
_2-d_ハッチ他
  6
CONTINUOUS
 62
    4
 10
1124.8249000399844
 20
1093.5193839985213
 11
1154.8249000399844
 21
1063.5193839985236
  0
LINE
  8
_2-d_ハッチ他
  6
CONTINUOUS
 62
    4
 10
1153.109171287442
 20
1093.5193839985236
 11
1183.109171287442
 21
1063.5193839985236
  0
LINE
  8
_2-d_ハッチ他
  6
CONTINUOUS
 62
    4
 10
1181.3934425349087
 20
1093.5193839985236
 11
1211.3934425349087
 21
1063.5193839985236
  0
LINE
  8
_2-d_ハッチ他
  6
CONTINUOUS
 62
    4
 10
1209.6777137823663
 20
1093.5193839985236
 11
1239.6777137823663
 21
1063.5193839985236
  0
LINE
  8
_2-d_ハッチ他
  6
CONTINUOUS
 62
    4
 10
1237.9619850298329
 20
1093.5193839985236
 11
1267.9619850298329
 21
1063.5193839985236
  0
LINE
  8
_2-d_ハッチ他
  6
CONTINUOUS
 62
    4
 10
1266.2462562772928
 20
1093.5193839985191
 11
1296.2462562772928
 21
1063.5193839985213
  0
LINE
  8
_2-d_ハッチ他
  6
CONTINUOUS
 62
    4
 10
1294.5305275247572
 20
1093.5193839985236
 11
1324.5305275247572
 21
1063.5193839985236
  0
LINE
  8
_2-d_ハッチ他
  6
CONTINUOUS
 62
    4
 10
1322.814798772217
 20
1093.5193839985213
 11
1352.8147987722159
 21
1063.5193839985213
  0
LINE
  8
_2-d_ハッチ他
  6
CONTINUOUS
 62
    4
 10
1089.1795799486599
 20
1063.5193839985236
 11
1119.1795799486599
 21
1093.5193839985236
  0
LINE
  8
_2-d_ハッチ他
  6
CONTINUOUS
 62
    4
 10
1096.5406287925268
 20
1093.5193839985213
 11
1126.5406287925268
 21
1063.5193839985213
  0
LINE
  8
_2-d_ハッチ他
  6
CONTINUOUS
 62
    4
 10
1343.7380211758157
 20
1063.5193839985259
 11
1366.7114805369656
 21
1086.4928433596747
  0
LINE
  8
_2-d_ハッチ他
  6
CONTINUOUS
 62
    4
 10
1351.0990700196814
 20
1093.5193839985236
 11
1366.7114805369656
 21
1077.9069734812383
  0
LINE
  8
_2-b_dim
  6
CONTINUOUS
 62
    7
 10
962.71148053695788
 20
1076.367475219909
 11
962.71148053695788
 21
1036.3371055069915
  0
POINT
  8
_2-b_dim
 62
    1
 10
962.71148053695788
 20
1036.3371055069915
  0
LINE
  8
_2-b_dim
  6
CONTINUOUS
 62
    7
 10
918.77365836345325
 20
1036.3371055069915
 11
962.71148053695788
 21
1036.3371055069915
  0
POINT
  8
_2-b_dim
 62
    1
 10
918.77365836345325
 20
1036.3371055069915
  0
LINE
  8
_2-b_dim
  6
CONTINUOUS
 62
    7
 10
918.77365836345325
 20
1076.367475219909
 11
918.77365836345325
 21
1036.3371055069915
  0
ARC
  8
_2-4_out_line
  6
CONTINUOUS
 62
    2
 10
874.71148053696515
 20
1120.0193839985291
 40
3
 50
180
 51
270
  0
LINE
  8
_2-4_out_line
  6
CONTINUOUS
 62
    2
 10
871.71148053696561
 20
1120.0193839985291
 11
871.71148053696561
 21
1313.5193839985236
  0
LINE
  8
_2-4_out_line
  6
CONTINUOUS
 62
    2
 10
962.71148053695788
 20
1108.5193839985236
 11
1366.7114805369656
 21
1108.5193839985236
  0
LINE
  8
_2-4_out_line
  6
CONTINUOUS
 62
    2
 10
962.71148053695788
 20
1108.5193839985236
 11
962.71148053695788
 21
1113.5193839985236
  0
LINE
  8
_2-d_ハッチ他
  6
CONTINUOUS
 62
    4
 10
1314.524403955023
 20
1093.5193839985259
 11
1324.524403955023
 21
1103.5193839985259
  0
LINE
  8
_2-d_ハッチ他
  6
CONTINUOUS
 62
    4
 10
1300.3822683312919
 20
1093.5193839985282
 11
1310.3822683312919
 21
1103.5193839985282
  0
LINE
  8
_2-d_ハッチ他
  6
CONTINUOUS
 62
    4
 10
1286.2401327075563
 20
1093.5193839985259
 11
1296.2401327075563
 21
1103.5193839985259
  0
LINE
  8
_2-d_ハッチ他
  6
CONTINUOUS
 62
    4
 10
1272.0979970838321
 20
1093.5193839985259
 11
1282.0979970838321
 21
1103.5193839985259
  0
LINE
  8
_2-d_ハッチ他
  6
CONTINUOUS
 62
    4
 10
1257.9558614600987
 20
1093.5193839985259
 11
1267.9558614600987
 21
1103.5193839985259
  0
LINE
  8
_2-d_ハッチ他
  6
CONTINUOUS
 62
    4
 10
1243.8137258363654
 20
1093.5193839985259
 11
1253.8137258363677
 21
1103.5193839985282
  0
LINE
  8
_2-d_ハッチ他
  6
CONTINUOUS
 62
    4
 10
1229.6715902126321
 20
1093.5193839985259
 11
1239.6715902126321
 21
1103.5193839985259
  0
LINE
  8
_2-d_ハッチ他
  6
CONTINUOUS
 62
    4
 10
1215.5294545889078
 20
1093.5193839985259
 11
1225.5294545889078
 21
1103.5193839985259
  0
LINE
  8
_2-d_ハッチ他
  6
CONTINUOUS
 62
    4
 10
1201.3873189651756
 20
1093.5193839985282
 11
1211.3873189651756
 21
1103.5193839985282
  0
LINE
  8
_2-d_ハッチ他
  6
CONTINUOUS
 62
    4
 10
1187.2451833414411
 20
1093.5193839985259
 11
1197.2451833414411
 21
1103.5193839985259
  0
LINE
  8
_2-d_ハッチ他
  6
CONTINUOUS
 62
    4
 10
1173.1030477177055
 20
1093.5193839985236
 11
1183.1030477177067
 21
1103.5193839985236
  0
LINE
  8
_2-d_ハッチ他
  6
CONTINUOUS
 62
    4
 10
1158.9609120939836
 20
1093.5193839985259
 11
1168.9609120939836
 21
1103.5193839985259
  0
LINE
  8
_2-d_ハッチ他
  6
CONTINUOUS
 62
    4
 10
1144.8187764702514
 20
1093.5193839985282
 11
1154.8187764702514
 21
1103.5193839985282
  0
LINE
  8
_2-d_ハッチ他
  6
CONTINUOUS
 62
    4
 10
1130.6766408465169
 20
1093.5193839985259
 11
1140.6766408465169
 21
1103.5193839985259
  0
LINE
  8
_2-d_ハッチ他
  6
CONTINUOUS
 62
    4
 10
1116.5345052227915
 20
1093.5193839985236
 11
1126.5345052227915
 21
1103.5193839985236
  0
LINE
  8
_2-d_ハッチ他
  6
CONTINUOUS
 62
    4
 10
1102.3923695990593
 20
1093.5193839985259
 11
1112.3923695990593
 21
1103.5193839985259
  0
LINE
  8
_2-d_ハッチ他
  6
CONTINUOUS
 62
    4
 10
1088.2502339753282
 20
1093.5193839985282
 11
1098.2502339753271
 21
1103.5193839985282
  0
LINE
  8
_2-d_ハッチ他
  6
CONTINUOUS
 62
    4
 10
1074.1080983515926
 20
1093.5193839985259
 11
1084.1080983515926
 21
1103.5193839985259
  0
LINE
  8
_2-d_ハッチ他
  6
CONTINUOUS
 62
    4
 10
1045.8238271041362
 20
1093.5193839985282
 11
1055.823827104135
 21
1103.5193839985259
  0
LINE
  8
_2-d_ハッチ他
  6
CONTINUOUS
 62
    4
 10
1031.6816914804028
 20
1093.5193839985282
 11
1041.681691480404
 21
1103.5193839985282
  0
LINE
  8
_2-d_ハッチ他
  6
CONTINUOUS
 62
    4
 10
1017.5395558566684
 20
1093.5193839985259
 11
1027.5395558566684
 21
1103.5193839985259
  0
LINE
  8
_2-d_ハッチ他
  6
CONTINUOUS
 62
    4
 10
1003.3974202329441
 20
1093.5193839985259
 11
1013.3974202329441
 21
1103.5193839985259
  0
LINE
  8
_2-d_ハッチ他
  6
CONTINUOUS
 62
    4
 10
989.25528460921078
 20
1093.5193839985259
 11
999.25528460921078
 21
1103.5193839985259
  0
LINE
  8
_2-d_ハッチ他
  6
CONTINUOUS
 62
    4
 10
975.11314898547744
 20
1093.5193839985259
 11
985.11314898547971
 21
1103.5193839985282
  0
LINE
  8
_2-d_ハッチ他
  6
CONTINUOUS
 62
    4
 10
960.9710133617441
 20
1093.5193839985259
 11
970.9710133617441
 21
1103.5193839985259
  0
LINE
  8
_2-d_ハッチ他
  6
CONTINUOUS
 62
    4
 10
946.82887773801986
 20
1093.5193839985259
 11
956.82887773801986
 21
1103.5193839985259
  0
LINE
  8
_2-d_ハッチ他
  6
CONTINUOUS
 62
    4
 10
932.68674211428765
 20
1093.5193839985282
 11
942.68674211428765
 21
1103.5193839985282
  0
LINE
  8
_2-d_ハッチ他
  6
CONTINUOUS
 62
    4
 10
918.54460649055318
 20
1093.5193839985259
 11
928.54460649055318
 21
1103.5193839985259
  0
LINE
  8
_2-d_ハッチ他
  6
CONTINUOUS
 62
    4
 10
904.40247086682098
 20
1093.5193839985282
 11
914.40247086681984
 21
1103.5193839985259
  0
LINE
  8
_2-d_ハッチ他
  6
CONTINUOUS
 62
    4
 10
1059.965962727857
 20
1093.5193839985236
 11
1069.965962727857
 21
1103.5193839985236
  0
LINE
  8
_2-d_ハッチ他
  6
CONTINUOUS
 62
    4
 10
876.11819961936339
 20
1093.5193839985282
 11
886.11819961936339
 21
1103.5193839985282
  0
LINE
  8
_2-d_ハッチ他
  6
CONTINUOUS
 62
    4
 10
868.92651863034735
 20
1100.4698386332443
 11
871.97606399562892
 21
1103.5193839985259
  0
LINE
  8
_2-d_ハッチ他
  6
CONTINUOUS
 62
    4
 10
1356.9508108262139
 20
1093.5193839985282
 11
1366.9508108262139
 21
1103.5193839985282
  0
LINE
  8
_2-d_ハッチ他
  6
CONTINUOUS
 62
    4
 10
1342.8086752024806
 20
1093.5193839985259
 11
1352.8086752024828
 21
1103.5193839985282
  0
LINE
  8
_2-d_ハッチ他
  6
CONTINUOUS
 62
    4
 10
1328.6665395787472
 20
1093.5193839985282
 11
1338.6665395787472
 21
1103.5193839985282
  0
TEXT
  8
_2-a_moji
 62
    7
 10
1109.7957406036082
 20
1203.8082626187615
 40
15
 41
1
 50
0
  1
塩ビシート 接着工法
  0
TEXT
  8
_2-a_moji
 62
    7
 10
1109.7957406036082
 20
1228.8082626187615
 40
15
 41
1
 50
0
  1
プルーフシーラー
  0
LINE
  8
_2-a_moji
  6
CONTINUOUS
 62
    7
 10
1099.7957406036082
 20
1186.3082626187615
 11
1063.2169283965513
 21
1186.3082626187615
  0
LINE
  8
_2-a_moji
  6
CONTINUOUS
 62
    7
 10
1099.7957406036082
 20
1211.3082626187615
 11
1077.650685126292
 21
1211.3082626187615
  0
LINE
  8
_2-a_moji
  6
CONTINUOUS
 62
    7
 10
1002.7353142828733
 20
1081.5510340500969
 11
1077.650685126292
 21
1211.3082626187615
  0
LINE
  8
_2-a_moji
  6
CONTINUOUS
 62
    7
 10
1008.9490225311395
 20
1261.3082626187615
 11
971.59328544361961
 21
1261.3082626187615
  0
TEXT
  8
_2-a_moji
 62
    7
 10
1018.9490225311395
 20
1253.8082626187615
 40
15
 41
1
 50
0
  1
ＢＰ－Ｈ１５
  0
LINE
  8
_2-a_moji
  6
CONTINUOUS
 62
    7
 10
1099.7957406036082
 20
1161.3082626187615
 11
1048.7831716668106
 21
1161.3082626187615
  0
LINE
  8
_2-a_moji
  6
CONTINUOUS
 62
    7
 10
885.40131118520867
 20
1112.0193839985272
 11
971.59328544361961
 21
1261.3082626187615
  0
LINE
  8
_2-a_moji
  6
CONTINUOUS
 62
    7
 10
961.94501388519234
 20
1116.6748110266785
 11
1031.015419365966
 21
1236.3082626187615
  0
LINE
  8
_2-a_moji
  6
CONTINUOUS
 62
    7
 10
1099.7957406036082
 20
1236.3082626187615
 11
1031.015419365966
 21
1236.3082626187615
  0
TEXT
  8
_2-a_moji
 62
    7
 10
1109.7957406036082
 20
1153.8082626187615
 40
15
 41
1
 50
0
  1
断熱材
  0
LINE
  8
_2-a_moji
  6
CONTINUOUS
 62
    7
 10
1008.9490225311395
 20
1311.3082626187615
 11
930.81966029845466
 21
1311.3082626187615
  0
TEXT
  8
_2-a_moji
 62
    7
 10
1018.9490225311395
 20
1303.8082626187615
 40
15
 41
1
 50
0
  1
塩ビシート 接着工法
  0
LINE
  8
_2-a_moji
  6
CONTINUOUS
 62
    7
 10
871.71148053696561
 20
1208.9298921289496
 11
930.81966029845466
 21
1311.3082626187615
  0
LINE
  8
_2-e_con他
  6
CONTINUOUS
 62
    4
 10
716.71148053696561
 20
488.614842316004
 11
866.71148053696561
 21
638.614842316004
  0
LINE
  8
_2-e_con他
  6
CONTINUOUS
 62
    4
 10
716.71148053696561
 20
295.68591012787067
 11
866.71148053696561
 21
445.68591012787067
  0
LINE
  8
_2-e_con他
  6
CONTINUOUS
 62
    4
 10
716.71148053696561
 20
288.614842316004
 11
866.71148053696561
 21
438.614842316004
  0
LINE
  8
_2-e_con他
  6
CONTINUOUS
 62
    4
 10
1094.5449544076198
 20
273.51938399852372
 11
1244.5449544076198
 21
423.51938399852372
  0
LINE
  8
_2-e_con他
  6
CONTINUOUS
 62
    4
 10
1101.6160222194853
 20
273.51938399852372
 11
1251.6160222194853
 21
423.51938399852372
  0
LINE
  8
_2-e_con他
  6
CONTINUOUS
 62
    4
 10
1301.6160222194853
 20
273.51938399852372
 11
1366.7114805369656
 21
338.614842316004
  0
LINE
  8
_2-e_con他
  6
CONTINUOUS
 62
    4
 10
1294.5449544076198
 20
273.51938399852372
 11
1366.7114805369656
 21
345.68591012787067
  0
LINE
  8
_2-d_ハッチ他
  6
CONTINUOUS
 62
    4
 10
1315.4537499283592
 20
423.519383998526
 11
1345.4537499283581
 21
453.51938399852372
  0
LINE
  8
_2-d_ハッチ他
  6
CONTINUOUS
 62
    4
 10
1287.1694786808914
 20
423.51938399852372
 11
1317.1694786808914
 21
453.51938399852372
  0
LINE
  8
_2-d_ハッチ他
  6
CONTINUOUS
 62
    4
 10
1258.8852074334316
 20
423.51938399852145
 11
1288.8852074334338
 21
453.51938399852372
  0
LINE
  8
_2-d_ハッチ他
  6
CONTINUOUS
 62
    4
 10
1230.6009361859672
 20
423.51938399852372
 11
1260.6009361859672
 21
453.51938399852372
  0
LINE
  8
_2-d_ハッチ他
  6
CONTINUOUS
 62
    4
 10
1202.3166649385073
 20
423.51938399852145
 11
1232.3166649385107
 21
453.519383998526
  0
LINE
  8
_2-d_ハッチ他
  6
CONTINUOUS
 62
    4
 10
1174.0323936910429
 20
423.51938399852372
 11
1204.032393691044
 21
453.519383998526
  0
LINE
  8
_2-d_ハッチ他
  6
CONTINUOUS
 62
    4
 10
1145.748122443583
 20
423.51938399852145
 11
1175.7481224435842
 21
453.51938399852372
  0
LINE
  8
_2-d_ハッチ他
  6
CONTINUOUS
 62
    4
 10
1117.4638511961198
 20
423.519383998526
 11
1147.4638511961198
 21
453.519383998526
  0
LINE
  8
_2-d_ハッチ他
  6
CONTINUOUS
 62
    4
 10
1060.8953087011955
 20
423.519383998526
 11
1090.8953087011955
 21
453.519383998526
  0
LINE
  8
_2-d_ハッチ他
  6
CONTINUOUS
 62
    4
 10
1032.6110374537357
 20
423.51938399852372
 11
1062.6110374537368
 21
453.51938399852372
  0
LINE
  8
_2-d_ハッチ他
  6
CONTINUOUS
 62
    4
 10
1004.326766206269
 20
423.51938399852372
 11
1034.3267662062678
 21
453.51938399852145
  0
LINE
  8
_2-d_ハッチ他
  6
CONTINUOUS
 62
    4
 10
976.04249495881254
 20
423.51938399852372
 11
1006.0424949588125
 21
453.51938399852372
  0
LINE
  8
_2-d_ハッチ他
  6
CONTINUOUS
 62
    4
 10
891.1896812164216
 20
423.51938399852372
 11
921.1896812164216
 21
453.51938399852372
  0
LINE
  8
_2-d_ハッチ他
  6
CONTINUOUS
 62
    4
 10
866.71148053696675
 20
427.32545456652645
 11
892.90540996896402
 21
453.51938399852372
  0
LINE
  8
_2-d_ハッチ他
  6
CONTINUOUS
 62
    4
 10
866.71148053696334
 20
428.79009102692237
 11
871.98218756536426
 21
423.51938399852145
  0
LINE
  8
_2-d_ハッチ他
  6
CONTINUOUS
 62
    4
 10
870.26645881282866
 20
453.51938399852372
 11
900.2664588128298
 21
423.51938399852145
  0
LINE
  8
_2-d_ハッチ他
  6
CONTINUOUS
 62
    4
 10
898.55073006028852
 20
453.51938399852145
 11
928.55073006028738
 21
423.51938399852145
  0
LINE
  8
_2-d_ハッチ他
  6
CONTINUOUS
 62
    4
 10
955.11927255521164
 20
453.51938399852145
 11
985.11927255521277
 21
423.51938399852145
  0
LINE
  8
_2-d_ハッチ他
  6
CONTINUOUS
 62
    4
 10
983.40354380267718
 20
453.51938399852372
 11
1013.4035438026795
 21
423.51938399852145
  0
LINE
  8
_2-d_ハッチ他
  6
CONTINUOUS
 62
    4
 10
1011.6878150501359
 20
453.51938399852145
 11
1041.6878150501359
 21
423.51938399852145
  0
LINE
  8
_2-d_ハッチ他
  6
CONTINUOUS
 62
    4
 10
1039.9720862976003
 20
453.51938399852372
 11
1069.9720862976026
 21
423.51938399852145
  0
LINE
  8
_2-d_ハッチ他
  6
CONTINUOUS
 62
    4
 10
1068.2563575450602
 20
453.51938399852145
 11
1098.2563575450602
 21
423.51938399852145
  0
LINE
  8
_2-d_ハッチ他
  6
CONTINUOUS
 62
    4
 10
1124.8249000399844
 20
453.51938399852145
 11
1154.8249000399844
 21
423.51938399852145
  0
LINE
  8
_2-d_ハッチ他
  6
CONTINUOUS
 62
    4
 10
1153.109171287442
 20
453.51938399852145
 11
1183.109171287442
 21
423.51938399852145
  0
LINE
  8
_2-d_ハッチ他
  6
CONTINUOUS
 62
    4
 10
1181.3934425349087
 20
453.51938399852145
 11
1211.3934425349087
 21
423.51938399852145
  0
LINE
  8
_2-d_ハッチ他
  6
CONTINUOUS
 62
    4
 10
1209.6777137823663
 20
453.51938399852145
 11
1239.6777137823663
 21
423.51938399852145
  0
LINE
  8
_2-d_ハッチ他
  6
CONTINUOUS
 62
    4
 10
1237.9619850298329
 20
453.51938399852145
 11
1267.9619850298329
 21
423.51938399852145
  0
LINE
  8
_2-d_ハッチ他
  6
CONTINUOUS
 62
    4
 10
1266.2462562772928
 20
453.51938399851917
 11
1296.2462562772928
 21
423.51938399851917
  0
LINE
  8
_2-d_ハッチ他
  6
CONTINUOUS
 62
    4
 10
1294.5305275247572
 20
453.51938399852145
 11
1324.5305275247572
 21
423.51938399852145
  0
LINE
  8
_2-d_ハッチ他
  6
CONTINUOUS
 62
    4
 10
1322.814798772217
 20
453.51938399851917
 11
1352.8147987722159
 21
423.51938399852145
  0
LINE
  8
_2-d_ハッチ他
  6
CONTINUOUS
 62
    4
 10
1089.1795799486599
 20
423.51938399852372
 11
1119.1795799486599
 21
453.51938399852372
  0
LINE
  8
_2-d_ハッチ他
  6
CONTINUOUS
 62
    4
 10
1096.5406287925268
 20
453.51938399852145
 11
1126.5406287925268
 21
423.51938399852145
  0
LINE
  8
_2-d_ハッチ他
  6
CONTINUOUS
 62
    4
 10
1343.7380211758157
 20
423.51938399852372
 11
1366.7114805369656
 21
446.49284335967479
  0
LINE
  8
_2-d_ハッチ他
  6
CONTINUOUS
 62
    4
 10
1351.0990700196814
 20
453.51938399852145
 11
1366.7114805369656
 21
437.90697348123842
  0
LINE
  8
_2-d_ハッチ他
  6
CONTINUOUS
 62
    4
 10
1314.524403955023
 20
453.519383998526
 11
1324.524403955023
 21
463.519383998526
  0
LINE
  8
_2-d_ハッチ他
  6
CONTINUOUS
 62
    4
 10
1300.3822683312919
 20
453.519383998526
 11
1310.3822683312919
 21
463.519383998526
  0
LINE
  8
_2-d_ハッチ他
  6
CONTINUOUS
 62
    4
 10
1286.2401327075563
 20
453.519383998526
 11
1296.2401327075563
 21
463.519383998526
  0
LINE
  8
_2-d_ハッチ他
  6
CONTINUOUS
 62
    4
 10
1272.0979970838321
 20
453.51938399852372
 11
1282.0979970838321
 21
463.51938399852372
  0
LINE
  8
_2-d_ハッチ他
  6
CONTINUOUS
 62
    4
 10
1257.9558614600987
 20
453.519383998526
 11
1267.9558614600987
 21
463.519383998526
  0
LINE
  8
_2-d_ハッチ他
  6
CONTINUOUS
 62
    4
 10
1243.8137258363654
 20
453.51938399852372
 11
1253.8137258363677
 21
463.519383998526
  0
LINE
  8
_2-d_ハッチ他
  6
CONTINUOUS
 62
    4
 10
1229.6715902126321
 20
453.519383998526
 11
1239.6715902126321
 21
463.519383998526
  0
LINE
  8
_2-d_ハッチ他
  6
CONTINUOUS
 62
    4
 10
1215.5294545889078
 20
453.519383998526
 11
1225.5294545889078
 21
463.519383998526
  0
LINE
  8
_2-d_ハッチ他
  6
CONTINUOUS
 62
    4
 10
1201.3873189651756
 20
453.519383998526
 11
1211.3873189651756
 21
463.519383998526
  0
LINE
  8
_2-d_ハッチ他
  6
CONTINUOUS
 62
    4
 10
1187.2451833414411
 20
453.51938399852372
 11
1197.2451833414411
 21
463.51938399852372
  0
LINE
  8
_2-d_ハッチ他
  6
CONTINUOUS
 62
    4
 10
1173.1030477177055
 20
453.51938399852372
 11
1183.1030477177067
 21
463.51938399852372
  0
LINE
  8
_2-d_ハッチ他
  6
CONTINUOUS
 62
    4
 10
1158.9609120939836
 20
453.519383998526
 11
1168.9609120939836
 21
463.519383998526
  0
LINE
  8
_2-d_ハッチ他
  6
CONTINUOUS
 62
    4
 10
1144.8187764702514
 20
453.519383998526
 11
1154.8187764702514
 21
463.519383998526
  0
LINE
  8
_2-d_ハッチ他
  6
CONTINUOUS
 62
    4
 10
1130.6766408465169
 20
453.519383998526
 11
1140.6766408465169
 21
463.51938399852372
  0
LINE
  8
_2-d_ハッチ他
  6
CONTINUOUS
 62
    4
 10
1116.5345052227915
 20
453.51938399852372
 11
1126.5345052227915
 21
463.51938399852372
  0
LINE
  8
_2-d_ハッチ他
  6
CONTINUOUS
 62
    4
 10
1102.3923695990593
 20
453.519383998526
 11
1112.3923695990593
 21
463.519383998526
  0
LINE
  8
_2-d_ハッチ他
  6
CONTINUOUS
 62
    4
 10
1088.2502339753282
 20
453.519383998526
 11
1098.2502339753271
 21
463.519383998526
  0
LINE
  8
_2-d_ハッチ他
  6
CONTINUOUS
 62
    4
 10
1074.1080983515926
 20
453.519383998526
 11
1084.1080983515926
 21
463.519383998526
  0
LINE
  8
_2-d_ハッチ他
  6
CONTINUOUS
 62
    4
 10
1045.8238271041362
 20
453.519383998526
 11
1055.823827104135
 21
463.519383998526
  0
LINE
  8
_2-d_ハッチ他
  6
CONTINUOUS
 62
    4
 10
1031.6816914804028
 20
453.519383998526
 11
1041.681691480404
 21
463.519383998526
  0
LINE
  8
_2-d_ハッチ他
  6
CONTINUOUS
 62
    4
 10
1017.5395558566684
 20
453.519383998526
 11
1027.5395558566684
 21
463.519383998526
  0
LINE
  8
_2-d_ハッチ他
  6
CONTINUOUS
 62
    4
 10
1003.3974202329441
 20
453.51938399852372
 11
1013.3974202329441
 21
463.51938399852372
  0
LINE
  8
_2-d_ハッチ他
  6
CONTINUOUS
 62
    4
 10
989.25528460921078
 20
453.519383998526
 11
999.25528460921078
 21
463.519383998526
  0
LINE
  8
_2-d_ハッチ他
  6
CONTINUOUS
 62
    4
 10
975.11314898547744
 20
453.51938399852372
 11
985.11314898547971
 21
463.519383998526
  0
LINE
  8
_2-d_ハッチ他
  6
CONTINUOUS
 62
    4
 10
960.9710133617441
 20
453.519383998526
 11
970.9710133617441
 21
463.519383998526
  0
LINE
  8
_2-d_ハッチ他
  6
CONTINUOUS
 62
    4
 10
932.68674211428765
 20
453.519383998526
 11
942.68674211428765
 21
463.519383998526
  0
LINE
  8
_2-d_ハッチ他
  6
CONTINUOUS
 62
    4
 10
918.54460649055318
 20
453.51938399852372
 11
928.54460649055318
 21
463.51938399852372
  0
LINE
  8
_2-d_ハッチ他
  6
CONTINUOUS
 62
    4
 10
904.40247086682098
 20
453.519383998526
 11
914.40247086681984
 21
463.519383998526
  0
LINE
  8
_2-d_ハッチ他
  6
CONTINUOUS
 62
    4
 10
1059.965962727857
 20
453.51938399852372
 11
1069.965962727857
 21
463.51938399852372
  0
LINE
  8
_2-d_ハッチ他
  6
CONTINUOUS
 62
    4
 10
876.11819961936339
 20
453.519383998526
 11
886.11819961936339
 21
463.519383998526
  0
LINE
  8
_2-d_ハッチ他
  6
CONTINUOUS
 62
    4
 10
1356.9508108262139
 20
453.519383998526
 11
1366.9508108262139
 21
463.519383998526
  0
LINE
  8
_2-d_ハッチ他
  6
CONTINUOUS
 62
    4
 10
1342.8086752024806
 20
453.519383998526
 11
1352.8086752024828
 21
463.51938399852827
  0
LINE
  8
_2-d_ハッチ他
  6
CONTINUOUS
 62
    4
 10
1328.6665395787472
 20
453.519383998526
 11
1338.6665395787472
 21
463.519383998526
  0
LINE
  8
_2-a_moji
  6
CONTINUOUS
 62
    7
 10
1008.9490225311395
 20
671.30826261876166
 11
930.81966029845466
 21
671.30826261876166
  0
TEXT
  8
_2-a_moji
 62
    7
 10
1018.9490225311395
 20
663.80826261876166
 40
15
 41
1
 50
0
  1
塩ビシート 接着工法
  0
LINE
  8
_2-a_moji
  6
CONTINUOUS
 62
    7
 10
871.71148053696561
 20
568.92989212894975
 11
930.81966029845466
 21
671.30826261876166
  0
ARC
  8
_2-4_out_line
  6
CONTINUOUS
 62
    2
 10
880.81381653696531
 20
482.59851599852311
 40
5.5973740000000021
 50
183.57409700000002
 51
266.63765700000005
  0
LINE
  8
_2-b_dim
  6
CONTINUOUS
 62
    7
 10
1016.0749850316197
 20
436.36747521990912
 11
1016.0749850316197
 21
396.33710550698936
  0
POINT
  8
_2-b_dim
 62
    1
 10
1016.0749850316197
 20
396.33710550698936
  0
LINE
  8
_2-b_dim
  6
CONTINUOUS
 62
    7
 10
972.13716285811506
 20
396.33710550698936
 11
1016.0749850316197
 21
396.33710550698936
  0
POINT
  8
_2-b_dim
 62
    1
 10
972.13716285811506
 20
396.33710550698936
  0
LINE
  8
_2-b_dim
  6
CONTINUOUS
 62
    7
 10
972.13716285811506
 20
436.36747521990912
 11
972.13716285811506
 21
396.33710550698936
  0
LINE
  8
_2-d_ハッチ他
  6
CONTINUOUS
 62
    4
 10
866.71148053696561
 20
458.25480053986269
 11
871.97606399562892
 21
463.51938399852372
  0
LINE
  8
_2-d_ハッチ他
  6
CONTINUOUS
 62
    4
 10
890.26033524309446
 20
453.51938399852372
 11
900.2603352430956
 21
463.519383998526
  0
LINE
  8
_2-4_out_line
  6
CONTINUOUS
 62
    2
 10
1016.0749850316197
 20
468.51938399852372
 11
1366.7114805369656
 21
468.51938399852372
  0
LINE
  8
_2-4_out_line
  6
CONTINUOUS
 62
    2
 10
1016.0749850316197
 20
468.51938399852372
 11
1016.0749850316197
 21
473.51938399852372
  0
TEXT
  8
_2-a_moji
 62
    7
 10
1165.1695927997057
 20
563.80826261876166
 40
15
 41
1
 50
0
  1
塩ビシート 接着工法
  0
TEXT
  8
_2-a_moji
 62
    7
 10
1165.1695927997057
 20
588.80826261876166
 40
15
 41
1
 50
0
  1
プルーフシーラー
  0
LINE
  8
_2-a_moji
  6
CONTINUOUS
 62
    7
 10
1155.1695927997057
 20
546.30826261876166
 11
1118.5907805926488
 21
546.30826261876166
  0
LINE
  8
_2-a_moji
  6
CONTINUOUS
 62
    7
 10
1155.1695927997057
 20
571.30826261876166
 11
1133.0245373223895
 21
571.30826261876166
  0
LINE
  8
_2-a_moji
  6
CONTINUOUS
 62
    7
 10
1155.1695927997057
 20
521.30826261876166
 11
1104.1570238629081
 21
521.30826261876166
  0
LINE
  8
_2-a_moji
  6
CONTINUOUS
 62
    7
 10
1155.1695927997057
 20
596.30826261876166
 11
1086.3892715620634
 21
596.30826261876166
  0
TEXT
  8
_2-a_moji
 62
    7
 10
1165.1695927997057
 20
513.80826261876166
 40
15
 41
1
 50
0
  1
断熱材
  0
LINE
  8
_2-a_moji
  6
CONTINUOUS
 62
    7
 10
1058.1091664789708
 20
441.55103405009697
 11
1133.0245373223895
 21
571.30826261876166
  0
LINE
  8
_2-a_moji
  6
CONTINUOUS
 62
    7
 10
1017.3188660812898
 20
476.67481102667864
 11
1086.3892715620634
 21
596.30826261876166
  0
LINE
  8
_2-a_moji
  6
CONTINUOUS
 62
    7
 10
1064.3228747272369
 20
621.30826261876166
 11
1015.086157858178
 21
621.30826261876166
  0
LINE
  8
_2-a_moji
  6
CONTINUOUS
 62
    7
 10
928.89418359976708
 20
472.01938399852509
 11
1015.086157858178
 21
621.30826261876166
  0
TEXT
  8
_2-a_moji
 62
    7
 10
1074.3228747272369
 20
613.80826261876166
 40
15
 41
1
 50
0
  1
ＢＰ－Ｈ１８
  0
LINE
  8
_2-3_
  6
CONTINUOUS
 62
    3
 10
1016.7114805369656
 20
913.51938399852372
 11
1366.7114805369656
 21
913.51938399852372
  0
LINE
  8
_2-3_
  6
CONTINUOUS
 62
    3
 10
1016.7114805369656
 20
913.51938399852372
 11
1016.7114805369656
 21
863.51938399852372
  0
LINE
  8
_2-3_
  6
CONTINUOUS
 62
    3
 10
716.71148053696561
 20
1313.5193839985236
 11
716.71148053696561
 21
863.51938399852372
  0
LINE
  8
_2-3_
  6
CONTINUOUS
 62
    3
 10
716.71148053696561
 20
673.51938399852372
 11
716.71148053696561
 21
223.51938399852372
  0
LINE
  8
_2-a_moji
  6
CONTINUOUS
 62
    7
 10
934.39823100025683
 20
992.58055988868421
 11
907.7056213590331
 21
992.58055988868421
  0
LINE
  8
_2-a_moji
  6
CONTINUOUS
 62
    7
 10
891.26522065362315
 20
1021.0561692072457
 11
907.7056213590331
 21
992.58055988868421
  0
LINE
  8
_2-a_moji
  6
CONTINUOUS
 62
    7
 10
991.26304146718985
 20
351.78140537959109
 11
964.57043182596612
 21
351.78140537959109
  0
LINE
  8
_2-a_moji
  6
CONTINUOUS
 62
    7
 10
948.13003112055617
 20
380.2570146981526
 11
964.57043182596612
 21
351.78140537959109
  0
LINE
  8
_2-3_
  6
CONTINUOUS
 62
    3
 10
866.71148053696561
 20
273.51938399852372
 11
1366.7114805369656
 21
273.51938399852372
  0
LINE
  8
_2-e_con他
  6
CONTINUOUS
 62
    4
 10
844.5449544076198
 20
223.51938399852372
 11
866.71148053696561
 21
245.6859101278684
  0
LINE
  8
_2-e_con他
  6
CONTINUOUS
 62
    4
 10
851.61602221948533
 20
223.51938399852372
 11
866.71148053696561
 21
238.614842316004
  0
LINE
  8
_2-e_con他
  6
CONTINUOUS
 62
    4
 10
858.68709003134859
 20
863.51938399852372
 11
977.24158414850854
 21
982.07387811568481
  0
LINE
  8
_2-e_con他
  6
CONTINUOUS
 62
    4
 10
999.25928774945623
 20
1004.0915817166325
 11
1058.6870900313497
 21
1063.5193839985236
  0
LINE
  8
_2-e_con他
  6
CONTINUOUS
 62
    4
 10
844.5449544076198
 20
863.51938399852372
 11
963.09944852477975
 21
982.07387811568481
  0
LINE
  8
_2-e_con他
  6
CONTINUOUS
 62
    4
 10
985.11715212572744
 20
1004.0915817166325
 11
1044.5449544076198
 21
1063.5193839985236
  0
LINE
  8
_2-e_con他
  6
CONTINUOUS
 62
    4
 10
851.61602221948533
 20
863.51938399852372
 11
970.17051633664414
 21
982.07387811568481
  0
LINE
  8
_2-e_con他
  6
CONTINUOUS
 62
    4
 10
992.18821993759298
 20
1004.0915817166325
 11
1051.6160222194853
 21
1063.5193839985236
  0
LINE
  8
_2-2_in_line
  6
CONTINUOUS
 62
    7
 10
866.71148053696561
 20
1313.5193839985236
 11
866.71148053696561
 21
1063.5193839985236
  0
LINE
  8
_2-2_in_line
  6
CONTINUOUS
 62
    7
 10
866.71148053696561
 20
1063.5193839985236
 11
1366.7114805369656
 21
1063.5193839985236
  0
ARC
  8
_2-2_in_line
  6
CONTINUOUS
 62
    7
 10
874.71148053696515
 20
1120.0193839985291
 40
8
 50
180
 51
270
  0
LINE
  8
_2-2_in_line
  6
CONTINUOUS
 62
    7
 10
956.71434847002593
 20
1113.5193839985236
 11
956.73256725754845
 21
1113.6502889452054
  0
LINE
  8
_2-2_in_line
  6
CONTINUOUS
 62
    7
 10
956.73256725754845
 20
1113.6502889452054
 11
956.76563403720911
 21
1113.8753628802242
  0
LINE
  8
_2-2_in_line
  6
CONTINUOUS
 62
    7
 10
956.76563403720911
 20
1113.8753628802242
 11
956.80329825307558
 21
1114.0987027904821
  0
LINE
  8
_2-2_in_line
  6
CONTINUOUS
 62
    7
 10
956.80329825307558
 20
1114.0987027904821
 11
956.84846967489966
 21
1114.3192111919534
  0
LINE
  8
_2-2_in_line
  6
CONTINUOUS
 62
    7
 10
956.84846967489966
 20
1114.3192111919534
 11
956.90405807242973
 21
1114.5357906006125
  0
LINE
  8
_2-2_in_line
  6
CONTINUOUS
 62
    7
 10
956.90405807242973
 20
1114.5357906006125
 11
956.97297321541873
 21
1114.7473435324314
  0
LINE
  8
_2-2_in_line
  6
CONTINUOUS
 62
    7
 10
956.97297321541873
 20
1114.7473435324314
 11
957.02019691371197
 21
1114.8673086354238
  0
LINE
  8
_2-2_in_line
  6
CONTINUOUS
 62
    7
 10
957.02019691371197
 20
1114.8673086354238
 11
957.06113797497528
 21
1114.9594254750132
  0
LINE
  8
_2-2_in_line
  6
CONTINUOUS
 62
    7
 10
957.06113797497528
 20
1114.9594254750132
 11
957.1395531476569
 21
1115.1151397780272
  0
LINE
  8
_2-2_in_line
  6
CONTINUOUS
 62
    7
 10
957.1395531476569
 20
1115.1151397780272
 11
957.22666016198309
 21
1115.2671433809069
  0
LINE
  8
_2-2_in_line
  6
CONTINUOUS
 62
    7
 10
957.22666016198309
 20
1115.2671433809069
 11
957.32104515113156
 21
1115.4156958967069
  0
LINE
  8
_2-2_in_line
  6
CONTINUOUS
 62
    7
 10
957.32104515113156
 20
1115.4156958967069
 11
957.42129424827544
 21
1115.5610569384799
  0
LINE
  8
_2-2_in_line
  6
CONTINUOUS
 62
    7
 10
957.42129424827544
 20
1115.5610569384799
 11
957.52599358659245
 21
1115.703486119276
  0
LINE
  8
_2-2_in_line
  6
CONTINUOUS
 62
    7
 10
957.52599358659245
 20
1115.703486119276
 11
957.58820116627112
 21
1115.7848539664797
  0
LINE
  8
_2-2_in_line
  6
CONTINUOUS
 62
    7
 10
957.58820116627112
 20
1115.7848539664797
 11
957.66241744020681
 21
1115.8795375592836
  0
LINE
  8
_2-2_in_line
  6
CONTINUOUS
 62
    7
 10
957.66241744020681
 20
1115.8795375592836
 11
957.79264238031124
 21
1116.0402563531447
  0
LINE
  8
_2-2_in_line
  6
CONTINUOUS
 62
    7
 10
957.79264238031124
 20
1116.0402563531447
 11
957.92549419953139
 21
1116.1981231155351
  0
LINE
  8
_2-2_in_line
  6
CONTINUOUS
 62
    7
 10
957.92549419953139
 20
1116.1981231155351
 11
958.06069233766016
 21
1116.3535436090006
  0
LINE
  8
_2-2_in_line
  6
CONTINUOUS
 62
    7
 10
958.06069233766016
 20
1116.3535436090006
 11
958.19795623448363
 21
1116.5069235960896
  0
LINE
  8
_2-2_in_line
  6
CONTINUOUS
 62
    7
 10
958.19795623448363
 20
1116.5069235960896
 11
958.33700532979128
 21
1116.6586688393436
  0
LINE
  8
_2-2_in_line
  6
CONTINUOUS
 62
    7
 10
958.33700532979128
 20
1116.6586688393436
 11
958.41836122770451
 21
1116.7460919323507
  0
LINE
  8
_2-2_in_line
  6
CONTINUOUS
 62
    7
 10
958.41836122770451
 20
1116.7460919323507
 11
958.50399630111815
 21
1116.8371621067495
  0
LINE
  8
_2-2_in_line
  6
CONTINUOUS
 62
    7
 10
958.50399630111815
 20
1116.8371621067495
 11
958.6531936594256
 21
1116.992863855583
  0
LINE
  8
_2-2_in_line
  6
CONTINUOUS
 62
    7
 10
958.6531936594256
 20
1116.992863855583
 11
958.80494387299655
 21
1117.1462098339821
  0
LINE
  8
_2-2_in_line
  6
CONTINUOUS
 62
    7
 10
958.80494387299655
 20
1117.1462098339821
 11
958.959932952499
 21
1117.2963974729014
  0
LINE
  8
_2-2_in_line
  6
CONTINUOUS
 62
    7
 10
958.959932952499
 20
1117.2963974729014
 11
959.11884690860552
 21
1117.4426242033001
  0
LINE
  8
_2-2_in_line
  6
CONTINUOUS
 62
    7
 10
959.11884690860552
 20
1117.4426242033001
 11
959.28237175198751
 21
1117.5840874561281
  0
LINE
  8
_2-2_in_line
  6
CONTINUOUS
 62
    7
 10
959.28237175198751
 20
1117.5840874561281
 11
959.37959919357445
 21
1117.6636372634089
  0
LINE
  8
_2-2_in_line
  6
CONTINUOUS
 62
    7
 10
959.37959919357445
 20
1117.6636372634089
 11
959.46725289311621
 21
1117.732362615905
  0
LINE
  8
_2-2_in_line
  6
CONTINUOUS
 62
    7
 10
959.46725289311621
 20
1117.732362615905
 11
959.62186599303641
 21
1117.8465753837036
  0
LINE
  8
_2-2_in_line
  6
CONTINUOUS
 62
    7
 10
959.62186599303641
 20
1117.8465753837036
 11
959.78083113622665
 21
1117.9545480726351
  0
LINE
  8
_2-2_in_line
  6
CONTINUOUS
 62
    7
 10
959.78083113622665
 20
1117.9545480726351
 11
959.94407779345329
 21
1118.0553233040614
  0
LINE
  8
_2-2_in_line
  6
CONTINUOUS
 62
    7
 10
959.94407779345329
 20
1118.0553233040614
 11
960.1115354354838
 21
1118.1479436993486
  0
LINE
  8
_2-2_in_line
  6
CONTINUOUS
 62
    7
 10
960.1115354354838
 20
1118.1479436993486
 11
960.28313353308795
 21
1118.2314518798585
  0
LINE
  8
_2-2_in_line
  6
CONTINUOUS
 62
    7
 10
960.28313353308795
 20
1118.2314518798585
 11
960.3845297942562
 21
1118.275334150781
  0
LINE
  8
_2-2_in_line
  6
CONTINUOUS
 62
    7
 10
960.3845297942562
 20
1118.275334150781
 11
960.49843528699603
 21
1118.3198628640439
  0
LINE
  8
_2-2_in_line
  6
CONTINUOUS
 62
    7
 10
960.49843528699603
 20
1118.3198628640439
 11
960.69832374485009
 21
1118.3871734924564
  0
LINE
  8
_2-2_in_line
  6
CONTINUOUS
 62
    7
 10
960.69832374485009
 20
1118.3871734924564
 11
960.90202584370877
 21
1118.4437770439563
  0
LINE
  8
_2-2_in_line
  6
CONTINUOUS
 62
    7
 10
960.90202584370877
 20
1118.4437770439563
 11
961.10882492051678
 21
1118.4911519176858
  0
LINE
  8
_2-2_in_line
  6
CONTINUOUS
 62
    7
 10
961.10882492051678
 20
1118.4911519176858
 11
961.31800431222564
 21
1118.5307765127964
  0
LINE
  8
_2-2_in_line
  6
CONTINUOUS
 62
    7
 10
961.31800431222564
 20
1118.5307765127964
 11
961.52884735578232
 21
1118.5641292284304
  0
LINE
  8
_2-2_in_line
  6
CONTINUOUS
 62
    7
 10
961.52884735578232
 20
1118.5641292284304
 11
961.65161620381218
 21
1118.5811825944647
  0
LINE
  8
_2-2_in_line
  6
CONTINUOUS
 62
    7
 10
961.65161620381218
 20
1118.5811825944647
 11
961.80007317389459
 21
1118.599899593733
  0
LINE
  8
_2-2_in_line
  6
CONTINUOUS
 62
    7
 10
961.80007317389459
 20
1118.599899593733
 11
962.05639343918028
 21
1118.6268063548214
  0
LINE
  8
_2-2_in_line
  6
CONTINUOUS
 62
    7
 10
962.05639343918028
 20
1118.6268063548214
 11
962.3127887677615
 21
1118.6456646021206
  0
LINE
  8
_2-2_in_line
  6
CONTINUOUS
 62
    7
 10
962.3127887677615
 20
1118.6456646021206
 11
962.5688166043924
 21
1118.6550106933082
  0
LINE
  8
_2-2_in_line
  6
CONTINUOUS
 62
    7
 10
962.5688166043924
 20
1118.6550106933082
 11
962.82403439382597
 21
1118.6533809860616
  0
LINE
  8
_2-2_in_line
  6
CONTINUOUS
 62
    7
 10
962.82403439382597
 20
1118.6533809860616
 11
963.0779995808175
 21
1118.6393118380583
  0
LINE
  8
_2-2_in_line
  6
CONTINUOUS
 62
    7
 10
963.0779995808175
 20
1118.6393118380583
 11
963.22455105705308
 21
1118.6248752292777
  0
LINE
  8
_2-2_in_line
  6
CONTINUOUS
 62
    7
 10
963.22455105705308
 20
1118.6248752292777
 11
963.33189524862041
 21
1118.6111854431924
  0
LINE
  8
_2-2_in_line
  6
CONTINUOUS
 62
    7
 10
963.33189524862041
 20
1118.6111854431924
 11
963.51634530938986
 21
1118.582225811952
  0
LINE
  8
_2-2_in_line
  6
CONTINUOUS
 62
    7
 10
963.51634530938986
 20
1118.582225811952
 11
963.70031616683013
 21
1118.5479103304128
  0
LINE
  8
_2-2_in_line
  6
CONTINUOUS
 62
    7
 10
963.70031616683013
 20
1118.5479103304128
 11
963.88417220268798
 21
1118.5098955043854
  0
LINE
  8
_2-2_in_line
  6
CONTINUOUS
 62
    7
 10
963.88417220268798
 20
1118.5098955043854
 11
964.068277798709
 21
1118.4698378396802
  0
LINE
  8
_2-2_in_line
  6
CONTINUOUS
 62
    7
 10
964.068277798709
 20
1118.4698378396802
 11
964.25299733663655
 21
1118.4293938421029
  0
LINE
  8
_2-2_in_line
  6
CONTINUOUS
 62
    7
 10
964.25299733663655
 20
1118.4293938421029
 11
964.36055956217251
 21
1118.4064120552175
  0
LINE
  8
_2-2_in_line
  6
CONTINUOUS
 62
    7
 10
964.36055956217251
 20
1118.4064120552175
 11
964.4826707935008
 21
1118.3811383337188
  0
LINE
  8
_2-2_in_line
  6
CONTINUOUS
 62
    7
 10
964.4826707935008
 20
1118.3811383337188
 11
964.69346881706406
 21
1118.3377888174828
  0
LINE
  8
_2-2_in_line
  6
CONTINUOUS
 62
    7
 10
964.69346881706406
 20
1118.3377888174828
 11
964.90317404090183
 21
1118.2916556593345
  0
LINE
  8
_2-2_in_line
  6
CONTINUOUS
 62
    7
 10
964.90317404090183
 20
1118.2916556593345
 11
965.11013099016941
 21
1118.2391696176323
  0
LINE
  8
_2-2_in_line
  6
CONTINUOUS
 62
    7
 10
965.11013099016941
 20
1118.2391696176323
 11
965.31268419002436
 21
1118.1767614507321
  0
LINE
  8
_2-2_in_line
  6
CONTINUOUS
 62
    7
 10
965.31268419002436
 20
1118.1767614507321
 11
965.50917816562423
 21
1118.1008619169988
  0
LINE
  8
_2-2_in_line
  6
CONTINUOUS
 62
    7
 10
965.50917816562423
 20
1118.1008619169988
 11
965.6197159917449
 21
1118.0492519763429
  0
LINE
  8
_2-2_in_line
  6
CONTINUOUS
 62
    7
 10
965.6197159917449
 20
1118.0492519763429
 11
965.71903822292347
 21
1117.9961665044179
  0
LINE
  8
_2-2_in_line
  6
CONTINUOUS
 62
    7
 10
965.71903822292347
 20
1117.9961665044179
 11
965.88446213811471
 21
1117.8928802233195
  0
LINE
  8
_2-2_in_line
  6
CONTINUOUS
 62
    7
 10
965.88446213811471
 20
1117.8928802233195
 11
966.04251370947372
 21
1117.7763305915873
  0
LINE
  8
_2-2_in_line
  6
CONTINUOUS
 62
    7
 10
966.04251370947372
 20
1117.7763305915873
 11
966.19318875589079
 21
1117.6484039182724
  0
LINE
  8
_2-2_in_line
  6
CONTINUOUS
 62
    7
 10
966.19318875589079
 20
1117.6484039182724
 11
966.33648309625619
 21
1117.5109865124255
  0
LINE
  8
_2-2_in_line
  6
CONTINUOUS
 62
    7
 10
966.33648309625619
 20
1117.5109865124255
 11
966.47239254946135
 21
1117.3659646830974
  0
LINE
  8
_2-2_in_line
  6
CONTINUOUS
 62
    7
 10
966.47239254946135
 20
1117.3659646830974
 11
966.5478346294467
 21
1117.2791109790983
  0
LINE
  8
_2-2_in_line
  6
CONTINUOUS
 62
    7
 10
966.5478346294467
 20
1117.2791109790983
 11
966.63212965381808
 21
1117.1765435911088
  0
LINE
  8
_2-2_in_line
  6
CONTINUOUS
 62
    7
 10
966.63212965381808
 20
1117.1765435911088
 11
966.77030151308691
 21
1116.9952585813717
  0
LINE
  8
_2-2_in_line
  6
CONTINUOUS
 62
    7
 10
966.77030151308691
 20
1116.9952585813717
 11
966.90041178010551
 21
1116.8090339067526
  0
LINE
  8
_2-2_in_line
  6
CONTINUOUS
 62
    7
 10
966.90041178010551
 20
1116.8090339067526
 11
967.02363168209195
 21
1116.6186678456625
  0
LINE
  8
_2-2_in_line
  6
CONTINUOUS
 62
    7
 10
967.02363168209195
 20
1116.6186678456625
 11
967.14113244626196
 21
1116.4249586765191
  0
LINE
  8
_2-2_in_line
  6
CONTINUOUS
 62
    7
 10
967.14113244626196
 20
1116.4249586765191
 11
967.25408529983019
 21
1116.2287046777355
  0
LINE
  8
_2-2_in_line
  6
CONTINUOUS
 62
    7
 10
967.25408529983019
 20
1116.2287046777355
 11
967.31797562669021
 21
1116.1140258807068
  0
LINE
  8
_2-2_in_line
  6
CONTINUOUS
 62
    7
 10
967.31797562669021
 20
1116.1140258807068
 11
967.38524299419601
 21
1115.9909592885701
  0
LINE
  8
_2-2_in_line
  6
CONTINUOUS
 62
    7
 10
967.38524299419601
 20
1115.9909592885701
 11
967.49922423540374
 21
1115.7777525322017
  0
LINE
  8
_2-2_in_line
  6
CONTINUOUS
 62
    7
 10
967.49922423540374
 20
1115.7777525322017
 11
967.61133878376859
 21
1115.5634555326656
  0
LINE
  8
_2-2_in_line
  6
CONTINUOUS
 62
    7
 10
967.61133878376859
 20
1115.5634555326656
 11
967.72235539301596
 21
1115.3483062715923
  0
LINE
  8
_2-2_in_line
  6
CONTINUOUS
 62
    7
 10
967.72235539301596
 20
1115.3483062715923
 11
967.83304281687356
 21
1115.1325427306101
  0
LINE
  8
_2-2_in_line
  6
CONTINUOUS
 62
    7
 10
967.83304281687356
 20
1115.1325427306101
 11
967.94416980907135
 21
1114.9164028913542
  0
LINE
  8
_2-2_in_line
  6
CONTINUOUS
 62
    7
 10
967.94416980907135
 20
1114.9164028913542
 11
968.00912780370231
 21
1114.7909631418547
  0
LINE
  8
_2-2_in_line
  6
CONTINUOUS
 62
    7
 10
968.00912780370231
 20
1114.7909631418547
 11
968.09754125787754
 21
1114.6221349588477
  0
LINE
  8
_2-2_in_line
  6
CONTINUOUS
 62
    7
 10
968.09754125787754
 20
1114.6221349588477
 11
968.25404607380824
 21
1114.3327391929602
  0
LINE
  8
_2-2_in_line
  6
CONTINUOUS
 62
    7
 10
968.25404607380824
 20
1114.3327391929602
 11
968.41826766703525
 21
1114.04803101671
  0
LINE
  8
_2-2_in_line
  6
CONTINUOUS
 62
    7
 10
968.41826766703525
 20
1114.04803101671
 11
968.59319165442093
 21
1113.7709775886906
  0
LINE
  8
_2-2_in_line
  6
CONTINUOUS
 62
    7
 10
968.59319165442093
 20
1113.7709775886906
 11
968.78180365282083
 21
1113.5045460675046
  0
LINE
  8
_2-2_in_line
  6
CONTINUOUS
 62
    7
 10
968.78180365282083
 20
1113.5045460675046
 11
968.98708927909615
 21
1113.2517036117479
  0
LINE
  8
_2-2_in_line
  6
CONTINUOUS
 62
    7
 10
968.98708927909615
 20
1113.2517036117479
 11
969.11497128692281
 21
1113.1124507119675
  0
LINE
  8
_2-2_in_line
  6
CONTINUOUS
 62
    7
 10
969.11497128692281
 20
1113.1124507119675
 11
969.16118645922757
 21
1113.0653457060571
  0
LINE
  8
_2-2_in_line
  6
CONTINUOUS
 62
    7
 10
969.16118645922757
 20
1113.0653457060571
 11
969.24288572076739
 21
1112.9860006110202
  0
LINE
  8
_2-2_in_line
  6
CONTINUOUS
 62
    7
 10
969.24288572076739
 20
1112.9860006110202
 11
969.32708811309772
 21
1112.9092005015791
  0
LINE
  8
_2-2_in_line
  6
CONTINUOUS
 62
    7
 10
969.32708811309772
 20
1112.9092005015791
 11
969.4137340885934
 21
1112.835151598254
  0
LINE
  8
_2-2_in_line
  6
CONTINUOUS
 62
    7
 10
969.4137340885934
 20
1112.835151598254
 11
969.5027640996293
 21
1112.764060121563
  0
LINE
  8
_2-2_in_line
  6
CONTINUOUS
 62
    7
 10
969.5027640996293
 20
1112.764060121563
 11
969.59411859858028
 21
1112.6961322920333
  0
LINE
  8
_2-2_in_line
  6
CONTINUOUS
 62
    7
 10
969.59411859858028
 20
1112.6961322920333
 11
969.64814582347549
 21
1112.658264995644
  0
LINE
  8
_2-2_in_line
  6
CONTINUOUS
 62
    7
 10
969.64814582347549
 20
1112.658264995644
 11
969.73774723456336
 21
1112.5989723052662
  0
LINE
  8
_2-2_in_line
  6
CONTINUOUS
 62
    7
 10
969.73774723456336
 20
1112.5989723052662
 11
969.89593867873373
 21
1112.5025590410705
  0
LINE
  8
_2-2_in_line
  6
CONTINUOUS
 62
    7
 10
969.89593867873373
 20
1112.5025590410705
 11
970.05734996576598
 21
1112.4112306319994
  0
LINE
  8
_2-2_in_line
  6
CONTINUOUS
 62
    7
 10
970.05734996576598
 20
1112.4112306319994
 11
970.22026991405914
 21
1112.322339923549
  0
LINE
  8
_2-2_in_line
  6
CONTINUOUS
 62
    7
 10
970.22026991405914
 20
1112.322339923549
 11
970.38298734201226
 21
1112.2332397612131
  0
LINE
  8
_2-2_in_line
  6
CONTINUOUS
 62
    7
 10
970.38298734201226
 20
1112.2332397612131
 11
970.54379106802435
 21
1112.141282990488
  0
LINE
  8
_2-2_in_line
  6
CONTINUOUS
 62
    7
 10
970.54379106802435
 20
1112.141282990488
 11
970.63550607635057
 21
1112.0855960489762
  0
LINE
  8
_2-2_in_line
  6
CONTINUOUS
 62
    7
 10
970.63550607635057
 20
1112.0855960489762
 11
970.72791706874887
 21
1112.0262312791037
  0
LINE
  8
_2-2_in_line
  6
CONTINUOUS
 62
    7
 10
970.72791706874887
 20
1112.0262312791037
 11
970.88386007090298
 21
1111.918729517336
  0
LINE
  8
_2-2_in_line
  6
CONTINUOUS
 62
    7
 10
970.88386007090298
 20
1111.918729517336
 11
971.03618261312454
 21
1111.8057463273685
  0
LINE
  8
_2-2_in_line
  6
CONTINUOUS
 62
    7
 10
971.03618261312454
 20
1111.8057463273685
 11
971.18565910185998
 21
1111.688486274973
  0
LINE
  8
_2-2_in_line
  6
CONTINUOUS
 62
    7
 10
971.18565910185998
 20
1111.688486274973
 11
971.3330639435535
 21
1111.5681539259235
  0
LINE
  8
_2-2_in_line
  6
CONTINUOUS
 62
    7
 10
971.3330639435535
 20
1111.5681539259235
 11
971.47917154464926
 21
1111.4459538459987
  0
LINE
  8
_2-2_in_line
  6
CONTINUOUS
 62
    7
 10
971.47917154464926
 20
1111.4459538459987
 11
971.56362471405237
 21
1111.3746966669059
  0
LINE
  8
_2-2_in_line
  6
CONTINUOUS
 62
    7
 10
971.56362471405237
 20
1111.3746966669059
 11
971.66946657767062
 21
1111.2852160830066
  0
LINE
  8
_2-2_in_line
  6
CONTINUOUS
 62
    7
 10
971.66946657767062
 20
1111.2852160830066
 11
971.85103935598113
 21
1111.1301330292104
  0
LINE
  8
_2-2_in_line
  6
CONTINUOUS
 62
    7
 10
971.85103935598113
 20
1111.1301330292104
 11
972.03021400860598
 21
1110.9727438609689
  0
LINE
  8
_2-2_in_line
  6
CONTINUOUS
 62
    7
 10
972.03021400860598
 20
1110.9727438609689
 11
972.20554613483023
 21
1110.8115536630435
  0
LINE
  8
_2-2_in_line
  6
CONTINUOUS
 62
    7
 10
972.20554613483023
 20
1110.8115536630435
 11
972.37559133394006
 21
1110.6450675201932
  0
LINE
  8
_2-2_in_line
  6
CONTINUOUS
 62
    7
 10
972.37559133394006
 20
1110.6450675201932
 11
972.53890520521827
 21
1110.4717905171838
  0
LINE
  8
_2-2_in_line
  6
CONTINUOUS
 62
    7
 10
972.53890520521827
 20
1110.4717905171838
 11
972.62997378715772
 21
1110.3675892089727
  0
LINE
  8
_2-2_in_line
  6
CONTINUOUS
 62
    7
 10
972.62997378715772
 20
1110.3675892089727
 11
972.68163305979419
 21
1110.3055019334515
  0
LINE
  8
_2-2_in_line
  6
CONTINUOUS
 62
    7
 10
972.68163305979419
 20
1110.3055019334515
 11
972.76795817009975
 21
1110.1960291936125
  0
LINE
  8
_2-2_in_line
  6
CONTINUOUS
 62
    7
 10
972.76795817009975
 20
1110.1960291936125
 11
972.85031804223286
 21
1110.0835279358539
  0
LINE
  8
_2-2_in_line
  6
CONTINUOUS
 62
    7
 10
972.85031804223286
 20
1110.0835279358539
 11
972.92813873297723
 21
1109.9680470031426
  0
LINE
  8
_2-2_in_line
  6
CONTINUOUS
 62
    7
 10
972.92813873297723
 20
1109.9680470031426
 11
973.00084629912226
 21
1109.84963523845
  0
LINE
  8
_2-2_in_line
  6
CONTINUOUS
 62
    7
 10
973.00084629912226
 20
1109.84963523845
 11
973.06786679745051
 21
1109.7283414847452
  0
LINE
  8
_2-2_in_line
  6
CONTINUOUS
 62
    7
 10
973.06786679745051
 20
1109.7283414847452
 11
973.10390670853826
 21
1109.6566898269048
  0
LINE
  8
_2-2_in_line
  6
CONTINUOUS
 62
    7
 10
973.10390670853826
 20
1109.6566898269048
 11
973.15055856189565
 21
1109.5552139358533
  0
LINE
  8
_2-2_in_line
  6
CONTINUOUS
 62
    7
 10
973.15055856189565
 20
1109.5552139358533
 11
973.22204532024648
 21
1109.3764495568034
  0
LINE
  8
_2-2_in_line
  6
CONTINUOUS
 62
    7
 10
973.22204532024648
 20
1109.3764495568034
 11
973.28399665886968
 21
1109.1936291386542
  0
LINE
  8
_2-2_in_line
  6
CONTINUOUS
 62
    7
 10
973.28399665886968
 20
1109.1936291386542
 11
973.33849454713891
 21
1109.0076382794637
  0
LINE
  8
_2-2_in_line
  6
CONTINUOUS
 62
    7
 10
973.33849454713891
 20
1109.0076382794637
 11
973.38762095442553
 21
1108.8193625772901
  0
LINE
  8
_2-2_in_line
  6
CONTINUOUS
 62
    7
 10
973.38762095442553
 20
1108.8193625772901
 11
973.4334578501032
 21
1108.6296876301849
  0
LINE
  8
_2-2_in_line
  6
CONTINUOUS
 62
    7
 10
973.4334578501032
 20
1108.6296876301849
 11
973.45935639957338
 21
1108.5193839985236
  0
LINE
  8
_2-2_in_line
  6
CONTINUOUS
 62
    7
 10
866.71148053696561
 20
423.51938399852372
 11
1366.7114805369656
 21
423.51938399852372
  0
LINE
  8
_2-2_in_line
  6
CONTINUOUS
 62
    7
 10
1010.0778529646877
 20
473.51938399852372
 11
1010.0960717522103
 21
473.65028894520549
  0
LINE
  8
_2-2_in_line
  6
CONTINUOUS
 62
    7
 10
1010.0960717522103
 20
473.65028894520549
 11
1010.1291385318709
 21
473.87536288022432
  0
LINE
  8
_2-2_in_line
  6
CONTINUOUS
 62
    7
 10
1010.1291385318709
 20
473.87536288022432
 11
1010.1668027477385
 21
474.09870279048221
  0
LINE
  8
_2-2_in_line
  6
CONTINUOUS
 62
    7
 10
1010.1668027477385
 20
474.09870279048221
 11
1010.2119741695615
 21
474.31921119195351
  0
LINE
  8
_2-2_in_line
  6
CONTINUOUS
 62
    7
 10
1010.2119741695615
 20
474.31921119195351
 11
1010.2675625670927
 21
474.53579060061259
  0
LINE
  8
_2-2_in_line
  6
CONTINUOUS
 62
    7
 10
1010.2675625670927
 20
474.53579060061259
 11
1010.3364777100805
 21
474.7473435324315
  0
LINE
  8
_2-2_in_line
  6
CONTINUOUS
 62
    7
 10
1010.3364777100805
 20
474.7473435324315
 11
1010.3837014083738
 21
474.86730863542391
  0
LINE
  8
_2-2_in_line
  6
CONTINUOUS
 62
    7
 10
1010.3837014083738
 20
474.86730863542391
 11
1010.4246424696371
 21
474.95942547501329
  0
LINE
  8
_2-2_in_line
  6
CONTINUOUS
 62
    7
 10
1010.4246424696371
 20
474.95942547501329
 11
1010.5030576423187
 21
475.11513977802736
  0
LINE
  8
_2-2_in_line
  6
CONTINUOUS
 62
    7
 10
1010.5030576423187
 20
475.11513977802736
 11
1010.5901646566449
 21
475.26714338090699
  0
LINE
  8
_2-2_in_line
  6
CONTINUOUS
 62
    7
 10
1010.5901646566449
 20
475.26714338090699
 11
1010.6845496457945
 21
475.41569589670701
  0
LINE
  8
_2-2_in_line
  6
CONTINUOUS
 62
    7
 10
1010.6845496457945
 20
475.41569589670701
 11
1010.7847987429373
 21
475.56105693847996
  0
LINE
  8
_2-2_in_line
  6
CONTINUOUS
 62
    7
 10
1010.7847987429373
 20
475.56105693847996
 11
1010.8894980812543
 21
475.70348611927614
  0
LINE
  8
_2-2_in_line
  6
CONTINUOUS
 62
    7
 10
1010.8894980812543
 20
475.70348611927614
 11
1010.9517056609329
 21
475.78485396647977
  0
LINE
  8
_2-2_in_line
  6
CONTINUOUS
 62
    7
 10
1010.9517056609329
 20
475.78485396647977
 11
1011.0259219348686
 21
475.87953755928368
  0
LINE
  8
_2-2_in_line
  6
CONTINUOUS
 62
    7
 10
1011.0259219348686
 20
475.87953755928368
 11
1011.1561468749742
 21
476.04025635314485
  0
LINE
  8
_2-2_in_line
  6
CONTINUOUS
 62
    7
 10
1011.1561468749742
 20
476.04025635314485
 11
1011.2889986941932
 21
476.19812311553517
  0
LINE
  8
_2-2_in_line
  6
CONTINUOUS
 62
    7
 10
1011.2889986941932
 20
476.19812311553517
 11
1011.4241968323231
 21
476.35354360900067
  0
LINE
  8
_2-2_in_line
  6
CONTINUOUS
 62
    7
 10
1011.4241968323231
 20
476.35354360900067
 11
1011.5614607291454
 21
476.50692359608968
  0
LINE
  8
_2-2_in_line
  6
CONTINUOUS
 62
    7
 10
1011.5614607291454
 20
476.50692359608968
 11
1011.7005098244531
 21
476.6586688393437
  0
LINE
  8
_2-2_in_line
  6
CONTINUOUS
 62
    7
 10
1011.7005098244531
 20
476.6586688393437
 11
1011.7818657223675
 21
476.74609193235085
  0
LINE
  8
_2-2_in_line
  6
CONTINUOUS
 62
    7
 10
1011.7818657223675
 20
476.74609193235085
 11
1011.86750079578
 21
476.83716210674959
  0
LINE
  8
_2-2_in_line
  6
CONTINUOUS
 62
    7
 10
1011.86750079578
 20
476.83716210674959
 11
1012.0166981540874
 21
476.9928638555831
  0
LINE
  8
_2-2_in_line
  6
CONTINUOUS
 62
    7
 10
1012.0166981540874
 20
476.9928638555831
 11
1012.1684483676595
 21
477.1462098339822
  0
LINE
  8
_2-2_in_line
  6
CONTINUOUS
 62
    7
 10
1012.1684483676595
 20
477.1462098339822
 11
1012.3234374471608
 21
477.2963974729015
  0
LINE
  8
_2-2_in_line
  6
CONTINUOUS
 62
    7
 10
1012.3234374471608
 20
477.2963974729015
 11
1012.4823514032673
 21
477.44262420330017
  0
LINE
  8
_2-2_in_line
  6
CONTINUOUS
 62
    7
 10
1012.4823514032673
 20
477.44262420330017
 11
1012.6458762466505
 21
477.58408745612826
  0
LINE
  8
_2-2_in_line
  6
CONTINUOUS
 62
    7
 10
1012.6458762466505
 20
477.58408745612826
 11
1012.7431036882363
 21
477.66363726340899
  0
LINE
  8
_2-2_in_line
  6
CONTINUOUS
 62
    7
 10
1012.7431036882363
 20
477.66363726340899
 11
1012.8307573877792
 21
477.73236261590512
  0
LINE
  8
_2-2_in_line
  6
CONTINUOUS
 62
    7
 10
1012.8307573877792
 20
477.73236261590512
 11
1012.9853704876982
 21
477.84657538370368
  0
LINE
  8
_2-2_in_line
  6
CONTINUOUS
 62
    7
 10
1012.9853704876982
 20
477.84657538370368
 11
1013.1443356308896
 21
477.95454807263525
  0
LINE
  8
_2-2_in_line
  6
CONTINUOUS
 62
    7
 10
1013.1443356308896
 20
477.95454807263525
 11
1013.3075822881151
 21
478.05532330406152
  0
LINE
  8
_2-2_in_line
  6
CONTINUOUS
 62
    7
 10
1013.3075822881151
 20
478.05532330406152
 11
1013.4750399301456
 21
478.14794369934873
  0
LINE
  8
_2-2_in_line
  6
CONTINUOUS
 62
    7
 10
1013.4750399301456
 20
478.14794369934873
 11
1013.6466380277498
 21
478.23145187985858
  0
LINE
  8
_2-2_in_line
  6
CONTINUOUS
 62
    7
 10
1013.6466380277498
 20
478.23145187985858
 11
1013.748034288918
 21
478.27533415078108
  0
LINE
  8
_2-2_in_line
  6
CONTINUOUS
 62
    7
 10
1013.748034288918
 20
478.27533415078108
 11
1013.8619397816578
 21
478.31986286404401
  0
LINE
  8
_2-2_in_line
  6
CONTINUOUS
 62
    7
 10
1013.8619397816578
 20
478.31986286404401
 11
1014.061828239513
 21
478.38717349245655
  0
LINE
  8
_2-2_in_line
  6
CONTINUOUS
 62
    7
 10
1014.061828239513
 20
478.38717349245655
 11
1014.2655303383717
 21
478.4437770439564
  0
LINE
  8
_2-2_in_line
  6
CONTINUOUS
 62
    7
 10
1014.2655303383717
 20
478.4437770439564
 11
1014.4723294151786
 21
478.4911519176859
  0
LINE
  8
_2-2_in_line
  6
CONTINUOUS
 62
    7
 10
1014.4723294151786
 20
478.4911519176859
 11
1014.6815088068875
 21
478.53077651279648
  0
LINE
  8
_2-2_in_line
  6
CONTINUOUS
 62
    7
 10
1014.6815088068875
 20
478.53077651279648
 11
1014.8923518504453
 21
478.56412922843049
  0
LINE
  8
_2-2_in_line
  6
CONTINUOUS
 62
    7
 10
1014.8923518504453
 20
478.56412922843049
 11
1015.0151206984751
 21
478.58118259446485
  0
LINE
  8
_2-2_in_line
  6
CONTINUOUS
 62
    7
 10
1015.0151206984751
 20
478.58118259446485
 11
1015.1635776685575
 21
478.59989959373308
  0
LINE
  8
_2-2_in_line
  6
CONTINUOUS
 62
    7
 10
1015.1635776685575
 20
478.59989959373308
 11
1015.4198979338421
 21
478.6268063548215
  0
LINE
  8
_2-2_in_line
  6
CONTINUOUS
 62
    7
 10
1015.4198979338421
 20
478.6268063548215
 11
1015.6762932624233
 21
478.64566460212075
  0
LINE
  8
_2-2_in_line
  6
CONTINUOUS
 62
    7
 10
1015.6762932624233
 20
478.64566460212075
 11
1015.9323210990542
 21
478.65501069330833
  0
LINE
  8
_2-2_in_line
  6
CONTINUOUS
 62
    7
 10
1015.9323210990542
 20
478.65501069330833
 11
1016.1875388884878
 21
478.65338098606173
  0
LINE
  8
_2-2_in_line
  6
CONTINUOUS
 62
    7
 10
1016.1875388884878
 20
478.65338098606173
 11
1016.4415040754793
 21
478.63931183805846
  0
LINE
  8
_2-2_in_line
  6
CONTINUOUS
 62
    7
 10
1016.4415040754793
 20
478.63931183805846
 11
1016.588055551716
 21
478.62487522927779
  0
LINE
  8
_2-2_in_line
  6
CONTINUOUS
 62
    7
 10
1016.588055551716
 20
478.62487522927779
 11
1016.6953997432834
 21
478.61118544319254
  0
LINE
  8
_2-2_in_line
  6
CONTINUOUS
 62
    7
 10
1016.6953997432834
 20
478.61118544319254
 11
1016.8798498040528
 21
478.58222581195207
  0
LINE
  8
_2-2_in_line
  6
CONTINUOUS
 62
    7
 10
1016.8798498040528
 20
478.58222581195207
 11
1017.0638206614931
 21
478.54791033041295
  0
LINE
  8
_2-2_in_line
  6
CONTINUOUS
 62
    7
 10
1017.0638206614931
 20
478.54791033041295
 11
1017.2476766973509
 21
478.50989550438555
  0
LINE
  8
_2-2_in_line
  6
CONTINUOUS
 62
    7
 10
1017.2476766973509
 20
478.50989550438555
 11
1017.4317822933708
 21
478.46983783968028
  0
LINE
  8
_2-2_in_line
  6
CONTINUOUS
 62
    7
 10
1017.4317822933708
 20
478.46983783968028
 11
1017.6165018312995
 21
478.42939384210297
  0
LINE
  8
_2-2_in_line
  6
CONTINUOUS
 62
    7
 10
1017.6165018312995
 20
478.42939384210297
 11
1017.7240640568343
 21
478.40641205521763
  0
LINE
  8
_2-2_in_line
  6
CONTINUOUS
 62
    7
 10
1017.7240640568343
 20
478.40641205521763
 11
1017.8461752881626
 21
478.38113833371892
  0
LINE
  8
_2-2_in_line
  6
CONTINUOUS
 62
    7
 10
1017.8461752881626
 20
478.38113833371892
 11
1018.0569733117259
 21
478.33778881748287
  0
LINE
  8
_2-2_in_line
  6
CONTINUOUS
 62
    7
 10
1018.0569733117259
 20
478.33778881748287
 11
1018.2666785355636
 21
478.29165565933465
  0
LINE
  8
_2-2_in_line
  6
CONTINUOUS
 62
    7
 10
1018.2666785355636
 20
478.29165565933465
 11
1018.4736354848324
 21
478.23916961763246
  0
LINE
  8
_2-2_in_line
  6
CONTINUOUS
 62
    7
 10
1018.4736354848324
 20
478.23916961763246
 11
1018.6761886846862
 21
478.17676145073222
  0
LINE
  8
_2-2_in_line
  6
CONTINUOUS
 62
    7
 10
1018.6761886846862
 20
478.17676145073222
 11
1018.872682660286
 21
478.10086191699895
  0
LINE
  8
_2-2_in_line
  6
CONTINUOUS
 62
    7
 10
1018.872682660286
 20
478.10086191699895
 11
1018.9832204864078
 21
478.04925197634304
  0
LINE
  8
_2-2_in_line
  6
CONTINUOUS
 62
    7
 10
1018.9832204864078
 20
478.04925197634304
 11
1019.0825427175864
 21
477.99616650441806
  0
LINE
  8
_2-2_in_line
  6
CONTINUOUS
 62
    7
 10
1019.0825427175864
 20
477.99616650441806
 11
1019.2479666327777
 21
477.89288022331959
  0
LINE
  8
_2-2_in_line
  6
CONTINUOUS
 62
    7
 10
1019.2479666327777
 20
477.89288022331959
 11
1019.4060182041367
 21
477.77633059158745
  0
LINE
  8
_2-2_in_line
  6
CONTINUOUS
 62
    7
 10
1019.4060182041367
 20
477.77633059158745
 11
1019.5566932505526
 21
477.64840391827249
  0
LINE
  8
_2-2_in_line
  6
CONTINUOUS
 62
    7
 10
1019.5566932505526
 20
477.64840391827249
 11
1019.6999875909191
 21
477.51098651242557
  0
LINE
  8
_2-2_in_line
  6
CONTINUOUS
 62
    7
 10
1019.6999875909191
 20
477.51098651242557
 11
1019.8358970441232
 21
477.36596468309756
  0
LINE
  8
_2-2_in_line
  6
CONTINUOUS
 62
    7
 10
1019.8358970441232
 20
477.36596468309756
 11
1019.9113391241085
 21
477.27911097909839
  0
LINE
  8
_2-2_in_line
  6
CONTINUOUS
 62
    7
 10
1019.9113391241085
 20
477.27911097909839
 11
1019.9956341484799
 21
477.17654359110895
  0
LINE
  8
_2-2_in_line
  6
CONTINUOUS
 62
    7
 10
1019.9956341484799
 20
477.17654359110895
 11
1020.1338060077487
 21
476.99525858137179
  0
LINE
  8
_2-2_in_line
  6
CONTINUOUS
 62
    7
 10
1020.1338060077487
 20
476.99525858137179
 11
1020.2639162747673
 21
476.80903390675269
  0
LINE
  8
_2-2_in_line
  6
CONTINUOUS
 62
    7
 10
1020.2639162747673
 20
476.80903390675269
 11
1020.3871361767538
 21
476.61866784566257
  0
LINE
  8
_2-2_in_line
  6
CONTINUOUS
 62
    7
 10
1020.3871361767538
 20
476.61866784566257
 11
1020.5046369409238
 21
476.42495867651917
  0
LINE
  8
_2-2_in_line
  6
CONTINUOUS
 62
    7
 10
1020.5046369409238
 20
476.42495867651917
 11
1020.6175897944931
 21
476.22870467773566
  0
LINE
  8
_2-2_in_line
  6
CONTINUOUS
 62
    7
 10
1020.6175897944931
 20
476.22870467773566
 11
1020.6814801213532
 21
476.11402588070689
  0
LINE
  8
_2-2_in_line
  6
CONTINUOUS
 62
    7
 10
1020.6814801213532
 20
476.11402588070689
 11
1020.748747488859
 21
475.99095928857025
  0
LINE
  8
_2-2_in_line
  6
CONTINUOUS
 62
    7
 10
1020.748747488859
 20
475.99095928857025
 11
1020.8627287300656
 21
475.77775253220182
  0
LINE
  8
_2-2_in_line
  6
CONTINUOUS
 62
    7
 10
1020.8627287300656
 20
475.77775253220182
 11
1020.9748432784304
 21
475.56345553266567
  0
LINE
  8
_2-2_in_line
  6
CONTINUOUS
 62
    7
 10
1020.9748432784304
 20
475.56345553266567
 11
1021.0858598876789
 21
475.34830627159238
  0
LINE
  8
_2-2_in_line
  6
CONTINUOUS
 62
    7
 10
1021.0858598876789
 20
475.34830627159238
 11
1021.1965473115365
 21
475.13254273061023
  0
LINE
  8
_2-2_in_line
  6
CONTINUOUS
 62
    7
 10
1021.1965473115365
 20
475.13254273061023
 11
1021.3076743037332
 21
474.91640289135432
  0
LINE
  8
_2-2_in_line
  6
CONTINUOUS
 62
    7
 10
1021.3076743037332
 20
474.91640289135432
 11
1021.3726322983653
 21
474.79096314185483
  0
LINE
  8
_2-2_in_line
  6
CONTINUOUS
 62
    7
 10
1021.3726322983653
 20
474.79096314185483
 11
1021.4610457525405
 21
474.62213495884782
  0
LINE
  8
_2-2_in_line
  6
CONTINUOUS
 62
    7
 10
1021.4610457525405
 20
474.62213495884782
 11
1021.6175505684701
 21
474.33273919296028
  0
LINE
  8
_2-2_in_line
  6
CONTINUOUS
 62
    7
 10
1021.6175505684701
 20
474.33273919296028
 11
1021.7817721616971
 21
474.04803101671007
  0
LINE
  8
_2-2_in_line
  6
CONTINUOUS
 62
    7
 10
1021.7817721616971
 20
474.04803101671007
 11
1021.9566961490827
 21
473.7709775886907
  0
LINE
  8
_2-2_in_line
  6
CONTINUOUS
 62
    7
 10
1021.9566961490827
 20
473.7709775886907
 11
1022.1453081474838
 21
473.50454606750475
  0
LINE
  8
_2-2_in_line
  6
CONTINUOUS
 62
    7
 10
1022.1453081474838
 20
473.50454606750475
 11
1022.3505937737591
 21
473.25170361174798
  0
LINE
  8
_2-2_in_line
  6
CONTINUOUS
 62
    7
 10
1022.3505937737591
 20
473.25170361174798
 11
1022.4784757815846
 21
473.11245071196765
  0
LINE
  8
_2-2_in_line
  6
CONTINUOUS
 62
    7
 10
1022.4784757815846
 20
473.11245071196765
 11
1022.5246909538905
 21
473.0653457060572
  0
LINE
  8
_2-2_in_line
  6
CONTINUOUS
 62
    7
 10
1022.5246909538905
 20
473.0653457060572
 11
1022.6063902154292
 21
472.98600061102036
  0
LINE
  8
_2-2_in_line
  6
CONTINUOUS
 62
    7
 10
1022.6063902154292
 20
472.98600061102036
 11
1022.6905926077607
 21
472.90920050157922
  0
LINE
  8
_2-2_in_line
  6
CONTINUOUS
 62
    7
 10
1022.6905926077607
 20
472.90920050157922
 11
1022.7772385832563
 21
472.83515159825413
  0
LINE
  8
_2-2_in_line
  6
CONTINUOUS
 62
    7
 10
1022.7772385832563
 20
472.83515159825413
 11
1022.8662685942923
 21
472.76406012156315
  0
LINE
  8
_2-2_in_line
  6
CONTINUOUS
 62
    7
 10
1022.8662685942923
 20
472.76406012156315
 11
1022.9576230932421
 21
472.69613229203344
  0
LINE
  8
_2-2_in_line
  6
CONTINUOUS
 62
    7
 10
1022.9576230932421
 20
472.69613229203344
 11
1023.0116503181384
 21
472.65826499564412
  0
LINE
  8
_2-2_in_line
  6
CONTINUOUS
 62
    7
 10
1023.0116503181384
 20
472.65826499564412
 11
1023.1012517292252
 21
472.59897230526633
  0
LINE
  8
_2-2_in_line
  6
CONTINUOUS
 62
    7
 10
1023.1012517292252
 20
472.59897230526633
 11
1023.2594431733955
 21
472.50255904107064
  0
LINE
  8
_2-2_in_line
  6
CONTINUOUS
 62
    7
 10
1023.2594431733955
 20
472.50255904107064
 11
1023.4208544604289
 21
472.4112306319995
  0
LINE
  8
_2-2_in_line
  6
CONTINUOUS
 62
    7
 10
1023.4208544604289
 20
472.4112306319995
 11
1023.5837744087221
 21
472.32233992354907
  0
LINE
  8
_2-2_in_line
  6
CONTINUOUS
 62
    7
 10
1023.5837744087221
 20
472.32233992354907
 11
1023.7464918366741
 21
472.23323976121321
  0
LINE
  8
_2-2_in_line
  6
CONTINUOUS
 62
    7
 10
1023.7464918366741
 20
472.23323976121321
 11
1023.9072955626862
 21
472.14128299048809
  0
LINE
  8
_2-2_in_line
  6
CONTINUOUS
 62
    7
 10
1023.9072955626862
 20
472.14128299048809
 11
1023.9990105710135
 21
472.0855960489763
  0
LINE
  8
_2-2_in_line
  6
CONTINUOUS
 62
    7
 10
1023.9990105710135
 20
472.0855960489763
 11
1024.0914215634107
 21
472.02623127910385
  0
LINE
  8
_2-2_in_line
  6
CONTINUOUS
 62
    7
 10
1024.0914215634107
 20
472.02623127910385
 11
1024.2473645655659
 21
471.91872951733615
  0
LINE
  8
_2-2_in_line
  6
CONTINUOUS
 62
    7
 10
1024.2473645655659
 20
471.91872951733615
 11
1024.3996871077875
 21
471.80574632736864
  0
LINE
  8
_2-2_in_line
  6
CONTINUOUS
 62
    7
 10
1024.3996871077875
 20
471.80574632736864
 11
1024.5491635965218
 21
471.68848627497312
  0
LINE
  8
_2-2_in_line
  6
CONTINUOUS
 62
    7
 10
1024.5491635965218
 20
471.68848627497312
 11
1024.6965684382153
 21
471.56815392592364
  0
LINE
  8
_2-2_in_line
  6
CONTINUOUS
 62
    7
 10
1024.6965684382153
 20
471.56815392592364
 11
1024.8426760393122
 21
471.44595384599882
  0
LINE
  8
_2-2_in_line
  6
CONTINUOUS
 62
    7
 10
1024.8426760393122
 20
471.44595384599882
 11
1024.9271292087142
 21
471.37469666690606
  0
LINE
  8
_2-2_in_line
  6
CONTINUOUS
 62
    7
 10
1024.9271292087142
 20
471.37469666690606
 11
1025.0329710723336
 21
471.28521608300673
  0
LINE
  8
_2-2_in_line
  6
CONTINUOUS
 62
    7
 10
1025.0329710723336
 20
471.28521608300673
 11
1025.2145438506441
 21
471.13013302921047
  0
LINE
  8
_2-2_in_line
  6
CONTINUOUS
 62
    7
 10
1025.2145438506441
 20
471.13013302921047
 11
1025.3937185032678
 21
470.97274386096899
  0
LINE
  8
_2-2_in_line
  6
CONTINUOUS
 62
    7
 10
1025.3937185032678
 20
470.97274386096899
 11
1025.5690506294932
 21
470.81155366304358
  0
LINE
  8
_2-2_in_line
  6
CONTINUOUS
 62
    7
 10
1025.5690506294932
 20
470.81155366304358
 11
1025.7390958286019
 21
470.64506752019327
  0
LINE
  8
_2-2_in_line
  6
CONTINUOUS
 62
    7
 10
1025.7390958286019
 20
470.64506752019327
 11
1025.9024096998801
 21
470.47179051718388
  0
LINE
  8
_2-2_in_line
  6
CONTINUOUS
 62
    7
 10
1025.9024096998801
 20
470.47179051718388
 11
1025.9934782818195
 21
470.36758920897284
  0
LINE
  8
_2-2_in_line
  6
CONTINUOUS
 62
    7
 10
1025.9934782818195
 20
470.36758920897284
 11
1026.0451375544571
 21
470.30550193345164
  0
LINE
  8
_2-2_in_line
  6
CONTINUOUS
 62
    7
 10
1026.0451375544571
 20
470.30550193345164
 11
1026.1314626647627
 21
470.19602919361262
  0
LINE
  8
_2-2_in_line
  6
CONTINUOUS
 62
    7
 10
1026.1314626647627
 20
470.19602919361262
 11
1026.2138225368958
 21
470.08352793585402
  0
LINE
  8
_2-2_in_line
  6
CONTINUOUS
 62
    7
 10
1026.2138225368958
 20
470.08352793585402
 11
1026.2916432276402
 21
469.96804700314271
  0
LINE
  8
_2-2_in_line
  6
CONTINUOUS
 62
    7
 10
1026.2916432276402
 20
469.96804700314271
 11
1026.3643507937841
 21
469.84963523845011
  0
LINE
  8
_2-2_in_line
  6
CONTINUOUS
 62
    7
 10
1026.3643507937841
 20
469.84963523845011
 11
1026.4313712921135
 21
469.72834148474533
  0
LINE
  8
_2-2_in_line
  6
CONTINUOUS
 62
    7
 10
1026.4313712921135
 20
469.72834148474533
 11
1026.4674112032012
 21
469.65668982690488
  0
LINE
  8
_2-2_in_line
  6
CONTINUOUS
 62
    7
 10
1026.4674112032012
 20
469.65668982690488
 11
1026.5140630565575
 21
469.55521393585343
  0
LINE
  8
_2-2_in_line
  6
CONTINUOUS
 62
    7
 10
1026.5140630565575
 20
469.55521393585343
 11
1026.5855498149094
 21
469.37644955680355
  0
LINE
  8
_2-2_in_line
  6
CONTINUOUS
 62
    7
 10
1026.5855498149094
 20
469.37644955680355
 11
1026.6475011535326
 21
469.19362913865427
  0
LINE
  8
_2-2_in_line
  6
CONTINUOUS
 62
    7
 10
1026.6475011535326
 20
469.19362913865427
 11
1026.7019990418007
 21
469.00763827946378
  0
LINE
  8
_2-2_in_line
  6
CONTINUOUS
 62
    7
 10
1026.7019990418007
 20
469.00763827946378
 11
1026.7511254490873
 21
468.81936257729024
  0
LINE
  8
_2-2_in_line
  6
CONTINUOUS
 62
    7
 10
1026.7511254490873
 20
468.81936257729024
 11
1026.7969623447661
 21
468.629687630185
  0
LINE
  8
_2-2_in_line
  6
CONTINUOUS
 62
    7
 10
1026.7969623447661
 20
468.629687630185
 11
1026.8228608942363
 21
468.51938399852372
  0
LINE
  8
_2-2_in_line
  6
CONTINUOUS
 62
    7
 10
866.71148053696561
 20
468.51938399852372
 11
1016.0749850316197
 21
468.51938399852372
  0
LINE
  8
_2-2_in_line
  6
CONTINUOUS
 62
    7
 10
866.71148053696561
 20
673.51938399852372
 11
866.71148053696561
 21
273.51938399852372
  0
TEXT
  8
_2-a_moji
 62
    7
 10
944.39823100025683
 20
985.08055988868421
 40
15
 41
1
 50
0
  1
ＥＬ-2001注入
  0
TEXT
  8
_2-a_moji
 62
    7
 10
1001.2630414671899
 20
344.28140537959109
 40
15
 41
1
 50
0
  1
ＥＬ-2001注入
  0
TEXT
  8
_2-b_dim
 62
    7
 10
920.80216222147988
 20
1038.8371055069915
 40
15
 41
1
 50
0
  1
40以上
  0
TEXT
  8
_2-b_dim
 62
    7
 10
974.16566671614282
 20
398.83710550698936
 40
15
 41
1
 50
0
  1
40以上
  0
LINE
  8
_2-7_ビス
  6
CONTINUOUS
 62
    7
 10
892.83648136176544
 20
1108.5193839985236
 11
888.58647971216647
 21
1108.5193839985236
  0
LINE
  8
_2-7_ビス
  6
CONTINUOUS
 62
    7
 10
885.71147641296966
 20
1111.3943872977216
 11
888.58647971216647
 21
1108.5193839985236
  0
LINE
  8
_2-7_ビス
  6
CONTINUOUS
 62
    7
 10
895.71148466096338
 20
1111.3943872977216
 11
885.71147641296966
 21
1111.3943872977216
  0
LINE
  8
_2-7_ビス
  6
CONTINUOUS
 62
    7
 10
885.71147641296966
 20
1111.8944136913028
 11
885.71147641296966
 21
1111.3943872977216
  0
LINE
  8
_2-7_ビス
  6
CONTINUOUS
 62
    7
 10
895.71148466096338
 20
1111.3943872977216
 11
895.71148466096338
 21
1111.8944136913028
  0
LINE
  8
_2-7_ビス
  6
CONTINUOUS
 62
    7
 10
895.71148466096338
 20
1111.8944136913028
 11
885.71147641296966
 21
1111.8944136913028
  0
LINE
  8
_2-7_ビス
  6
CONTINUOUS
 62
    7
 10
895.71148466096338
 20
1111.3943872977216
 11
892.83648136176544
 21
1108.5193839985236
  0
ARC
  8
_2-7_ビス
  6
DASHED3
 62
    7
 10
890.71148053696652
 20
1110.6299467096737
 40
1.8403175392666382
 50
217.11750793457031
 51
322.88247680664062
  0
LINE
  8
_2-7_ビス
  6
DASHED3
 62
    7
 10
893.26149637311551
 20
1111.3943872977216
 11
892.17897189306859
 21
1109.5193625537404
  0
LINE
  8
_2-7_ビス
  6
DASHED3
 62
    7
 10
888.16150181679154
 20
1111.3943872977216
 11
889.24402629683732
 21
1109.5193625537404
  0
LINE
  8
_2-7_ビス
  6
DASHED3
 62
    7
 10
888.16150181679154
 20
1111.3943872977216
 11
888.16150181679154
 21
1111.8944136913028
  0
LINE
  8
_2-7_ビス
  6
DASHED3
 62
    7
 10
893.26149637311551
 20
1111.3943872977216
 11
893.26149637311551
 21
1111.8944136913028
  0
LINE
  8
_2-7_ビス
  6
CONTINUOUS
 62
    7
 10
892.71148053696584
 20
1108.5193839985236
 11
892.71148053696584
 21
1063.5193839985236
  0
LINE
  8
_2-7_ビス
  6
CONTINUOUS
 62
    7
 10
888.71148053696606
 20
1108.5193839985236
 11
888.71148053696606
 21
1063.5193839985236
  0
LINE
  8
_2-7_ビス
  6
CONTINUOUS
 62
    7
 10
893.7114805369672
 20
1059.4238988256116
 11
893.7114805369672
 21
1063.5193839985236
  0
LINE
  8
_2-7_ビス
  6
CONTINUOUS
 62
    7
 10
893.7114805369672
 20
1063.5193839985236
 11
890.71148053696652
 21
1063.5193839985236
  0
LINE
  8
_2-7_ビス
  6
CONTINUOUS
 62
    7
 10
893.7114805369672
 20
1059.4238988256116
 11
894.46148053696652
 21
1058.5993379054075
  0
LINE
  8
_2-7_ビス
  6
CONTINUOUS
 62
    7
 10
894.46148053696652
 20
1058.5993379054075
 11
894.46148053696652
 21
1056.5007321782928
  0
LINE
  8
_2-7_ビス
  6
CONTINUOUS
 62
    7
 10
894.46148053696652
 20
1056.5007321782928
 11
893.91326128696596
 21
1052.3831388650437
  0
LINE
  8
_2-7_ビス
  6
CONTINUOUS
 62
    7
 10
893.91326128696596
 20
1052.3831388650437
 11
893.67133753696612
 21
1051.9755243565232
  0
LINE
  8
_2-7_ビス
  6
CONTINUOUS
 62
    7
 10
893.67133753696612
 20
1051.9755243565232
 11
893.7114805369672
 21
1051.9755243565232
  0
LINE
  8
_2-7_ビス
  6
CONTINUOUS
 62
    7
 10
893.7114805369672
 20
1051.9755243565232
 11
893.7114805369672
 21
1050.1614892699235
  0
LINE
  8
_2-7_ビス
  6
CONTINUOUS
 62
    7
 10
893.7114805369672
 20
1050.1614892699235
 11
893.27846797639927
 21
1049.3369278669234
  0
LINE
  8
_2-7_ビス
  6
CONTINUOUS
 62
    7
 10
893.40837178696665
 20
1049.0895594460226
 11
894.38648053696602
 21
1049.0895594460226
  0
LINE
  8
_2-7_ビス
  6
CONTINUOUS
 62
    7
 10
894.38648053696602
 20
1049.0895594460226
 11
894.38648053696602
 21
1044.8561688521436
  0
LINE
  8
_2-7_ビス
  6
CONTINUOUS
 62
    7
 10
894.38648053696602
 20
1044.8561688521436
 11
893.88501103696603
 21
1043.8948226071234
  0
LINE
  8
_2-7_ビス
  6
CONTINUOUS
 62
    7
 10
893.88501103696603
 20
1043.8948226071234
 11
893.88023053696634
 21
1043.8948226071234
  0
LINE
  8
_2-7_ビス
  6
CONTINUOUS
 62
    7
 10
893.88022636368169
 20
1043.8948229609055
 11
893.88023053696634
 21
1043.8948226071234
  0
LINE
  8
_2-7_ビス
  6
CONTINUOUS
 62
    7
 10
893.88022636368169
 20
1043.8948229609055
 11
893.88023053696634
 21
1043.8948226071234
  0
LINE
  8
_2-7_ビス
  6
CONTINUOUS
 62
    7
 10
893.84763928696634
 20
1042.8228927832238
 11
894.38648053696602
 21
1042.8228927832238
  0
LINE
  8
_2-7_ビス
  6
CONTINUOUS
 62
    7
 10
894.38648053696602
 20
1042.8228927832238
 11
894.38648053696602
 21
1037.0256596464496
  0
LINE
  8
_2-7_ビス
  6
CONTINUOUS
 62
    7
 10
894.38648053696602
 20
1037.0256596464496
 11
893.88023334990612
 21
1036.0615082766849
  0
LINE
  8
_2-7_ビス
  6
CONTINUOUS
 62
    7
 10
893.88023053696634
 20
1036.061489278623
 11
893.87663890661065
 21
1036.5389406758636
  0
LINE
  8
_2-7_ビス
  6
CONTINUOUS
 62
    7
 10
893.87663890661065
 20
1036.5389406758636
 11
893.555958898987
 21
1036.5562261204236
  0
LINE
  8
_2-7_ビス
  6
CONTINUOUS
 62
    7
 10
893.39729685881912
 20
1036.803594541323
 11
893.84763928696634
 21
1037.6281559443232
  0
LINE
  8
_2-7_ビス
  6
CONTINUOUS
 62
    7
 10
893.84763928696634
 20
1037.6281559443232
 11
893.84763943908956
 21
1038.105607413318
  0
LINE
  8
_2-7_ビス
  6
CONTINUOUS
 62
    7
 10
893.84763943908956
 20
1038.105607413318
 11
893.49960703696729
 21
1038.1228927861234
  0
LINE
  8
_2-7_ビス
  6
CONTINUOUS
 62
    7
 10
893.34001728724593
 20
1038.3702612070233
 11
893.84763928696634
 21
1039.194822610023
  0
LINE
  8
_2-7_ビス
  6
CONTINUOUS
 62
    7
 10
893.84763928696634
 20
1039.194822610023
 11
893.84763928696634
 21
1039.6722741711319
  0
LINE
  8
_2-7_ビス
  6
CONTINUOUS
 62
    7
 10
893.84763928696634
 20
1039.6722741711319
 11
893.49960703696729
 21
1039.6895594518237
  0
LINE
  8
_2-7_ビス
  6
CONTINUOUS
 62
    7
 10
893.34001728724593
 20
1039.9369278727231
 11
893.84763928696634
 21
1040.7614892757233
  0
LINE
  8
_2-7_ビス
  6
CONTINUOUS
 62
    7
 10
893.84763928696634
 20
1040.7614892757233
 11
893.84763928696634
 21
1041.2389408368317
  0
LINE
  8
_2-7_ビス
  6
CONTINUOUS
 62
    7
 10
893.84763928696634
 20
1041.2389408368317
 11
893.49960703696729
 21
1041.2562261175235
  0
LINE
  8
_2-7_ビス
  6
CONTINUOUS
 62
    7
 10
893.34001728724593
 20
1041.5035945384234
 11
893.84763943908956
 21
1042.3281559414231
  0
LINE
  8
_2-7_ビス
  6
CONTINUOUS
 62
    7
 10
893.84763943908956
 20
1042.3281559414231
 11
893.84763928696634
 21
1042.8228927832238
  0
LINE
  8
_2-7_ビス
  6
CONTINUOUS
 62
    7
 10
893.88022636368169
 20
1043.8948229609055
 11
893.8765411624363
 21
1044.3722744298993
  0
LINE
  8
_2-7_ビス
  6
CONTINUOUS
 62
    7
 10
893.8765411624363
 20
1044.3722744298993
 11
893.55909628696713
 21
1044.3895594489236
  0
LINE
  8
_2-7_ビス
  6
CONTINUOUS
 62
    7
 10
893.3970041466464
 20
1044.6369278698235
 11
893.84763943908956
 21
1045.4614892728232
  0
LINE
  8
_2-7_ビス
  6
CONTINUOUS
 62
    7
 10
893.84763943908956
 20
1045.4614892728232
 11
893.84763943908956
 21
1045.9389407418171
  0
LINE
  8
_2-7_ビス
  6
CONTINUOUS
 62
    7
 10
893.84763943908956
 20
1045.9389407418171
 11
893.49960703696729
 21
1045.9562261146239
  0
LINE
  8
_2-7_ビス
  6
CONTINUOUS
 62
    7
 10
893.34001728724593
 20
1046.2035945355233
 11
893.84763928696634
 21
1047.0281559385235
  0
LINE
  8
_2-7_ビス
  6
CONTINUOUS
 62
    7
 10
893.84763928696634
 20
1047.0281559385235
 11
893.84763943908956
 21
1047.5056074075173
  0
LINE
  8
_2-7_ビス
  6
CONTINUOUS
 62
    7
 10
893.84763943908956
 20
1047.5056074075173
 11
893.49872094447824
 21
1047.523124361483
  0
LINE
  8
_2-7_ビス
  6
CONTINUOUS
 62
    7
 10
893.34001728724593
 20
1047.7702612012235
 11
893.84763943908956
 21
1048.5948226042233
  0
LINE
  8
_2-7_ビス
  6
CONTINUOUS
 62
    7
 10
893.84763943908956
 20
1048.5948226042233
 11
893.84763928145935
 21
1049.0895594460226
  0
LINE
  8
_2-7_ビス
  6
CONTINUOUS
 62
    7
 10
893.84763928696634
 20
1034.9895594547233
 11
894.38648053696602
 21
1034.9895594547233
  0
LINE
  8
_2-7_ビス
  6
CONTINUOUS
 62
    7
 10
894.38648053696602
 20
1034.9895594547233
 11
894.38648053696602
 21
1031.741317719886
  0
LINE
  8
_2-7_ビス
  6
CONTINUOUS
 62
    7
 10
894.38648053696602
 20
1031.741317719886
 11
893.88069478696684
 21
1028.228155950123
  0
LINE
  8
_2-7_ビス
  6
CONTINUOUS
 62
    7
 10
893.88069478696684
 20
1028.228155950123
 11
893.87996026930273
 21
1028.7056070342642
  0
LINE
  8
_2-7_ビス
  6
CONTINUOUS
 62
    7
 10
893.87996026930273
 20
1028.7056070342642
 11
893.57127178696578
 21
1028.7228927919232
  0
LINE
  8
_2-7_ビス
  6
CONTINUOUS
 62
    7
 10
893.88069478696684
 20
1028.228155950123
 11
893.44721797639954
 21
1027.4035945471228
  0
LINE
  8
_2-7_ビス
  6
CONTINUOUS
 62
    7
 10
893.42671522217847
 20
1028.9702612128231
 11
893.87731755563868
 21
1029.7948226158228
  0
LINE
  8
_2-7_ビス
  6
CONTINUOUS
 62
    7
 10
893.87731755563868
 20
1029.7948226158228
 11
893.87523265137679
 21
1030.2722736999631
  0
LINE
  8
_2-7_ビス
  6
CONTINUOUS
 62
    7
 10
893.87523265137679
 20
1030.2722736999631
 11
893.55290578696645
 21
1030.2895594576235
  0
LINE
  8
_2-7_ビス
  6
CONTINUOUS
 62
    7
 10
893.40440029114893
 20
1030.5369278785229
 11
893.8682681504722
 21
1031.361488896669
  0
LINE
  8
_2-7_ビス
  6
CONTINUOUS
 62
    7
 10
893.8682681504722
 20
1031.361488896669
 11
893.8642053097758
 21
1031.8389403656643
  0
LINE
  8
_2-7_ビス
  6
CONTINUOUS
 62
    7
 10
893.8642053097758
 20
1031.8389403656643
 11
893.52955195450795
 21
1031.8562261233233
  0
LINE
  8
_2-7_ビス
  6
CONTINUOUS
 62
    7
 10
893.37229733833942
 20
1032.1035945442231
 11
893.85249996254493
 21
1032.9281555623693
  0
LINE
  8
_2-7_ビス
  6
CONTINUOUS
 62
    7
 10
893.85249996254493
 20
1032.9281555623693
 11
893.84763928696634
 21
1033.4056075083317
  0
LINE
  8
_2-7_ビス
  6
CONTINUOUS
 62
    7
 10
893.84763928696634
 20
1033.4056075083317
 11
893.49960703696729
 21
1033.4228927890235
  0
LINE
  8
_2-7_ビス
  6
CONTINUOUS
 62
    7
 10
893.34001728724593
 20
1033.670261209923
 11
893.84763943908956
 21
1034.4948226129231
  0
LINE
  8
_2-7_ビス
  6
CONTINUOUS
 62
    7
 10
893.84763943908956
 20
1034.4948226129231
 11
893.84763928696634
 21
1034.9895594547233
  0
LINE
  8
_2-7_ビス
  6
CONTINUOUS
 62
    7
 10
893.57712178696579
 20
1027.1562261262234
 11
893.7114805369672
 21
1027.1562261262234
  0
LINE
  8
_2-7_ビス
  6
CONTINUOUS
 62
    7
 10
893.7114805369672
 20
1027.1562261262234
 11
893.7114805369672
 21
1026.3728927933726
  0
LINE
  8
_2-7_ビス
  6
CONTINUOUS
 62
    7
 10
893.7114805369672
 20
1026.3728927933726
 11
893.5614805369662
 21
1026.3728927933726
  0
LINE
  8
_2-7_ビス
  6
CONTINUOUS
 62
    7
 10
893.5614805369662
 20
1026.3728927933726
 11
893.5614805369662
 21
1024.7649980575234
  0
LINE
  8
_2-7_ビス
  6
CONTINUOUS
 62
    7
 10
893.5614805369662
 20
1024.7649980575234
 11
893.5550137261655
 21
1024.7649980575234
  0
LINE
  8
_2-7_ビス
  6
CONTINUOUS
 62
    7
 10
893.5047385369669
 20
1024.4351734963238
 11
893.50473839042797
 21
1018.4847319035038
  0
LINE
  8
_2-7_ビス
  6
CONTINUOUS
 62
    7
 10
893.50473839042797
 20
1018.4847319035038
 11
893.06430103696675
 21
1017.8333110793443
  0
LINE
  8
_2-7_ビス
  6
CONTINUOUS
 62
    7
 10
893.06430103696675
 20
1017.8333110793443
 11
892.06148053696643
 21
1016.5193840275236
  0
LINE
  8
_2-7_ビス
  6
CONTINUOUS
 62
    7
 10
892.06148053696643
 20
1016.5193840275236
 11
891.91210205747188
 21
1016.5193840275236
  0
LINE
  8
_2-7_ビス
  6
CONTINUOUS
 62
    7
 10
891.91210205747188
 20
1016.5193840275236
 11
892.99719616678635
 21
1018.4847319035038
  0
LINE
  8
_2-7_ビス
  6
CONTINUOUS
 62
    7
 10
892.99719616678635
 20
1018.4847319035038
 11
892.99719628696698
 21
1022.4562261291231
  0
LINE
  8
_2-7_ビス
  6
CONTINUOUS
 62
    7
 10
892.41383278696708
 20
1022.4562261291231
 11
892.4138330603987
 21
1018.4847320562022
  0
LINE
  8
_2-7_ビス
  6
CONTINUOUS
 62
    7
 10
892.4138330603987
 20
1018.4847320562022
 11
891.32873869516607
 21
1016.5193840275236
  0
LINE
  8
_2-7_ビス
  6
CONTINUOUS
 62
    7
 10
891.32873869516607
 20
1016.5193840275236
 11
890.71148053696652
 21
1016.5193840275236
  0
LINE
  8
_2-7_ビス
  6
CONTINUOUS
 62
    7
 10
893.2891806420497
 20
1049.3573272795891
 11
893.2891806420497
 21
1049.3573272795891
  0
LINE
  8
_2-7_ビス
  6
CONTINUOUS
 62
    7
 10
893.2891806420497
 20
1049.3573272795891
 11
893.27598251669485
 21
1049.3310679242124
  0
LINE
  8
_2-7_ビス
  6
CONTINUOUS
 62
    7
 10
893.27598251669485
 20
1049.3310679242124
 11
893.26713245932342
 21
1049.3026878342434
  0
LINE
  8
_2-7_ビス
  6
CONTINUOUS
 62
    7
 10
893.26713245932342
 20
1049.3026878342434
 11
893.26289937445028
 21
1049.273049324355
  0
LINE
  8
_2-7_ビス
  6
CONTINUOUS
 62
    7
 10
893.26289937445028
 20
1049.273049324355
 11
893.2634118822175
 21
1049.2430529456722
  0
LINE
  8
_2-7_ビス
  6
CONTINUOUS
 62
    7
 10
893.2634118822175
 20
1049.2430529456722
 11
893.26865441033567
 21
1049.2136101229821
  0
LINE
  8
_2-7_ビス
  6
CONTINUOUS
 62
    7
 10
893.26865441033567
 20
1049.2136101229821
 11
893.27846766724088
 21
1049.1856154615539
  0
LINE
  8
_2-7_ビス
  6
CONTINUOUS
 62
    7
 10
893.27846766724088
 20
1049.1856154615539
 11
893.29255348208778
 21
1049.1599195650085
  0
LINE
  8
_2-7_ビス
  6
CONTINUOUS
 62
    7
 10
893.29255348208778
 20
1049.1599195650085
 11
893.31048386452005
 21
1049.1373031901603
  0
LINE
  8
_2-7_ビス
  6
CONTINUOUS
 62
    7
 10
893.31048386452005
 20
1049.1373031901603
 11
893.33171400894059
 21
1049.1184535241141
  0
LINE
  8
_2-7_ビス
  6
CONTINUOUS
 62
    7
 10
893.33171400894059
 20
1049.1184535241141
 11
893.35559884815427
 21
1049.1039433044346
  0
LINE
  8
_2-7_ビス
  6
CONTINUOUS
 62
    7
 10
893.35559884815427
 20
1049.1039433044346
 11
893.38141265340789
 21
1049.0942134168042
  0
LINE
  8
_2-7_ビス
  6
CONTINUOUS
 62
    7
 10
893.38141265340789
 20
1049.0942134168042
 11
893.40837108529115
 21
1049.0895594989349
  0
LINE
  8
_2-7_ビス
  6
CONTINUOUS
 62
    7
 10
893.40837108529115
 20
1049.0895594989349
 11
893.40837178696665
 21
1049.0895594460228
  0
LINE
  8
_2-7_ビス
  6
CONTINUOUS
 62
    7
 10
893.34001728724525
 20
1047.7702612012231
 11
893.34001728724525
 21
1047.7702612012231
  0
LINE
  8
_2-7_ビス
  6
CONTINUOUS
 62
    7
 10
893.34001728724525
 20
1047.7702612012231
 11
893.33934618165813
 21
1047.7303030472347
  0
LINE
  8
_2-7_ビス
  6
CONTINUOUS
 62
    7
 10
893.33934618165813
 20
1047.7303030472347
 11
893.34499650022224
 21
1047.6908238256524
  0
LINE
  8
_2-7_ビス
  6
CONTINUOUS
 62
    7
 10
893.34499650022224
 20
1047.6908238256524
 11
893.356796560867
 21
1047.6530230926467
  0
LINE
  8
_2-7_ビス
  6
CONTINUOUS
 62
    7
 10
893.356796560867
 20
1047.6530230926467
 11
893.37438782472088
 21
1047.6180494043613
  0
LINE
  8
_2-7_ビス
  6
CONTINUOUS
 62
    7
 10
893.37438782472088
 20
1047.6180494043613
 11
893.39723579013344
 21
1047.5869654186179
  0
LINE
  8
_2-7_ビス
  6
CONTINUOUS
 62
    7
 10
893.39723579013344
 20
1047.5869654186179
 11
893.42464623323724
 21
1047.5607156065935
  0
LINE
  8
_2-7_ビス
  6
CONTINUOUS
 62
    7
 10
893.42464623323724
 20
1047.5607156065935
 11
893.45578630158866
 21
1047.5400975555438
  0
LINE
  8
_2-7_ビス
  6
CONTINUOUS
 62
    7
 10
893.45578630158866
 20
1047.5400975555438
 11
893.48970981996877
 21
1047.5257377345167
  0
LINE
  8
_2-7_ビス
  6
CONTINUOUS
 62
    7
 10
893.48970981996877
 20
1047.5257377345167
 11
893.49960703696593
 21
1047.522892780323
  0
LINE
  8
_2-7_ビス
  6
CONTINUOUS
 62
    7
 10
893.34001728724525
 20
1046.2035945355233
 11
893.34001728724525
 21
1046.2035945355233
  0
LINE
  8
_2-7_ビス
  6
CONTINUOUS
 62
    7
 10
893.34001728724525
 20
1046.2035945355233
 11
893.33934618165813
 21
1046.1636363815348
  0
LINE
  8
_2-7_ビス
  6
CONTINUOUS
 62
    7
 10
893.33934618165813
 20
1046.1636363815348
 11
893.34499650022224
 21
1046.1241571599526
  0
LINE
  8
_2-7_ビス
  6
CONTINUOUS
 62
    7
 10
893.34499650022224
 20
1046.1241571599526
 11
893.356796560867
 21
1046.0863564269468
  0
LINE
  8
_2-7_ビス
  6
CONTINUOUS
 62
    7
 10
893.356796560867
 20
1046.0863564269468
 11
893.37438782472088
 21
1046.0513827386615
  0
LINE
  8
_2-7_ビス
  6
CONTINUOUS
 62
    7
 10
893.37438782472088
 20
1046.0513827386615
 11
893.39723579013344
 21
1046.0202987529181
  0
LINE
  8
_2-7_ビス
  6
CONTINUOUS
 62
    7
 10
893.39723579013344
 20
1046.0202987529181
 11
893.42464623323724
 21
1045.9940489408937
  0
LINE
  8
_2-7_ビス
  6
CONTINUOUS
 62
    7
 10
893.42464623323724
 20
1045.9940489408937
 11
893.45578630158866
 21
1045.9734308898439
  0
LINE
  8
_2-7_ビス
  6
CONTINUOUS
 62
    7
 10
893.45578630158866
 20
1045.9734308898439
 11
893.48970981996877
 21
1045.9590710688169
  0
LINE
  8
_2-7_ビス
  6
CONTINUOUS
 62
    7
 10
893.48970981996877
 20
1045.9590710688169
 11
893.49960703696593
 21
1045.9562261146232
  0
LINE
  8
_2-7_ビス
  6
CONTINUOUS
 62
    7
 10
893.39700414664685
 20
1044.636927869823
 11
893.39700414664685
 21
1044.636927869823
  0
LINE
  8
_2-7_ビス
  6
CONTINUOUS
 62
    7
 10
893.39700414664685
 20
1044.636927869823
 11
893.39633304105973
 21
1044.5969697158346
  0
LINE
  8
_2-7_ビス
  6
CONTINUOUS
 62
    7
 10
893.39633304105973
 20
1044.5969697158346
 11
893.40198335962384
 21
1044.5574904942523
  0
LINE
  8
_2-7_ビス
  6
CONTINUOUS
 62
    7
 10
893.40198335962384
 20
1044.5574904942523
 11
893.4137834202686
 21
1044.5196897612466
  0
LINE
  8
_2-7_ビス
  6
CONTINUOUS
 62
    7
 10
893.4137834202686
 20
1044.5196897612466
 11
893.43137468412249
 21
1044.4847160729612
  0
LINE
  8
_2-7_ビス
  6
CONTINUOUS
 62
    7
 10
893.43137468412249
 20
1044.4847160729612
 11
893.45422264953504
 21
1044.4536320872178
  0
LINE
  8
_2-7_ビス
  6
CONTINUOUS
 62
    7
 10
893.45422264953504
 20
1044.4536320872178
 11
893.48163309263884
 21
1044.4273822751934
  0
LINE
  8
_2-7_ビス
  6
CONTINUOUS
 62
    7
 10
893.48163309263884
 20
1044.4273822751934
 11
893.51277316099026
 21
1044.4067642241437
  0
LINE
  8
_2-7_ビス
  6
CONTINUOUS
 62
    7
 10
893.51277316099026
 20
1044.4067642241437
 11
893.54669667937037
 21
1044.3924044031166
  0
LINE
  8
_2-7_ビス
  6
CONTINUOUS
 62
    7
 10
893.54669667937037
 20
1044.3924044031166
 11
893.55659389636753
 21
1044.3895594489229
  0
LINE
  8
_2-7_ビス
  6
CONTINUOUS
 62
    7
 10
893.34001728724525
 20
1041.5035945384229
 11
893.34001728724525
 21
1041.5035945384229
  0
LINE
  8
_2-7_ビス
  6
CONTINUOUS
 62
    7
 10
893.34001728724525
 20
1041.5035945384229
 11
893.33934618165813
 21
1041.4636363844345
  0
LINE
  8
_2-7_ビス
  6
CONTINUOUS
 62
    7
 10
893.33934618165813
 20
1041.4636363844345
 11
893.34499650022224
 21
1041.4241571628522
  0
LINE
  8
_2-7_ビス
  6
CONTINUOUS
 62
    7
 10
893.34499650022224
 20
1041.4241571628522
 11
893.356796560867
 21
1041.3863564298465
  0
LINE
  8
_2-7_ビス
  6
CONTINUOUS
 62
    7
 10
893.356796560867
 20
1041.3863564298465
 11
893.37438782472088
 21
1041.3513827415611
  0
LINE
  8
_2-7_ビス
  6
CONTINUOUS
 62
    7
 10
893.37438782472088
 20
1041.3513827415611
 11
893.39723579013344
 21
1041.3202987558177
  0
LINE
  8
_2-7_ビス
  6
CONTINUOUS
 62
    7
 10
893.39723579013344
 20
1041.3202987558177
 11
893.42464623323724
 21
1041.2940489437933
  0
LINE
  8
_2-7_ビス
  6
CONTINUOUS
 62
    7
 10
893.42464623323724
 20
1041.2940489437933
 11
893.45578630158866
 21
1041.2734308927436
  0
LINE
  8
_2-7_ビス
  6
CONTINUOUS
 62
    7
 10
893.45578630158866
 20
1041.2734308927436
 11
893.48970981996877
 21
1041.2590710717166
  0
LINE
  8
_2-7_ビス
  6
CONTINUOUS
 62
    7
 10
893.48970981996877
 20
1041.2590710717166
 11
893.49960703696593
 21
1041.2562261175228
  0
LINE
  8
_2-7_ビス
  6
CONTINUOUS
 62
    7
 10
893.34001728724525
 20
1039.9369278727231
 11
893.34001728724525
 21
1039.9369278727231
  0
LINE
  8
_2-7_ビス
  6
CONTINUOUS
 62
    7
 10
893.34001728724525
 20
1039.9369278727231
 11
893.33934618165813
 21
1039.8969697187347
  0
LINE
  8
_2-7_ビス
  6
CONTINUOUS
 62
    7
 10
893.33934618165813
 20
1039.8969697187347
 11
893.34499650022224
 21
1039.8574904971524
  0
LINE
  8
_2-7_ビス
  6
CONTINUOUS
 62
    7
 10
893.34499650022224
 20
1039.8574904971524
 11
893.356796560867
 21
1039.8196897641467
  0
LINE
  8
_2-7_ビス
  6
CONTINUOUS
 62
    7
 10
893.356796560867
 20
1039.8196897641467
 11
893.37438782472088
 21
1039.7847160758613
  0
LINE
  8
_2-7_ビス
  6
CONTINUOUS
 62
    7
 10
893.37438782472088
 20
1039.7847160758613
 11
893.39723579013344
 21
1039.7536320901179
  0
LINE
  8
_2-7_ビス
  6
CONTINUOUS
 62
    7
 10
893.39723579013344
 20
1039.7536320901179
 11
893.42464623323724
 21
1039.7273822780935
  0
LINE
  8
_2-7_ビス
  6
CONTINUOUS
 62
    7
 10
893.42464623323724
 20
1039.7273822780935
 11
893.45578630158866
 21
1039.7067642270438
  0
LINE
  8
_2-7_ビス
  6
CONTINUOUS
 62
    7
 10
893.45578630158866
 20
1039.7067642270438
 11
893.48970981996877
 21
1039.6924044060167
  0
LINE
  8
_2-7_ビス
  6
CONTINUOUS
 62
    7
 10
893.48970981996877
 20
1039.6924044060167
 11
893.49960703696593
 21
1039.689559451823
  0
LINE
  8
_2-7_ビス
  6
CONTINUOUS
 62
    7
 10
893.34001728724525
 20
1038.3702612070228
 11
893.34001728724525
 21
1038.3702612070228
  0
LINE
  8
_2-7_ビス
  6
CONTINUOUS
 62
    7
 10
893.34001728724525
 20
1038.3702612070228
 11
893.33934618165813
 21
1038.3303030530344
  0
LINE
  8
_2-7_ビス
  6
CONTINUOUS
 62
    7
 10
893.33934618165813
 20
1038.3303030530344
 11
893.34499650022224
 21
1038.2908238314521
  0
LINE
  8
_2-7_ビス
  6
CONTINUOUS
 62
    7
 10
893.34499650022224
 20
1038.2908238314521
 11
893.356796560867
 21
1038.2530230984464
  0
LINE
  8
_2-7_ビス
  6
CONTINUOUS
 62
    7
 10
893.356796560867
 20
1038.2530230984464
 11
893.37438782472088
 21
1038.218049410161
  0
LINE
  8
_2-7_ビス
  6
CONTINUOUS
 62
    7
 10
893.37438782472088
 20
1038.218049410161
 11
893.39723579013344
 21
1038.1869654244176
  0
LINE
  8
_2-7_ビス
  6
CONTINUOUS
 62
    7
 10
893.39723579013344
 20
1038.1869654244176
 11
893.42464623323724
 21
1038.1607156123932
  0
LINE
  8
_2-7_ビス
  6
CONTINUOUS
 62
    7
 10
893.42464623323724
 20
1038.1607156123932
 11
893.45578630158866
 21
1038.1400975613435
  0
LINE
  8
_2-7_ビス
  6
CONTINUOUS
 62
    7
 10
893.45578630158866
 20
1038.1400975613435
 11
893.48970981996877
 21
1038.1257377403165
  0
LINE
  8
_2-7_ビス
  6
CONTINUOUS
 62
    7
 10
893.48970981996877
 20
1038.1257377403165
 11
893.49960703696593
 21
1038.1228927861227
  0
LINE
  8
_2-7_ビス
  6
CONTINUOUS
 62
    7
 10
893.39729685881957
 20
1036.803594541323
 11
893.39729685881957
 21
1036.803594541323
  0
LINE
  8
_2-7_ビス
  6
CONTINUOUS
 62
    7
 10
893.39729685881957
 20
1036.803594541323
 11
893.39662575323246
 21
1036.7636363873346
  0
LINE
  8
_2-7_ビス
  6
CONTINUOUS
 62
    7
 10
893.39662575323246
 20
1036.7636363873346
 11
893.40227607179656
 21
1036.7241571657523
  0
LINE
  8
_2-7_ビス
  6
CONTINUOUS
 62
    7
 10
893.40227607179656
 20
1036.7241571657523
 11
893.41407613244132
 21
1036.6863564327466
  0
LINE
  8
_2-7_ビス
  6
CONTINUOUS
 62
    7
 10
893.41407613244132
 20
1036.6863564327466
 11
893.43166739629521
 21
1036.6513827444612
  0
LINE
  8
_2-7_ビス
  6
CONTINUOUS
 62
    7
 10
893.43166739629521
 20
1036.6513827444612
 11
893.45451536170776
 21
1036.6202987587178
  0
LINE
  8
_2-7_ビス
  6
CONTINUOUS
 62
    7
 10
893.45451536170776
 20
1036.6202987587178
 11
893.48192580481157
 21
1036.5940489466934
  0
LINE
  8
_2-7_ビス
  6
CONTINUOUS
 62
    7
 10
893.48192580481157
 20
1036.5940489466934
 11
893.51306587316299
 21
1036.5734308956437
  0
LINE
  8
_2-7_ビス
  6
CONTINUOUS
 62
    7
 10
893.51306587316299
 20
1036.5734308956437
 11
893.54698939154309
 21
1036.5590710746167
  0
LINE
  8
_2-7_ビス
  6
CONTINUOUS
 62
    7
 10
893.54698939154309
 20
1036.5590710746167
 11
893.55688660854025
 21
1036.5562261204229
  0
LINE
  8
_2-7_ビス
  6
CONTINUOUS
 62
    7
 10
893.34001728724525
 20
1033.670261209923
 11
893.34001728724525
 21
1033.670261209923
  0
LINE
  8
_2-7_ビス
  6
CONTINUOUS
 62
    7
 10
893.34001728724525
 20
1033.670261209923
 11
893.33934618165813
 21
1033.6303030559345
  0
LINE
  8
_2-7_ビス
  6
CONTINUOUS
 62
    7
 10
893.33934618165813
 20
1033.6303030559345
 11
893.34499650022224
 21
1033.5908238343522
  0
LINE
  8
_2-7_ビス
  6
CONTINUOUS
 62
    7
 10
893.34499650022224
 20
1033.5908238343522
 11
893.356796560867
 21
1033.5530231013465
  0
LINE
  8
_2-7_ビス
  6
CONTINUOUS
 62
    7
 10
893.356796560867
 20
1033.5530231013465
 11
893.37438782472088
 21
1033.5180494130611
  0
LINE
  8
_2-7_ビス
  6
CONTINUOUS
 62
    7
 10
893.37438782472088
 20
1033.5180494130611
 11
893.39723579013344
 21
1033.4869654273177
  0
LINE
  8
_2-7_ビス
  6
CONTINUOUS
 62
    7
 10
893.39723579013344
 20
1033.4869654273177
 11
893.42464623323724
 21
1033.4607156152933
  0
LINE
  8
_2-7_ビス
  6
CONTINUOUS
 62
    7
 10
893.42464623323724
 20
1033.4607156152933
 11
893.45578630158866
 21
1033.4400975642436
  0
LINE
  8
_2-7_ビス
  6
CONTINUOUS
 62
    7
 10
893.45578630158866
 20
1033.4400975642436
 11
893.48970981996877
 21
1033.4257377432166
  0
LINE
  8
_2-7_ビス
  6
CONTINUOUS
 62
    7
 10
893.48970981996877
 20
1033.4257377432166
 11
893.49960703696593
 21
1033.4228927890229
  0
LINE
  8
_2-7_ビス
  6
CONTINUOUS
 62
    7
 10
893.37229733833988
 20
1032.1035945442227
 11
893.37229733833988
 21
1032.1035945442227
  0
LINE
  8
_2-7_ビス
  6
CONTINUOUS
 62
    7
 10
893.37229733833988
 20
1032.1035945442227
 11
893.37162623275276
 21
1032.0636363902343
  0
LINE
  8
_2-7_ビス
  6
CONTINUOUS
 62
    7
 10
893.37162623275276
 20
1032.0636363902343
 11
893.37727655131687
 21
1032.024157168652
  0
LINE
  8
_2-7_ビス
  6
CONTINUOUS
 62
    7
 10
893.37727655131687
 20
1032.024157168652
 11
893.38907661196163
 21
1031.9863564356463
  0
LINE
  8
_2-7_ビス
  6
CONTINUOUS
 62
    7
 10
893.38907661196163
 20
1031.9863564356463
 11
893.40666787581551
 21
1031.9513827473609
  0
LINE
  8
_2-7_ビス
  6
CONTINUOUS
 62
    7
 10
893.40666787581551
 20
1031.9513827473609
 11
893.42951584122807
 21
1031.9202987616175
  0
LINE
  8
_2-7_ビス
  6
CONTINUOUS
 62
    7
 10
893.42951584122807
 20
1031.9202987616175
 11
893.45692628433187
 21
1031.8940489495931
  0
LINE
  8
_2-7_ビス
  6
CONTINUOUS
 62
    7
 10
893.45692628433187
 20
1031.8940489495931
 11
893.48806635268329
 21
1031.8734308985433
  0
LINE
  8
_2-7_ビス
  6
CONTINUOUS
 62
    7
 10
893.48806635268329
 20
1031.8734308985433
 11
893.5219898710634
 21
1031.8590710775163
  0
LINE
  8
_2-7_ビス
  6
CONTINUOUS
 62
    7
 10
893.5219898710634
 20
1031.8590710775163
 11
893.53188708806056
 21
1031.8562261233226
  0
LINE
  8
_2-7_ビス
  6
CONTINUOUS
 62
    7
 10
893.40440029114825
 20
1030.5369278785229
 11
893.40440029114825
 21
1030.5369278785229
  0
LINE
  8
_2-7_ビス
  6
CONTINUOUS
 62
    7
 10
893.40440029114825
 20
1030.5369278785229
 11
893.40372918556113
 21
1030.4969697245344
  0
LINE
  8
_2-7_ビス
  6
CONTINUOUS
 62
    7
 10
893.40372918556113
 20
1030.4969697245344
 11
893.40937950412524
 21
1030.4574905029522
  0
LINE
  8
_2-7_ビス
  6
CONTINUOUS
 62
    7
 10
893.40937950412524
 20
1030.4574905029522
 11
893.42117956477
 21
1030.4196897699464
  0
LINE
  8
_2-7_ビス
  6
CONTINUOUS
 62
    7
 10
893.42117956477
 20
1030.4196897699464
 11
893.43877082862389
 21
1030.3847160816611
  0
LINE
  8
_2-7_ビス
  6
CONTINUOUS
 62
    7
 10
893.43877082862389
 20
1030.3847160816611
 11
893.46161879403644
 21
1030.3536320959176
  0
LINE
  8
_2-7_ビス
  6
CONTINUOUS
 62
    7
 10
893.46161879403644
 20
1030.3536320959176
 11
893.48902923714024
 21
1030.3273822838933
  0
LINE
  8
_2-7_ビス
  6
CONTINUOUS
 62
    7
 10
893.48902923714024
 20
1030.3273822838933
 11
893.52016930549166
 21
1030.3067642328435
  0
LINE
  8
_2-7_ビス
  6
CONTINUOUS
 62
    7
 10
893.52016930549166
 20
1030.3067642328435
 11
893.55409282387177
 21
1030.2924044118165
  0
LINE
  8
_2-7_ビス
  6
CONTINUOUS
 62
    7
 10
893.55409282387177
 20
1030.2924044118165
 11
893.56399004086893
 21
1030.2895594576228
  0
LINE
  8
_2-7_ビス
  6
CONTINUOUS
 62
    7
 10
893.42671522217779
 20
1028.970261212824
 11
893.42671522217779
 21
1028.970261212824
  0
LINE
  8
_2-7_ビス
  6
CONTINUOUS
 62
    7
 10
893.42671522217779
 20
1028.970261212824
 11
893.42604411659067
 21
1028.9303030588355
  0
LINE
  8
_2-7_ビス
  6
CONTINUOUS
 62
    7
 10
893.42604411659067
 20
1028.9303030588355
 11
893.43169443515478
 21
1028.8908238372533
  0
LINE
  8
_2-7_ビス
  6
CONTINUOUS
 62
    7
 10
893.43169443515478
 20
1028.8908238372533
 11
893.44349449579954
 21
1028.8530231042475
  0
LINE
  8
_2-7_ビス
  6
CONTINUOUS
 62
    7
 10
893.44349449579954
 20
1028.8530231042475
 11
893.46108575965343
 21
1028.8180494159622
  0
LINE
  8
_2-7_ビス
  6
CONTINUOUS
 62
    7
 10
893.46108575965343
 20
1028.8180494159622
 11
893.48393372506598
 21
1028.7869654302187
  0
LINE
  8
_2-7_ビス
  6
CONTINUOUS
 62
    7
 10
893.48393372506598
 20
1028.7869654302187
 11
893.51134416816979
 21
1028.7607156181944
  0
LINE
  8
_2-7_ビス
  6
CONTINUOUS
 62
    7
 10
893.51134416816979
 20
1028.7607156181944
 11
893.5424842365212
 21
1028.7400975671446
  0
LINE
  8
_2-7_ビス
  6
CONTINUOUS
 62
    7
 10
893.5424842365212
 20
1028.7400975671446
 11
893.57640775490131
 21
1028.7257377461176
  0
LINE
  8
_2-7_ビス
  6
CONTINUOUS
 62
    7
 10
893.57640775490131
 20
1028.7257377461176
 11
893.58630497189847
 21
1028.7228927919239
  0
LINE
  8
_2-7_ビス
  6
CONTINUOUS
 62
    7
 10
893.46021780111232
 20
1027.4283228680931
 11
893.46021780111232
 21
1027.4283228680931
  0
LINE
  8
_2-7_ビス
  6
CONTINUOUS
 62
    7
 10
893.46021780111232
 20
1027.4283228680931
 11
893.44655564936227
 21
1027.4020348661161
  0
LINE
  8
_2-7_ビス
  6
CONTINUOUS
 62
    7
 10
893.44655564936227
 20
1027.4020348661161
 11
893.43725313981383
 21
1027.3735379768025
  0
LINE
  8
_2-7_ビス
  6
CONTINUOUS
 62
    7
 10
893.43725313981383
 20
1027.3735379768025
 11
893.43259292451239
 21
1027.3436980637141
  0
LINE
  8
_2-7_ビス
  6
CONTINUOUS
 62
    7
 10
893.43259292451239
 20
1027.3436980637141
 11
893.43271660174162
 21
1027.3134217975105
  0
LINE
  8
_2-7_ビス
  6
CONTINUOUS
 62
    7
 10
893.43271660174162
 20
1027.3134217975105
 11
893.43762041363141
 21
1027.2836291072197
  0
LINE
  8
_2-7_ビス
  6
CONTINUOUS
 62
    7
 10
893.43762041363141
 20
1027.2836291072197
 11
893.44715536033914
 21
1027.2552252286603
  0
LINE
  8
_2-7_ビス
  6
CONTINUOUS
 62
    7
 10
893.44715536033914
 20
1027.2552252286603
 11
893.46103172733388
 21
1027.2290731993091
  0
LINE
  8
_2-7_ビス
  6
CONTINUOUS
 62
    7
 10
893.46103172733388
 20
1027.2290731993091
 11
893.47882788822619
 21
1027.2059676353449
  0
LINE
  8
_2-7_ビス
  6
CONTINUOUS
 62
    7
 10
893.47882788822619
 20
1027.2059676353449
 11
893.50000311567294
 21
1027.1866105876363
  0
LINE
  8
_2-7_ビス
  6
CONTINUOUS
 62
    7
 10
893.50000311567294
 20
1027.1866105876363
 11
893.5239140111031
 21
1027.1715902102831
  0
LINE
  8
_2-7_ビス
  6
CONTINUOUS
 62
    7
 10
893.5239140111031
 20
1027.1715902102831
 11
893.54983405405858
 21
1027.1613628898501
  0
LINE
  8
_2-7_ビス
  6
CONTINUOUS
 62
    7
 10
893.54983405405858
 20
1027.1613628898501
 11
893.57697567715024
 21
1027.1562393782938
  0
LINE
  8
_2-7_ビス
  6
CONTINUOUS
 62
    7
 10
893.57697567715024
 20
1027.1562393782938
 11
893.57712178696647
 21
1027.1562261262236
  0
LINE
  8
_2-7_ビス
  6
CONTINUOUS
 62
    7
 10
893.88023053696725
 20
1036.0614892786234
 11
893.88023053696725
 21
1036.0614892786234
  0
LINE
  8
_2-7_ビス
  6
CONTINUOUS
 62
    7
 10
893.88023053696725
 20
1036.0614892786234
 11
893.79590470617347
 21
1036.0492293219756
  0
LINE
  8
_2-7_ビス
  6
CONTINUOUS
 62
    7
 10
893.79590470617347
 20
1036.0492293219756
 11
893.71479638471521
 21
1036.0210568552686
  0
LINE
  8
_2-7_ビス
  6
CONTINUOUS
 62
    7
 10
893.71479638471521
 20
1036.0210568552686
 11
893.63937000789713
 21
1035.977827884647
  0
LINE
  8
_2-7_ビス
  6
CONTINUOUS
 62
    7
 10
893.63937000789713
 20
1035.977827884647
 11
893.57191736801121
 21
1035.9208559005085
  0
LINE
  8
_2-7_ビス
  6
CONTINUOUS
 62
    7
 10
893.57191736801121
 20
1035.9208559005085
 11
893.51448797938781
 21
1035.8518719677618
  0
LINE
  8
_2-7_ビス
  6
CONTINUOUS
 62
    7
 10
893.51448797938781
 20
1035.8518719677618
 11
893.46882680493957
 21
1035.7729721282958
  0
LINE
  8
_2-7_ビス
  6
CONTINUOUS
 62
    7
 10
893.46882680493957
 20
1035.7729721282958
 11
893.43632123634632
 21
1035.6865537138076
  0
LINE
  8
_2-7_ビス
  6
CONTINUOUS
 62
    7
 10
893.43632123634632
 20
1035.6865537138076
 11
893.41795893886126
 21
1035.5952425040916
  0
LINE
  8
_2-7_ビス
  6
CONTINUOUS
 62
    7
 10
893.41795893886126
 20
1035.5952425040916
 11
893.41429784160164
 21
1035.5018129440491
  0
LINE
  8
_2-7_ビス
  6
CONTINUOUS
 62
    7
 10
893.41429784160164
 20
1035.5018129440491
 11
893.42544918515512
 21
1035.4091038435845
  0
LINE
  8
_2-7_ビス
  6
CONTINUOUS
 62
    7
 10
893.42544918515512
 20
1035.4091038435845
 11
893.45107414159065
 21
1035.3199321218024
  0
LINE
  8
_2-7_ビス
  6
CONTINUOUS
 62
    7
 10
893.45107414159065
 20
1035.3199321218024
 11
893.4903941095738
 21
1035.237007216346
  0
LINE
  8
_2-7_ビス
  6
CONTINUOUS
 62
    7
 10
893.4903941095738
 20
1035.237007216346
 11
893.54221437177432
 21
1035.1628487585053
  0
LINE
  8
_2-7_ビス
  6
CONTINUOUS
 62
    7
 10
893.54221437177432
 20
1035.1628487585053
 11
893.60496039574753
 21
1035.0997100154964
  0
LINE
  8
_2-7_ビス
  6
CONTINUOUS
 62
    7
 10
893.60496039574753
 20
1035.0997100154964
 11
893.6767256753061
 21
1035.0495094260755
  0
LINE
  8
_2-7_ビス
  6
CONTINUOUS
 62
    7
 10
893.6767256753061
 20
1035.0495094260755
 11
893.75532965874538
 21
1035.0137723097494
  0
LINE
  8
_2-7_ビス
  6
CONTINUOUS
 62
    7
 10
893.75532965874538
 20
1035.0137723097494
 11
893.83838400380444
 21
1034.993584520714
  0
LINE
  8
_2-7_ビス
  6
CONTINUOUS
 62
    7
 10
893.83838400380444
 20
1034.993584520714
 11
893.88023053696725
 21
1034.9895594547233
  0
LINE
  8
_2-7_ビス
  6
CONTINUOUS
 62
    7
 10
893.88023053696725
 20
1043.8948226071234
 11
893.88023053696725
 21
1043.8948226071234
  0
LINE
  8
_2-7_ビス
  6
CONTINUOUS
 62
    7
 10
893.88023053696725
 20
1043.8948226071234
 11
893.79590470617347
 21
1043.8825626504756
  0
LINE
  8
_2-7_ビス
  6
CONTINUOUS
 62
    7
 10
893.79590470617347
 20
1043.8825626504756
 11
893.71479638471521
 21
1043.8543901837686
  0
LINE
  8
_2-7_ビス
  6
CONTINUOUS
 62
    7
 10
893.71479638471521
 20
1043.8543901837686
 11
893.63937000789713
 21
1043.811161213147
  0
LINE
  8
_2-7_ビス
  6
CONTINUOUS
 62
    7
 10
893.63937000789713
 20
1043.811161213147
 11
893.57191736801121
 21
1043.7541892290085
  0
LINE
  8
_2-7_ビス
  6
CONTINUOUS
 62
    7
 10
893.57191736801121
 20
1043.7541892290085
 11
893.51448797938781
 21
1043.6852052962618
  0
LINE
  8
_2-7_ビス
  6
CONTINUOUS
 62
    7
 10
893.51448797938781
 20
1043.6852052962618
 11
893.46882680493957
 21
1043.6063054567958
  0
LINE
  8
_2-7_ビス
  6
CONTINUOUS
 62
    7
 10
893.46882680493957
 20
1043.6063054567958
 11
893.43632123634632
 21
1043.5198870423076
  0
LINE
  8
_2-7_ビス
  6
CONTINUOUS
 62
    7
 10
893.43632123634632
 20
1043.5198870423076
 11
893.41795893886126
 21
1043.4285758325916
  0
LINE
  8
_2-7_ビス
  6
CONTINUOUS
 62
    7
 10
893.41795893886126
 20
1043.4285758325916
 11
893.41429784160164
 21
1043.3351462725491
  0
LINE
  8
_2-7_ビス
  6
CONTINUOUS
 62
    7
 10
893.41429784160164
 20
1043.3351462725491
 11
893.42544918515512
 21
1043.2424371720845
  0
LINE
  8
_2-7_ビス
  6
CONTINUOUS
 62
    7
 10
893.42544918515512
 20
1043.2424371720845
 11
893.45107414159065
 21
1043.1532654503023
  0
LINE
  8
_2-7_ビス
  6
CONTINUOUS
 62
    7
 10
893.45107414159065
 20
1043.1532654503023
 11
893.4903941095738
 21
1043.070340544846
  0
LINE
  8
_2-7_ビス
  6
CONTINUOUS
 62
    7
 10
893.4903941095738
 20
1043.070340544846
 11
893.54221437177432
 21
1042.9961820870053
  0
LINE
  8
_2-7_ビス
  6
CONTINUOUS
 62
    7
 10
893.54221437177432
 20
1042.9961820870053
 11
893.60496039574753
 21
1042.9330433439964
  0
LINE
  8
_2-7_ビス
  6
CONTINUOUS
 62
    7
 10
893.60496039574753
 20
1042.9330433439964
 11
893.6767256753061
 21
1042.8828427545754
  0
LINE
  8
_2-7_ビス
  6
CONTINUOUS
 62
    7
 10
893.6767256753061
 20
1042.8828427545754
 11
893.75532965874538
 21
1042.8471056382493
  0
LINE
  8
_2-7_ビス
  6
CONTINUOUS
 62
    7
 10
893.75532965874538
 20
1042.8471056382493
 11
893.83838400380444
 21
1042.8269178492139
  0
LINE
  8
_2-7_ビス
  6
CONTINUOUS
 62
    7
 10
893.83838400380444
 20
1042.8269178492139
 11
893.88023053696725
 21
1042.8228927832233
  0
LINE
  8
_2-7_ビス
  6
CONTINUOUS
 62
    7
 10
893.55501372616482
 20
1024.7649980575227
 11
893.55501372616482
 21
1024.7649980575227
  0
LINE
  8
_2-7_ビス
  6
CONTINUOUS
 62
    7
 10
893.55501372616482
 20
1024.7649980575227
 11
893.51882851226298
 21
1024.6314137307556
  0
LINE
  8
_2-7_ビス
  6
CONTINUOUS
 62
    7
 10
893.51882851226298
 20
1024.6314137307556
 11
893.50429213632174
 21
1024.4929506785402
  0
LINE
  8
_2-7_ビス
  6
CONTINUOUS
 62
    7
 10
893.50429213632174
 20
1024.4929506785402
 11
893.50473839307665
 21
1024.4351734963227
  0
LINE
  8
_2-7_ビス
  6
CONTINUOUS
 62
    7
 10
892.99719628696698
 20
1022.4562261291233
 11
892.99719628696698
 21
1022.4562261291233
  0
LINE
  8
_2-7_ビス
  6
CONTINUOUS
 62
    7
 10
892.99719628696698
 20
1022.4562261291233
 11
892.99115550942417
 21
1022.5117567043011
  0
LINE
  8
_2-7_ビス
  6
CONTINUOUS
 62
    7
 10
892.99115550942417
 20
1022.5117567043011
 11
892.97643567547448
 21
1022.5652903916856
  0
LINE
  8
_2-7_ビス
  6
CONTINUOUS
 62
    7
 10
892.97643567547448
 20
1022.5652903916856
 11
892.95348403982393
 21
1022.615200597275
  0
LINE
  8
_2-7_ビス
  6
CONTINUOUS
 62
    7
 10
892.95348403982393
 20
1022.615200597275
 11
892.92299797630778
 21
1022.6599708247285
  0
LINE
  8
_2-7_ビス
  6
CONTINUOUS
 62
    7
 10
892.92299797630778
 20
1022.6599708247285
 11
892.88590378853917
 21
1022.6982407533394
  0
LINE
  8
_2-7_ビス
  6
CONTINUOUS
 62
    7
 10
892.88590378853917
 20
1022.6982407533394
 11
892.84332856464289
 21
1022.7288475706926
  0
LINE
  8
_2-7_ビス
  6
CONTINUOUS
 62
    7
 10
892.84332856464289
 20
1022.7288475706926
 11
892.79656593125287
 21
1022.7508613041305
  0
LINE
  8
_2-7_ビス
  6
CONTINUOUS
 62
    7
 10
892.79656593125287
 20
1022.7508613041305
 11
892.74703674732177
 21
1022.7636130775021
  0
LINE
  8
_2-7_ビス
  6
CONTINUOUS
 62
    7
 10
892.74703674732177
 20
1022.7636130775021
 11
892.69624593204026
 21
1022.7667154346263
  0
LINE
  8
_2-7_ビス
  6
CONTINUOUS
 62
    7
 10
892.69624593204026
 20
1022.7667154346263
 11
892.64573673862935
 21
1022.7600741119517
  0
LINE
  8
_2-7_ビス
  6
CONTINUOUS
 62
    7
 10
892.64573673862935
 20
1022.7600741119517
 11
892.59704386337194
 21
1022.7438909027071
  0
LINE
  8
_2-7_ビス
  6
CONTINUOUS
 62
    7
 10
892.59704386337194
 20
1022.7438909027071
 11
892.55164681464282
 21
1022.7186575255162
  0
LINE
  8
_2-7_ビス
  6
CONTINUOUS
 62
    7
 10
892.55164681464282
 20
1022.7186575255162
 11
892.51092495879573
 21
1022.6851406837764
  0
LINE
  8
_2-7_ビス
  6
CONTINUOUS
 62
    7
 10
892.51092495879573
 20
1022.6851406837764
 11
892.47611560881433
 21
1022.6443587697635
  0
LINE
  8
_2-7_ビス
  6
CONTINUOUS
 62
    7
 10
892.47611560881433
 20
1022.6443587697635
 11
892.44827642918335
 21
1022.5975509212982
  0
LINE
  8
_2-7_ビス
  6
CONTINUOUS
 62
    7
 10
892.44827642918335
 20
1022.5975509212982
 11
892.4282532992886
 21
1022.5461393711703
  0
LINE
  8
_2-7_ビス
  6
CONTINUOUS
 62
    7
 10
892.4282532992886
 20
1022.5461393711703
 11
892.4166546117998
 21
1022.4916862333147
  0
LINE
  8
_2-7_ビス
  6
CONTINUOUS
 62
    7
 10
892.4166546117998
 20
1022.4916862333147
 11
892.41383278696708
 21
1022.4358460387707
  0
LINE
  8
_2-7_ビス
  6
CONTINUOUS
 62
    7
 10
892.41383278696708
 20
1022.4358460387707
 11
892.41383278696708
 21
1022.4358460387706
  0
LINE
  8
_2-7_ビス
  6
CONTINUOUS
 62
    7
 10
887.71148053696584
 20
1059.4238988256116
 11
887.71148053696584
 21
1063.5193839985236
  0
LINE
  8
_2-7_ビス
  6
CONTINUOUS
 62
    7
 10
887.71148053696584
 20
1063.5193839985236
 11
890.71148053696652
 21
1063.5193839985236
  0
LINE
  8
_2-7_ビス
  6
CONTINUOUS
 62
    7
 10
887.71148053696584
 20
1059.4238988256116
 11
886.96148053696652
 21
1058.5993379054075
  0
LINE
  8
_2-7_ビス
  6
CONTINUOUS
 62
    7
 10
886.96148053696652
 20
1058.5993379054075
 11
886.96148053696652
 21
1056.5007321782928
  0
LINE
  8
_2-7_ビス
  6
CONTINUOUS
 62
    7
 10
886.96148053696652
 20
1056.5007321782928
 11
887.50969978696708
 21
1052.3831388650437
  0
LINE
  8
_2-7_ビス
  6
CONTINUOUS
 62
    7
 10
887.50969978696708
 20
1052.3831388650437
 11
887.75162353696692
 21
1051.9755243565232
  0
LINE
  8
_2-7_ビス
  6
CONTINUOUS
 62
    7
 10
887.75162353696692
 20
1051.9755243565232
 11
887.71148053696584
 21
1051.9755243565232
  0
LINE
  8
_2-7_ビス
  6
CONTINUOUS
 62
    7
 10
887.71148053696584
 20
1051.9755243565232
 11
887.71148053696584
 21
1050.1614892699235
  0
LINE
  8
_2-7_ビス
  6
CONTINUOUS
 62
    7
 10
887.71148053696584
 20
1050.1614892699235
 11
888.14449309753377
 21
1049.3369278669234
  0
LINE
  8
_2-7_ビス
  6
CONTINUOUS
 62
    7
 10
888.01458928696638
 20
1049.0895594460226
 11
887.03648053696702
 21
1049.0895594460226
  0
LINE
  8
_2-7_ビス
  6
CONTINUOUS
 62
    7
 10
887.03648053696702
 20
1049.0895594460226
 11
887.03648053696702
 21
1044.8561688521436
  0
LINE
  8
_2-7_ビス
  6
CONTINUOUS
 62
    7
 10
887.03648053696702
 20
1044.8561688521436
 11
887.537950036967
 21
1043.8948226071234
  0
LINE
  8
_2-7_ビス
  6
CONTINUOUS
 62
    7
 10
887.537950036967
 20
1043.8948226071234
 11
887.5427305369667
 21
1043.8948226071234
  0
LINE
  8
_2-7_ビス
  6
CONTINUOUS
 62
    7
 10
887.54273471025135
 20
1043.8948229609055
 11
887.5427305369667
 21
1043.8948226071234
  0
LINE
  8
_2-7_ビス
  6
CONTINUOUS
 62
    7
 10
887.54273471025135
 20
1043.8948229609055
 11
887.5427305369667
 21
1043.8948226071234
  0
LINE
  8
_2-7_ビス
  6
CONTINUOUS
 62
    7
 10
887.5753217869667
 20
1042.8228927832238
 11
887.03648053696702
 21
1042.8228927832238
  0
LINE
  8
_2-7_ビス
  6
CONTINUOUS
 62
    7
 10
887.03648053696702
 20
1042.8228927832238
 11
887.03648053696702
 21
1037.0256596464496
  0
LINE
  8
_2-7_ビス
  6
CONTINUOUS
 62
    7
 10
887.03648053696702
 20
1037.0256596464496
 11
887.54272772402805
 21
1036.0615082766849
  0
LINE
  8
_2-7_ビス
  6
CONTINUOUS
 62
    7
 10
887.5427305369667
 20
1036.061489278623
 11
887.54632216732239
 21
1036.5389406758636
  0
LINE
  8
_2-7_ビス
  6
CONTINUOUS
 62
    7
 10
887.54632216732239
 20
1036.5389406758636
 11
887.86700217494604
 21
1036.5562261204236
  0
LINE
  8
_2-7_ビス
  6
CONTINUOUS
 62
    7
 10
888.02566421511392
 20
1036.803594541323
 11
887.5753217869667
 21
1037.6281559443232
  0
LINE
  8
_2-7_ビス
  6
CONTINUOUS
 62
    7
 10
887.5753217869667
 20
1037.6281559443232
 11
887.57532163484348
 21
1038.105607413318
  0
LINE
  8
_2-7_ビス
  6
CONTINUOUS
 62
    7
 10
887.57532163484348
 20
1038.105607413318
 11
887.92335403696688
 21
1038.1228927861234
  0
LINE
  8
_2-7_ビス
  6
CONTINUOUS
 62
    7
 10
888.08294378668711
 20
1038.3702612070233
 11
887.5753217869667
 21
1039.194822610023
  0
LINE
  8
_2-7_ビス
  6
CONTINUOUS
 62
    7
 10
887.5753217869667
 20
1039.194822610023
 11
887.5753217869667
 21
1039.6722741711319
  0
LINE
  8
_2-7_ビス
  6
CONTINUOUS
 62
    7
 10
887.5753217869667
 20
1039.6722741711319
 11
887.92335403696688
 21
1039.6895594518237
  0
LINE
  8
_2-7_ビス
  6
CONTINUOUS
 62
    7
 10
888.08294378668711
 20
1039.9369278727231
 11
887.5753217869667
 21
1040.7614892757233
  0
LINE
  8
_2-7_ビス
  6
CONTINUOUS
 62
    7
 10
887.5753217869667
 20
1040.7614892757233
 11
887.5753217869667
 21
1041.2389408368317
  0
LINE
  8
_2-7_ビス
  6
CONTINUOUS
 62
    7
 10
887.5753217869667
 20
1041.2389408368317
 11
887.92335403696688
 21
1041.2562261175235
  0
LINE
  8
_2-7_ビス
  6
CONTINUOUS
 62
    7
 10
888.08294378668711
 20
1041.5035945384234
 11
887.57532163484348
 21
1042.3281559414231
  0
LINE
  8
_2-7_ビス
  6
CONTINUOUS
 62
    7
 10
887.57532163484348
 20
1042.3281559414231
 11
887.5753217869667
 21
1042.8228927832238
  0
LINE
  8
_2-7_ビス
  6
CONTINUOUS
 62
    7
 10
887.54273471025135
 20
1043.8948229609055
 11
887.54641991149674
 21
1044.3722744298993
  0
LINE
  8
_2-7_ビス
  6
CONTINUOUS
 62
    7
 10
887.54641991149674
 20
1044.3722744298993
 11
887.86386478696591
 21
1044.3895594489236
  0
LINE
  8
_2-7_ビス
  6
CONTINUOUS
 62
    7
 10
888.02595692728778
 20
1044.6369278698235
 11
887.57532163484348
 21
1045.4614892728232
  0
LINE
  8
_2-7_ビス
  6
CONTINUOUS
 62
    7
 10
887.57532163484348
 20
1045.4614892728232
 11
887.57532163484348
 21
1045.9389407418171
  0
LINE
  8
_2-7_ビス
  6
CONTINUOUS
 62
    7
 10
887.57532163484348
 20
1045.9389407418171
 11
887.92335403696688
 21
1045.9562261146239
  0
LINE
  8
_2-7_ビス
  6
CONTINUOUS
 62
    7
 10
888.08294378668711
 20
1046.2035945355233
 11
887.5753217869667
 21
1047.0281559385235
  0
LINE
  8
_2-7_ビス
  6
CONTINUOUS
 62
    7
 10
887.5753217869667
 20
1047.0281559385235
 11
887.57532163484348
 21
1047.5056074075173
  0
LINE
  8
_2-7_ビス
  6
CONTINUOUS
 62
    7
 10
887.57532163484348
 20
1047.5056074075173
 11
887.9242401294548
 21
1047.523124361483
  0
LINE
  8
_2-7_ビス
  6
CONTINUOUS
 62
    7
 10
888.08294378668711
 20
1047.7702612012235
 11
887.57532163484348
 21
1048.5948226042233
  0
LINE
  8
_2-7_ビス
  6
CONTINUOUS
 62
    7
 10
887.57532163484348
 20
1048.5948226042233
 11
887.57532179247369
 21
1049.0895594460226
  0
LINE
  8
_2-7_ビス
  6
CONTINUOUS
 62
    7
 10
887.5753217869667
 20
1034.9895594547233
 11
887.03648053696702
 21
1034.9895594547233
  0
LINE
  8
_2-7_ビス
  6
CONTINUOUS
 62
    7
 10
887.03648053696702
 20
1034.9895594547233
 11
887.03648053696702
 21
1031.741317719886
  0
LINE
  8
_2-7_ビス
  6
CONTINUOUS
 62
    7
 10
887.03648053696702
 20
1031.741317719886
 11
887.5422662869662
 21
1028.228155950123
  0
LINE
  8
_2-7_ビス
  6
CONTINUOUS
 62
    7
 10
887.5422662869662
 20
1028.228155950123
 11
887.54300080463031
 21
1028.7056070342642
  0
LINE
  8
_2-7_ビス
  6
CONTINUOUS
 62
    7
 10
887.54300080463031
 20
1028.7056070342642
 11
887.85168928696726
 21
1028.7228927919232
  0
LINE
  8
_2-7_ビス
  6
CONTINUOUS
 62
    7
 10
887.5422662869662
 20
1028.228155950123
 11
887.9757430975335
 21
1027.4035945471228
  0
LINE
  8
_2-7_ビス
  6
CONTINUOUS
 62
    7
 10
887.99624585175457
 20
1028.9702612128231
 11
887.54564351829436
 21
1029.7948226158228
  0
LINE
  8
_2-7_ビス
  6
CONTINUOUS
 62
    7
 10
887.54564351829436
 20
1029.7948226158228
 11
887.54772842255625
 21
1030.2722736999631
  0
LINE
  8
_2-7_ビス
  6
CONTINUOUS
 62
    7
 10
887.54772842255625
 20
1030.2722736999631
 11
887.87005528696659
 21
1030.2895594576235
  0
LINE
  8
_2-7_ビス
  6
CONTINUOUS
 62
    7
 10
888.01856078278524
 20
1030.5369278785229
 11
887.55469292346083
 21
1031.361488896669
  0
LINE
  8
_2-7_ビス
  6
CONTINUOUS
 62
    7
 10
887.55469292346083
 20
1031.361488896669
 11
887.55875576415724
 21
1031.8389403656643
  0
LINE
  8
_2-7_ビス
  6
CONTINUOUS
 62
    7
 10
887.55875576415724
 20
1031.8389403656643
 11
887.89340911942622
 21
1031.8562261233233
  0
LINE
  8
_2-7_ビス
  6
CONTINUOUS
 62
    7
 10
888.05066373559362
 20
1032.1035945442231
 11
887.57046111138811
 21
1032.9281555623693
  0
LINE
  8
_2-7_ビス
  6
CONTINUOUS
 62
    7
 10
887.57046111138811
 20
1032.9281555623693
 11
887.5753217869667
 21
1033.4056075083317
  0
LINE
  8
_2-7_ビス
  6
CONTINUOUS
 62
    7
 10
887.5753217869667
 20
1033.4056075083317
 11
887.92335403696688
 21
1033.4228927890235
  0
LINE
  8
_2-7_ビス
  6
CONTINUOUS
 62
    7
 10
888.08294378668711
 20
1033.670261209923
 11
887.57532163484348
 21
1034.4948226129231
  0
LINE
  8
_2-7_ビス
  6
CONTINUOUS
 62
    7
 10
887.57532163484348
 20
1034.4948226129231
 11
887.5753217869667
 21
1034.9895594547233
  0
LINE
  8
_2-7_ビス
  6
CONTINUOUS
 62
    7
 10
887.84583928696725
 20
1027.1562261262234
 11
887.71148053696584
 21
1027.1562261262234
  0
LINE
  8
_2-7_ビス
  6
CONTINUOUS
 62
    7
 10
887.71148053696584
 20
1027.1562261262234
 11
887.71148053696584
 21
1026.3728927933726
  0
LINE
  8
_2-7_ビス
  6
CONTINUOUS
 62
    7
 10
887.71148053696584
 20
1026.3728927933726
 11
887.86148053696684
 21
1026.3728927933726
  0
LINE
  8
_2-7_ビス
  6
CONTINUOUS
 62
    7
 10
887.86148053696684
 20
1026.3728927933726
 11
887.86148053696684
 21
1024.7649980575234
  0
LINE
  8
_2-7_ビス
  6
CONTINUOUS
 62
    7
 10
887.86148053696684
 20
1024.7649980575234
 11
887.86794734776754
 21
1024.7649980575234
  0
LINE
  8
_2-7_ビス
  6
CONTINUOUS
 62
    7
 10
887.91822253696614
 20
1024.4351734963238
 11
887.91822268350506
 21
1018.4847319035038
  0
LINE
  8
_2-7_ビス
  6
CONTINUOUS
 62
    7
 10
887.91822268350506
 20
1018.4847319035038
 11
888.35866003696628
 21
1017.8333110793443
  0
LINE
  8
_2-7_ビス
  6
CONTINUOUS
 62
    7
 10
888.35866003696628
 20
1017.8333110793443
 11
889.36148053696661
 21
1016.5193840275236
  0
LINE
  8
_2-7_ビス
  6
CONTINUOUS
 62
    7
 10
889.36148053696661
 20
1016.5193840275236
 11
889.51085901646115
 21
1016.5193840275236
  0
LINE
  8
_2-7_ビス
  6
CONTINUOUS
 62
    7
 10
889.51085901646115
 20
1016.5193840275236
 11
888.42576490714669
 21
1018.4847319035038
  0
LINE
  8
_2-7_ビス
  6
CONTINUOUS
 62
    7
 10
888.42576490714669
 20
1018.4847319035038
 11
888.42576478696606
 21
1022.4562261291231
  0
LINE
  8
_2-7_ビス
  6
CONTINUOUS
 62
    7
 10
889.00912828696596
 20
1022.4562261291231
 11
889.00912801353434
 21
1018.4847320562022
  0
LINE
  8
_2-7_ビス
  6
CONTINUOUS
 62
    7
 10
889.00912801353434
 20
1018.4847320562022
 11
890.09422237876811
 21
1016.5193840275236
  0
LINE
  8
_2-7_ビス
  6
CONTINUOUS
 62
    7
 10
890.09422237876811
 20
1016.5193840275236
 11
890.71148053696652
 21
1016.5193840275236
  0
LINE
  8
_2-7_ビス
  6
CONTINUOUS
 62
    7
 10
888.01458928696638
 20
1049.0895594460228
 11
888.01458928696638
 21
1049.0895594460228
  0
LINE
  8
_2-7_ビス
  6
CONTINUOUS
 62
    7
 10
888.01458928696638
 20
1049.0895594460228
 11
888.04154773786695
 21
1049.094213230738
  0
LINE
  8
_2-7_ビス
  6
CONTINUOUS
 62
    7
 10
888.04154773786695
 20
1049.094213230738
 11
888.06736158288004
 21
1049.1039429908681
  0
LINE
  8
_2-7_ビス
  6
CONTINUOUS
 62
    7
 10
888.06736158288004
 20
1049.1039429908681
 11
888.09124648138743
 21
1049.1184530925746
  0
LINE
  8
_2-7_ビス
  6
CONTINUOUS
 62
    7
 10
888.09124648138743
 20
1049.1184530925746
 11
888.11247670283421
 21
1049.1373026537599
  0
LINE
  8
_2-7_ビス
  6
CONTINUOUS
 62
    7
 10
888.11247670283421
 20
1049.1373026537599
 11
888.13040717768479
 21
1049.1599189400456
  0
LINE
  8
_2-7_ビス
  6
CONTINUOUS
 62
    7
 10
888.13040717768479
 20
1049.1599189400456
 11
888.14449309753411
 21
1049.1856147670173
  0
LINE
  8
_2-7_ビス
  6
CONTINUOUS
 62
    7
 10
888.14449309753411
 20
1049.1856147670173
 11
888.15430646883533
 21
1049.2136093799757
  0
LINE
  8
_2-7_ビス
  6
CONTINUOUS
 62
    7
 10
888.15430646883533
 20
1049.2136093799757
 11
888.15954911726726
 21
1049.2430521767712
  0
LINE
  8
_2-7_ビス
  6
CONTINUOUS
 62
    7
 10
888.15954911726726
 20
1049.2430521767712
 11
888.16006174761026
 21
1049.2730485529223
  0
LINE
  8
_2-7_ビス
  6
CONTINUOUS
 62
    7
 10
888.16006174761026
 20
1049.2730485529223
 11
888.15582878385067
 21
1049.3026870837186
  0
LINE
  8
_2-7_ビス
  6
CONTINUOUS
 62
    7
 10
888.15582878385067
 20
1049.3026870837186
 11
888.14697884245049
 21
1049.3310672173998
  0
LINE
  8
_2-7_ビス
  6
CONTINUOUS
 62
    7
 10
888.14697884245049
 20
1049.3310672173998
 11
888.13378082440067
 21
1049.3573266379647
  0
LINE
  8
_2-7_ビス
  6
CONTINUOUS
 62
    7
 10
888.13378082440067
 20
1049.3573266379647
 11
888.13378043188334
 21
1049.3573272795891
  0
LINE
  8
_2-7_ビス
  6
CONTINUOUS
 62
    7
 10
887.92335403696711
 20
1047.522892780323
 11
887.92335403696711
 21
1047.522892780323
  0
LINE
  8
_2-7_ビス
  6
CONTINUOUS
 62
    7
 10
887.92335403696711
 20
1047.522892780323
 11
887.95787726530216
 21
1047.5354063305822
  0
LINE
  8
_2-7_ビス
  6
CONTINUOUS
 62
    7
 10
887.95787726530216
 20
1047.5354063305822
 11
887.98989954365527
 21
1047.5543206513603
  0
LINE
  8
_2-7_ビス
  6
CONTINUOUS
 62
    7
 10
887.98989954365527
 20
1047.5543206513603
 11
888.0184478913028
 21
1047.5790610405916
  0
LINE
  8
_2-7_ビス
  6
CONTINUOUS
 62
    7
 10
888.0184478913028
 20
1047.5790610405916
 11
888.04265488114766
 21
1047.6088757740688
  0
LINE
  8
_2-7_ビス
  6
CONTINUOUS
 62
    7
 10
888.04265488114766
 20
1047.6088757740688
 11
888.06178499605267
 21
1047.6428589462021
  0
LINE
  8
_2-7_ビス
  6
CONTINUOUS
 62
    7
 10
888.06178499605267
 20
1047.6428589462021
 11
888.07525697715687
 21
1047.6799779955024
  0
LINE
  8
_2-7_ビス
  6
CONTINUOUS
 62
    7
 10
888.07525697715687
 20
1047.6799779955024
 11
888.08266148513155
 21
1047.71910507844
  0
LINE
  8
_2-7_ビス
  6
CONTINUOUS
 62
    7
 10
888.08266148513155
 20
1047.71910507844
 11
888.08377353774858
 21
1047.7590513383991
  0
LINE
  8
_2-7_ビス
  6
CONTINUOUS
 62
    7
 10
888.08377353774858
 20
1047.7590513383991
 11
888.08294378668779
 21
1047.7702612012231
  0
LINE
  8
_2-7_ビス
  6
CONTINUOUS
 62
    7
 10
887.92335403696711
 20
1045.9562261146232
 11
887.92335403696711
 21
1045.9562261146232
  0
LINE
  8
_2-7_ビス
  6
CONTINUOUS
 62
    7
 10
887.92335403696711
 20
1045.9562261146232
 11
887.95787726530216
 21
1045.9687396648824
  0
LINE
  8
_2-7_ビス
  6
CONTINUOUS
 62
    7
 10
887.95787726530216
 20
1045.9687396648824
 11
887.98989954365527
 21
1045.9876539856605
  0
LINE
  8
_2-7_ビス
  6
CONTINUOUS
 62
    7
 10
887.98989954365527
 20
1045.9876539856605
 11
888.0184478913028
 21
1046.0123943748918
  0
LINE
  8
_2-7_ビス
  6
CONTINUOUS
 62
    7
 10
888.0184478913028
 20
1046.0123943748918
 11
888.04265488114766
 21
1046.042209108369
  0
LINE
  8
_2-7_ビス
  6
CONTINUOUS
 62
    7
 10
888.04265488114766
 20
1046.042209108369
 11
888.06178499605267
 21
1046.0761922805023
  0
LINE
  8
_2-7_ビス
  6
CONTINUOUS
 62
    7
 10
888.06178499605267
 20
1046.0761922805023
 11
888.07525697715687
 21
1046.1133113298026
  0
LINE
  8
_2-7_ビス
  6
CONTINUOUS
 62
    7
 10
888.07525697715687
 20
1046.1133113298026
 11
888.08266148513155
 21
1046.1524384127401
  0
LINE
  8
_2-7_ビス
  6
CONTINUOUS
 62
    7
 10
888.08266148513155
 20
1046.1524384127401
 11
888.08377353774858
 21
1046.1923846726993
  0
LINE
  8
_2-7_ビス
  6
CONTINUOUS
 62
    7
 10
888.08377353774858
 20
1046.1923846726993
 11
888.08294378668779
 21
1046.2035945355233
  0
LINE
  8
_2-7_ビス
  6
CONTINUOUS
 62
    7
 10
887.86636717756551
 20
1044.3895594489229
 11
887.86636717756551
 21
1044.3895594489229
  0
LINE
  8
_2-7_ビス
  6
CONTINUOUS
 62
    7
 10
887.86636717756551
 20
1044.3895594489229
 11
887.90089040590055
 21
1044.4020729991821
  0
LINE
  8
_2-7_ビス
  6
CONTINUOUS
 62
    7
 10
887.90089040590055
 20
1044.4020729991821
 11
887.93291268425367
 21
1044.4209873199602
  0
LINE
  8
_2-7_ビス
  6
CONTINUOUS
 62
    7
 10
887.93291268425367
 20
1044.4209873199602
 11
887.96146103190119
 21
1044.4457277091915
  0
LINE
  8
_2-7_ビス
  6
CONTINUOUS
 62
    7
 10
887.96146103190119
 20
1044.4457277091915
 11
887.98566802174605
 21
1044.4755424426687
  0
LINE
  8
_2-7_ビス
  6
CONTINUOUS
 62
    7
 10
887.98566802174605
 20
1044.4755424426687
 11
888.00479813665106
 21
1044.509525614802
  0
LINE
  8
_2-7_ビス
  6
CONTINUOUS
 62
    7
 10
888.00479813665106
 20
1044.509525614802
 11
888.01827011775526
 21
1044.5466446641024
  0
LINE
  8
_2-7_ビス
  6
CONTINUOUS
 62
    7
 10
888.01827011775526
 20
1044.5466446641024
 11
888.02567462572995
 21
1044.5857717470399
  0
LINE
  8
_2-7_ビス
  6
CONTINUOUS
 62
    7
 10
888.02567462572995
 20
1044.5857717470399
 11
888.02678667834698
 21
1044.625718006999
  0
LINE
  8
_2-7_ビス
  6
CONTINUOUS
 62
    7
 10
888.02678667834698
 20
1044.625718006999
 11
888.02595692728619
 21
1044.636927869823
  0
LINE
  8
_2-7_ビス
  6
CONTINUOUS
 62
    7
 10
887.92335403696711
 20
1041.2562261175228
 11
887.92335403696711
 21
1041.2562261175228
  0
LINE
  8
_2-7_ビス
  6
CONTINUOUS
 62
    7
 10
887.92335403696711
 20
1041.2562261175228
 11
887.95787726530216
 21
1041.268739667782
  0
LINE
  8
_2-7_ビス
  6
CONTINUOUS
 62
    7
 10
887.95787726530216
 20
1041.268739667782
 11
887.98989954365527
 21
1041.2876539885601
  0
LINE
  8
_2-7_ビス
  6
CONTINUOUS
 62
    7
 10
887.98989954365527
 20
1041.2876539885601
 11
888.0184478913028
 21
1041.3123943777914
  0
LINE
  8
_2-7_ビス
  6
CONTINUOUS
 62
    7
 10
888.0184478913028
 20
1041.3123943777914
 11
888.04265488114766
 21
1041.3422091112686
  0
LINE
  8
_2-7_ビス
  6
CONTINUOUS
 62
    7
 10
888.04265488114766
 20
1041.3422091112686
 11
888.06178499605267
 21
1041.3761922834019
  0
LINE
  8
_2-7_ビス
  6
CONTINUOUS
 62
    7
 10
888.06178499605267
 20
1041.3761922834019
 11
888.07525697715687
 21
1041.4133113327023
  0
LINE
  8
_2-7_ビス
  6
CONTINUOUS
 62
    7
 10
888.07525697715687
 20
1041.4133113327023
 11
888.08266148513155
 21
1041.4524384156398
  0
LINE
  8
_2-7_ビス
  6
CONTINUOUS
 62
    7
 10
888.08266148513155
 20
1041.4524384156398
 11
888.08377353774858
 21
1041.4923846755989
  0
LINE
  8
_2-7_ビス
  6
CONTINUOUS
 62
    7
 10
888.08377353774858
 20
1041.4923846755989
 11
888.08294378668779
 21
1041.5035945384229
  0
LINE
  8
_2-7_ビス
  6
CONTINUOUS
 62
    7
 10
887.92335403696711
 20
1039.689559451823
 11
887.92335403696711
 21
1039.689559451823
  0
LINE
  8
_2-7_ビス
  6
CONTINUOUS
 62
    7
 10
887.92335403696711
 20
1039.689559451823
 11
887.95787726530216
 21
1039.7020730020822
  0
LINE
  8
_2-7_ビス
  6
CONTINUOUS
 62
    7
 10
887.95787726530216
 20
1039.7020730020822
 11
887.98989954365527
 21
1039.7209873228603
  0
LINE
  8
_2-7_ビス
  6
CONTINUOUS
 62
    7
 10
887.98989954365527
 20
1039.7209873228603
 11
888.0184478913028
 21
1039.7457277120916
  0
LINE
  8
_2-7_ビス
  6
CONTINUOUS
 62
    7
 10
888.0184478913028
 20
1039.7457277120916
 11
888.04265488114766
 21
1039.7755424455688
  0
LINE
  8
_2-7_ビス
  6
CONTINUOUS
 62
    7
 10
888.04265488114766
 20
1039.7755424455688
 11
888.06178499605267
 21
1039.8095256177021
  0
LINE
  8
_2-7_ビス
  6
CONTINUOUS
 62
    7
 10
888.06178499605267
 20
1039.8095256177021
 11
888.07525697715687
 21
1039.8466446670025
  0
LINE
  8
_2-7_ビス
  6
CONTINUOUS
 62
    7
 10
888.07525697715687
 20
1039.8466446670025
 11
888.08266148513155
 21
1039.88577174994
  0
LINE
  8
_2-7_ビス
  6
CONTINUOUS
 62
    7
 10
888.08266148513155
 20
1039.88577174994
 11
888.08377353774858
 21
1039.9257180098991
  0
LINE
  8
_2-7_ビス
  6
CONTINUOUS
 62
    7
 10
888.08377353774858
 20
1039.9257180098991
 11
888.08294378668779
 21
1039.9369278727231
  0
LINE
  8
_2-7_ビス
  6
CONTINUOUS
 62
    7
 10
887.92335403696711
 20
1038.1228927861227
 11
887.92335403696711
 21
1038.1228927861227
  0
LINE
  8
_2-7_ビス
  6
CONTINUOUS
 62
    7
 10
887.92335403696711
 20
1038.1228927861227
 11
887.95787726530216
 21
1038.1354063363819
  0
LINE
  8
_2-7_ビス
  6
CONTINUOUS
 62
    7
 10
887.95787726530216
 20
1038.1354063363819
 11
887.98989954365527
 21
1038.15432065716
  0
LINE
  8
_2-7_ビス
  6
CONTINUOUS
 62
    7
 10
887.98989954365527
 20
1038.15432065716
 11
888.0184478913028
 21
1038.1790610463913
  0
LINE
  8
_2-7_ビス
  6
CONTINUOUS
 62
    7
 10
888.0184478913028
 20
1038.1790610463913
 11
888.04265488114766
 21
1038.2088757798685
  0
LINE
  8
_2-7_ビス
  6
CONTINUOUS
 62
    7
 10
888.04265488114766
 20
1038.2088757798685
 11
888.06178499605267
 21
1038.2428589520018
  0
LINE
  8
_2-7_ビス
  6
CONTINUOUS
 62
    7
 10
888.06178499605267
 20
1038.2428589520018
 11
888.07525697715687
 21
1038.2799780013022
  0
LINE
  8
_2-7_ビス
  6
CONTINUOUS
 62
    7
 10
888.07525697715687
 20
1038.2799780013022
 11
888.08266148513155
 21
1038.3191050842397
  0
LINE
  8
_2-7_ビス
  6
CONTINUOUS
 62
    7
 10
888.08266148513155
 20
1038.3191050842397
 11
888.08377353774858
 21
1038.3590513441989
  0
LINE
  8
_2-7_ビス
  6
CONTINUOUS
 62
    7
 10
888.08377353774858
 20
1038.3590513441989
 11
888.08294378668779
 21
1038.3702612070228
  0
LINE
  8
_2-7_ビス
  6
CONTINUOUS
 62
    7
 10
887.86607446539278
 20
1036.5562261204229
 11
887.86607446539278
 21
1036.5562261204229
  0
LINE
  8
_2-7_ビス
  6
CONTINUOUS
 62
    7
 10
887.86607446539278
 20
1036.5562261204229
 11
887.90059769372783
 21
1036.5687396706821
  0
LINE
  8
_2-7_ビス
  6
CONTINUOUS
 62
    7
 10
887.90059769372783
 20
1036.5687396706821
 11
887.93261997208094
 21
1036.5876539914602
  0
LINE
  8
_2-7_ビス
  6
CONTINUOUS
 62
    7
 10
887.93261997208094
 20
1036.5876539914602
 11
887.96116831972847
 21
1036.6123943806915
  0
LINE
  8
_2-7_ビス
  6
CONTINUOUS
 62
    7
 10
887.96116831972847
 20
1036.6123943806915
 11
887.98537530957333
 21
1036.6422091141687
  0
LINE
  8
_2-7_ビス
  6
CONTINUOUS
 62
    7
 10
887.98537530957333
 20
1036.6422091141687
 11
888.00450542447834
 21
1036.676192286302
  0
LINE
  8
_2-7_ビス
  6
CONTINUOUS
 62
    7
 10
888.00450542447834
 20
1036.676192286302
 11
888.01797740558254
 21
1036.7133113356024
  0
LINE
  8
_2-7_ビス
  6
CONTINUOUS
 62
    7
 10
888.01797740558254
 20
1036.7133113356024
 11
888.02538191355723
 21
1036.7524384185399
  0
LINE
  8
_2-7_ビス
  6
CONTINUOUS
 62
    7
 10
888.02538191355723
 20
1036.7524384185399
 11
888.02649396617426
 21
1036.792384678499
  0
LINE
  8
_2-7_ビス
  6
CONTINUOUS
 62
    7
 10
888.02649396617426
 20
1036.792384678499
 11
888.02566421511347
 21
1036.803594541323
  0
LINE
  8
_2-7_ビス
  6
CONTINUOUS
 62
    7
 10
887.92335403696711
 20
1033.4228927890229
 11
887.92335403696711
 21
1033.4228927890229
  0
LINE
  8
_2-7_ビス
  6
CONTINUOUS
 62
    7
 10
887.92335403696711
 20
1033.4228927890229
 11
887.95787726530216
 21
1033.4354063392821
  0
LINE
  8
_2-7_ビス
  6
CONTINUOUS
 62
    7
 10
887.95787726530216
 20
1033.4354063392821
 11
887.98989954365527
 21
1033.4543206600601
  0
LINE
  8
_2-7_ビス
  6
CONTINUOUS
 62
    7
 10
887.98989954365527
 20
1033.4543206600601
 11
888.0184478913028
 21
1033.4790610492914
  0
LINE
  8
_2-7_ビス
  6
CONTINUOUS
 62
    7
 10
888.0184478913028
 20
1033.4790610492914
 11
888.04265488114766
 21
1033.5088757827687
  0
LINE
  8
_2-7_ビス
  6
CONTINUOUS
 62
    7
 10
888.04265488114766
 20
1033.5088757827687
 11
888.06178499605267
 21
1033.5428589549019
  0
LINE
  8
_2-7_ビス
  6
CONTINUOUS
 62
    7
 10
888.06178499605267
 20
1033.5428589549019
 11
888.07525697715687
 21
1033.5799780042023
  0
LINE
  8
_2-7_ビス
  6
CONTINUOUS
 62
    7
 10
888.07525697715687
 20
1033.5799780042023
 11
888.08266148513155
 21
1033.6191050871398
  0
LINE
  8
_2-7_ビス
  6
CONTINUOUS
 62
    7
 10
888.08266148513155
 20
1033.6191050871398
 11
888.08377353774858
 21
1033.659051347099
  0
LINE
  8
_2-7_ビス
  6
CONTINUOUS
 62
    7
 10
888.08377353774858
 20
1033.659051347099
 11
888.08294378668779
 21
1033.670261209923
  0
LINE
  8
_2-7_ビス
  6
CONTINUOUS
 62
    7
 10
887.89107398587248
 20
1031.8562261233226
 11
887.89107398587248
 21
1031.8562261233226
  0
LINE
  8
_2-7_ビス
  6
CONTINUOUS
 62
    7
 10
887.89107398587248
 20
1031.8562261233226
 11
887.92559721420753
 21
1031.8687396735818
  0
LINE
  8
_2-7_ビス
  6
CONTINUOUS
 62
    7
 10
887.92559721420753
 20
1031.8687396735818
 11
887.95761949256064
 21
1031.8876539943599
  0
LINE
  8
_2-7_ビス
  6
CONTINUOUS
 62
    7
 10
887.95761949256064
 20
1031.8876539943599
 11
887.98616784020817
 21
1031.9123943835912
  0
LINE
  8
_2-7_ビス
  6
CONTINUOUS
 62
    7
 10
887.98616784020817
 20
1031.9123943835912
 11
888.01037483005302
 21
1031.9422091170684
  0
LINE
  8
_2-7_ビス
  6
CONTINUOUS
 62
    7
 10
888.01037483005302
 20
1031.9422091170684
 11
888.02950494495803
 21
1031.9761922892017
  0
LINE
  8
_2-7_ビス
  6
CONTINUOUS
 62
    7
 10
888.02950494495803
 20
1031.9761922892017
 11
888.04297692606224
 21
1032.013311338502
  0
LINE
  8
_2-7_ビス
  6
CONTINUOUS
 62
    7
 10
888.04297692606224
 20
1032.013311338502
 11
888.05038143403692
 21
1032.0524384214395
  0
LINE
  8
_2-7_ビス
  6
CONTINUOUS
 62
    7
 10
888.05038143403692
 20
1032.0524384214395
 11
888.05149348665395
 21
1032.0923846813987
  0
LINE
  8
_2-7_ビス
  6
CONTINUOUS
 62
    7
 10
888.05149348665395
 20
1032.0923846813987
 11
888.05066373559316
 21
1032.1035945442227
  0
LINE
  8
_2-7_ビス
  6
CONTINUOUS
 62
    7
 10
887.85897103306411
 20
1030.2895594576228
 11
887.85897103306411
 21
1030.2895594576228
  0
LINE
  8
_2-7_ビス
  6
CONTINUOUS
 62
    7
 10
887.85897103306411
 20
1030.2895594576228
 11
887.89349426139916
 21
1030.302073007882
  0
LINE
  8
_2-7_ビス
  6
CONTINUOUS
 62
    7
 10
887.89349426139916
 20
1030.302073007882
 11
887.92551653975227
 21
1030.3209873286601
  0
LINE
  8
_2-7_ビス
  6
CONTINUOUS
 62
    7
 10
887.92551653975227
 20
1030.3209873286601
 11
887.9540648873998
 21
1030.3457277178914
  0
LINE
  8
_2-7_ビス
  6
CONTINUOUS
 62
    7
 10
887.9540648873998
 20
1030.3457277178914
 11
887.97827187724465
 21
1030.3755424513686
  0
LINE
  8
_2-7_ビス
  6
CONTINUOUS
 62
    7
 10
887.97827187724465
 20
1030.3755424513686
 11
887.99740199214966
 21
1030.4095256235018
  0
LINE
  8
_2-7_ビス
  6
CONTINUOUS
 62
    7
 10
887.99740199214966
 20
1030.4095256235018
 11
888.01087397325387
 21
1030.4466446728022
  0
LINE
  8
_2-7_ビス
  6
CONTINUOUS
 62
    7
 10
888.01087397325387
 20
1030.4466446728022
 11
888.01827848122855
 21
1030.4857717557397
  0
LINE
  8
_2-7_ビス
  6
CONTINUOUS
 62
    7
 10
888.01827848122855
 20
1030.4857717557397
 11
888.01939053384558
 21
1030.5257180156989
  0
LINE
  8
_2-7_ビス
  6
CONTINUOUS
 62
    7
 10
888.01939053384558
 20
1030.5257180156989
 11
888.01856078278479
 21
1030.5369278785229
  0
LINE
  8
_2-7_ビス
  6
CONTINUOUS
 62
    7
 10
887.83665610203457
 20
1028.7228927919239
 11
887.83665610203457
 21
1028.7228927919239
  0
LINE
  8
_2-7_ビス
  6
CONTINUOUS
 62
    7
 10
887.83665610203457
 20
1028.7228927919239
 11
887.87117933036961
 21
1028.7354063421831
  0
LINE
  8
_2-7_ビス
  6
CONTINUOUS
 62
    7
 10
887.87117933036961
 20
1028.7354063421831
 11
887.90320160872272
 21
1028.7543206629612
  0
LINE
  8
_2-7_ビス
  6
CONTINUOUS
 62
    7
 10
887.90320160872272
 20
1028.7543206629612
 11
887.93174995637025
 21
1028.7790610521924
  0
LINE
  8
_2-7_ビス
  6
CONTINUOUS
 62
    7
 10
887.93174995637025
 20
1028.7790610521924
 11
887.95595694621511
 21
1028.8088757856697
  0
LINE
  8
_2-7_ビス
  6
CONTINUOUS
 62
    7
 10
887.95595694621511
 20
1028.8088757856697
 11
887.97508706112012
 21
1028.8428589578029
  0
LINE
  8
_2-7_ビス
  6
CONTINUOUS
 62
    7
 10
887.97508706112012
 20
1028.8428589578029
 11
887.98855904222432
 21
1028.8799780071033
  0
LINE
  8
_2-7_ビス
  6
CONTINUOUS
 62
    7
 10
887.98855904222432
 20
1028.8799780071033
 11
887.99596355019901
 21
1028.9191050900408
  0
LINE
  8
_2-7_ビス
  6
CONTINUOUS
 62
    7
 10
887.99596355019901
 20
1028.9191050900408
 11
887.99707560281604
 21
1028.95905135
  0
LINE
  8
_2-7_ビス
  6
CONTINUOUS
 62
    7
 10
887.99707560281604
 20
1028.95905135
 11
887.99624585175525
 21
1028.970261212824
  0
LINE
  8
_2-7_ビス
  6
CONTINUOUS
 62
    7
 10
887.84583928696657
 20
1027.1562261262236
 11
887.84583928696657
 21
1027.1562261262236
  0
LINE
  8
_2-7_ビス
  6
CONTINUOUS
 62
    7
 10
887.84583928696657
 20
1027.1562261262236
 11
887.87298522290553
 21
1027.1613219450724
  0
LINE
  8
_2-7_ビス
  6
CONTINUOUS
 62
    7
 10
887.87298522290553
 20
1027.1613219450724
 11
887.89891388713727
 21
1027.1715228168839
  0
LINE
  8
_2-7_ビス
  6
CONTINUOUS
 62
    7
 10
887.89891388713727
 20
1027.1715228168839
 11
887.92283745031978
 21
1027.1865187933304
  0
LINE
  8
_2-7_ビス
  6
CONTINUOUS
 62
    7
 10
887.92283745031978
 20
1027.1865187933304
 11
887.94402900709167
 21
1027.2058542292555
  0
LINE
  8
_2-7_ビス
  6
CONTINUOUS
 62
    7
 10
887.94402900709167
 20
1027.2058542292555
 11
887.96184466272371
 21
1027.2289416272231
  0
LINE
  8
_2-7_ビス
  6
CONTINUOUS
 62
    7
 10
887.96184466272371
 20
1027.2289416272231
 11
887.97574309753475
 21
1027.2550794883284
  0
LINE
  8
_2-7_ビス
  6
CONTINUOUS
 62
    7
 10
887.97574309753475
 20
1027.2550794883284
 11
887.98530201461608
 21
1027.2834736268885
  0
LINE
  8
_2-7_ビス
  6
CONTINUOUS
 62
    7
 10
887.98530201461608
 20
1027.2834736268885
 11
887.99023097110921
 21
1027.3132613013713
  0
LINE
  8
_2-7_ビス
  6
CONTINUOUS
 62
    7
 10
887.99023097110921
 20
1027.3132613013713
 11
887.99038020316516
 21
1027.3435374283606
  0
LINE
  8
_2-7_ビス
  6
CONTINUOUS
 62
    7
 10
887.99038020316516
 20
1027.3435374283606
 11
887.98574517644352
 21
1027.3733820830587
  0
LINE
  8
_2-7_ビス
  6
CONTINUOUS
 62
    7
 10
887.98574517644352
 20
1027.3733820830587
 11
887.97646672388578
 21
1027.4018884507348
  0
LINE
  8
_2-7_ビス
  6
CONTINUOUS
 62
    7
 10
887.97646672388578
 20
1027.4018884507348
 11
887.96282676657779
 21
1027.4281903798314
  0
LINE
  8
_2-7_ビス
  6
CONTINUOUS
 62
    7
 10
887.96282676657779
 20
1027.4281903798314
 11
887.96274327282072
 21
1027.4283228680931
  0
LINE
  8
_2-7_ビス
  6
CONTINUOUS
 62
    7
 10
887.54273053696693
 20
1034.9895594547233
 11
887.54273053696693
 21
1034.9895594547233
  0
LINE
  8
_2-7_ビス
  6
CONTINUOUS
 62
    7
 10
887.54273053696693
 20
1034.9895594547233
 11
887.62705636776059
 21
1035.0018194113711
  0
LINE
  8
_2-7_ビス
  6
CONTINUOUS
 62
    7
 10
887.62705636776059
 20
1035.0018194113711
 11
887.70816468921896
 21
1035.0299918780781
  0
LINE
  8
_2-7_ビス
  6
CONTINUOUS
 62
    7
 10
887.70816468921896
 20
1035.0299918780781
 11
887.78359106603705
 21
1035.0732208486997
  0
LINE
  8
_2-7_ビス
  6
CONTINUOUS
 62
    7
 10
887.78359106603705
 20
1035.0732208486997
 11
887.85104370592296
 21
1035.1301928328382
  0
LINE
  8
_2-7_ビス
  6
CONTINUOUS
 62
    7
 10
887.85104370592296
 20
1035.1301928328382
 11
887.90847309454637
 21
1035.199176765585
  0
LINE
  8
_2-7_ビス
  6
CONTINUOUS
 62
    7
 10
887.90847309454637
 20
1035.199176765585
 11
887.95413426899461
 21
1035.278076605051
  0
LINE
  8
_2-7_ビス
  6
CONTINUOUS
 62
    7
 10
887.95413426899461
 20
1035.278076605051
 11
887.98663983758786
 21
1035.3644950195392
  0
LINE
  8
_2-7_ビス
  6
CONTINUOUS
 62
    7
 10
887.98663983758786
 20
1035.3644950195392
 11
888.00500213507291
 21
1035.4558062292551
  0
LINE
  8
_2-7_ビス
  6
CONTINUOUS
 62
    7
 10
888.00500213507291
 20
1035.4558062292551
 11
888.00866323233254
 21
1035.5492357892977
  0
LINE
  8
_2-7_ビス
  6
CONTINUOUS
 62
    7
 10
888.00866323233254
 20
1035.5492357892977
 11
887.99751188877906
 21
1035.6419448897623
  0
LINE
  8
_2-7_ビス
  6
CONTINUOUS
 62
    7
 10
887.99751188877906
 20
1035.6419448897623
 11
887.97188693234352
 21
1035.7311166115444
  0
LINE
  8
_2-7_ビス
  6
CONTINUOUS
 62
    7
 10
887.97188693234352
 20
1035.7311166115444
 11
887.93256696436038
 21
1035.8140415170008
  0
LINE
  8
_2-7_ビス
  6
CONTINUOUS
 62
    7
 10
887.93256696436038
 20
1035.8140415170008
 11
887.88074670215985
 21
1035.8881999748414
  0
LINE
  8
_2-7_ビス
  6
CONTINUOUS
 62
    7
 10
887.88074670215985
 20
1035.8881999748414
 11
887.81800067818665
 21
1035.9513387178504
  0
LINE
  8
_2-7_ビス
  6
CONTINUOUS
 62
    7
 10
887.81800067818665
 20
1035.9513387178504
 11
887.74623539862807
 21
1036.0015393072713
  0
LINE
  8
_2-7_ビス
  6
CONTINUOUS
 62
    7
 10
887.74623539862807
 20
1036.0015393072713
 11
887.66763141518879
 21
1036.0372764235974
  0
LINE
  8
_2-7_ビス
  6
CONTINUOUS
 62
    7
 10
887.66763141518879
 20
1036.0372764235974
 11
887.58457707012974
 21
1036.0574642126328
  0
LINE
  8
_2-7_ビス
  6
CONTINUOUS
 62
    7
 10
887.58457707012974
 20
1036.0574642126328
 11
887.54273053696693
 21
1036.0614892786234
  0
LINE
  8
_2-7_ビス
  6
CONTINUOUS
 62
    7
 10
887.54273053696693
 20
1042.8228927832233
 11
887.54273053696693
 21
1042.8228927832233
  0
LINE
  8
_2-7_ビス
  6
CONTINUOUS
 62
    7
 10
887.54273053696693
 20
1042.8228927832233
 11
887.62705636776059
 21
1042.8351527398711
  0
LINE
  8
_2-7_ビス
  6
CONTINUOUS
 62
    7
 10
887.62705636776059
 20
1042.8351527398711
 11
887.70816468921896
 21
1042.8633252065781
  0
LINE
  8
_2-7_ビス
  6
CONTINUOUS
 62
    7
 10
887.70816468921896
 20
1042.8633252065781
 11
887.78359106603705
 21
1042.9065541771997
  0
LINE
  8
_2-7_ビス
  6
CONTINUOUS
 62
    7
 10
887.78359106603705
 20
1042.9065541771997
 11
887.85104370592296
 21
1042.9635261613382
  0
LINE
  8
_2-7_ビス
  6
CONTINUOUS
 62
    7
 10
887.85104370592296
 20
1042.9635261613382
 11
887.90847309454637
 21
1043.032510094085
  0
LINE
  8
_2-7_ビス
  6
CONTINUOUS
 62
    7
 10
887.90847309454637
 20
1043.032510094085
 11
887.95413426899461
 21
1043.1114099335509
  0
LINE
  8
_2-7_ビス
  6
CONTINUOUS
 62
    7
 10
887.95413426899461
 20
1043.1114099335509
 11
887.98663983758786
 21
1043.1978283480391
  0
LINE
  8
_2-7_ビス
  6
CONTINUOUS
 62
    7
 10
887.98663983758786
 20
1043.1978283480391
 11
888.00500213507291
 21
1043.2891395577551
  0
LINE
  8
_2-7_ビス
  6
CONTINUOUS
 62
    7
 10
888.00500213507291
 20
1043.2891395577551
 11
888.00866323233254
 21
1043.3825691177976
  0
LINE
  8
_2-7_ビス
  6
CONTINUOUS
 62
    7
 10
888.00866323233254
 20
1043.3825691177976
 11
887.99751188877906
 21
1043.4752782182622
  0
LINE
  8
_2-7_ビス
  6
CONTINUOUS
 62
    7
 10
887.99751188877906
 20
1043.4752782182622
 11
887.97188693234352
 21
1043.5644499400444
  0
LINE
  8
_2-7_ビス
  6
CONTINUOUS
 62
    7
 10
887.97188693234352
 20
1043.5644499400444
 11
887.93256696436038
 21
1043.6473748455007
  0
LINE
  8
_2-7_ビス
  6
CONTINUOUS
 62
    7
 10
887.93256696436038
 20
1043.6473748455007
 11
887.88074670215985
 21
1043.7215333033414
  0
LINE
  8
_2-7_ビス
  6
CONTINUOUS
 62
    7
 10
887.88074670215985
 20
1043.7215333033414
 11
887.81800067818665
 21
1043.7846720463504
  0
LINE
  8
_2-7_ビス
  6
CONTINUOUS
 62
    7
 10
887.81800067818665
 20
1043.7846720463504
 11
887.74623539862807
 21
1043.8348726357713
  0
LINE
  8
_2-7_ビス
  6
CONTINUOUS
 62
    7
 10
887.74623539862807
 20
1043.8348726357713
 11
887.66763141518879
 21
1043.8706097520974
  0
LINE
  8
_2-7_ビス
  6
CONTINUOUS
 62
    7
 10
887.66763141518879
 20
1043.8706097520974
 11
887.58457707012974
 21
1043.8907975411328
  0
LINE
  8
_2-7_ビス
  6
CONTINUOUS
 62
    7
 10
887.58457707012974
 20
1043.8907975411328
 11
887.54273053696693
 21
1043.8948226071234
  0
LINE
  8
_2-7_ビス
  6
CONTINUOUS
 62
    7
 10
887.91822268085639
 20
1024.4351734963227
 11
887.91822268085639
 21
1024.4351734963227
  0
LINE
  8
_2-7_ビス
  6
CONTINUOUS
 62
    7
 10
887.91822268085639
 20
1024.4351734963227
 11
887.91281875643017
 21
1024.5744291182382
  0
LINE
  8
_2-7_ビス
  6
CONTINUOUS
 62
    7
 10
887.91281875643017
 20
1024.5744291182382
 11
887.8855020684108
 21
1024.7105374633209
  0
LINE
  8
_2-7_ビス
  6
CONTINUOUS
 62
    7
 10
887.8855020684108
 20
1024.7105374633209
 11
887.86794734776822
 21
1024.7649980575227
  0
LINE
  8
_2-7_ビス
  6
CONTINUOUS
 62
    7
 10
889.00912828696596
 20
1022.4358460387706
 11
889.00912828696596
 21
1022.4358460387706
  0
LINE
  8
_2-7_ビス
  6
CONTINUOUS
 62
    7
 10
889.00912828696596
 20
1022.4358460387706
 11
889.00630646213324
 21
1022.4916862333146
  0
LINE
  8
_2-7_ビス
  6
CONTINUOUS
 62
    7
 10
889.00630646213324
 20
1022.4916862333146
 11
888.99470777464444
 21
1022.5461393711702
  0
LINE
  8
_2-7_ビス
  6
CONTINUOUS
 62
    7
 10
888.99470777464444
 20
1022.5461393711702
 11
888.97468464474969
 21
1022.5975509212982
  0
LINE
  8
_2-7_ビス
  6
CONTINUOUS
 62
    7
 10
888.97468464474969
 20
1022.5975509212982
 11
888.94684546511871
 21
1022.6443587697635
  0
LINE
  8
_2-7_ビス
  6
CONTINUOUS
 62
    7
 10
888.94684546511871
 20
1022.6443587697635
 11
888.91203611513731
 21
1022.6851406837764
  0
LINE
  8
_2-7_ビス
  6
CONTINUOUS
 62
    7
 10
888.91203611513731
 20
1022.6851406837764
 11
888.87131425929022
 21
1022.7186575255162
  0
LINE
  8
_2-7_ビス
  6
CONTINUOUS
 62
    7
 10
888.87131425929022
 20
1022.7186575255162
 11
888.82591721056122
 21
1022.743890902707
  0
LINE
  8
_2-7_ビス
  6
CONTINUOUS
 62
    7
 10
888.82591721056122
 20
1022.743890902707
 11
888.77722433530369
 21
1022.7600741119517
  0
LINE
  8
_2-7_ビス
  6
CONTINUOUS
 62
    7
 10
888.77722433530369
 20
1022.7600741119517
 11
888.72671514189278
 21
1022.7667154346263
  0
LINE
  8
_2-7_ビス
  6
CONTINUOUS
 62
    7
 10
888.72671514189278
 20
1022.7667154346263
 11
888.67592432661138
 21
1022.7636130775021
  0
LINE
  8
_2-7_ビス
  6
CONTINUOUS
 62
    7
 10
888.67592432661138
 20
1022.7636130775021
 11
888.62639514268028
 21
1022.7508613041305
  0
LINE
  8
_2-7_ビス
  6
CONTINUOUS
 62
    7
 10
888.62639514268028
 20
1022.7508613041305
 11
888.57963250929026
 21
1022.7288475706926
  0
LINE
  8
_2-7_ビス
  6
CONTINUOUS
 62
    7
 10
888.57963250929026
 20
1022.7288475706926
 11
888.53705728539398
 21
1022.6982407533394
  0
LINE
  8
_2-7_ビス
  6
CONTINUOUS
 62
    7
 10
888.53705728539398
 20
1022.6982407533394
 11
888.49996309762537
 21
1022.6599708247285
  0
LINE
  8
_2-7_ビス
  6
CONTINUOUS
 62
    7
 10
888.49996309762537
 20
1022.6599708247285
 11
888.4694770341091
 21
1022.6152005972751
  0
LINE
  8
_2-7_ビス
  6
CONTINUOUS
 62
    7
 10
888.4694770341091
 20
1022.6152005972751
 11
888.44652539845856
 21
1022.5652903916856
  0
LINE
  8
_2-7_ビス
  6
CONTINUOUS
 62
    7
 10
888.44652539845856
 20
1022.5652903916856
 11
888.43180556450886
 21
1022.5117567043011
  0
LINE
  8
_2-7_ビス
  6
CONTINUOUS
 62
    7
 10
888.43180556450886
 20
1022.5117567043011
 11
888.42576478696606
 21
1022.4562261291234
  0
LINE
  8
_2-7_ビス
  6
CONTINUOUS
 62
    7
 10
888.42576478696606
 20
1022.4562261291234
 11
888.42576478696606
 21
1022.4562261291233
  0
LINE
  8
_2-6_鋼板__アングル
  6
CONTINUOUS
 62
    2
 10
866.71148053696561
 20
1111.9705327854494
 11
868.04055918767835
 21
1096.7790942935671
  0
LINE
  8
_2-6_鋼板__アングル
  6
CONTINUOUS
 62
    2
 10
868.02105073823759
 20
1110.7705327854383
 11
869.24514299269822
 21
1096.7790942935671
  0
LINE
  8
_2-6_鋼板__アングル
  6
CONTINUOUS
 62
    2
 10
868.04055918767835
 20
1096.7790942935671
 11
869.24514299269822
 21
1096.7790942935671
  0
LINE
  8
_2-6_鋼板__アングル
  6
CONTINUOUS
 62
    2
 10
868.02105073823759
 20
1110.7705327854383
 11
883.71442426212616
 21
1110.7705327854383
  0
LINE
  8
_2-6_鋼板__アングル
  6
CONTINUOUS
 62
    2
 10
896.56446738297382
 20
1111.4728303593001
 11
893.96148053696697
 21
1109.4705327854494
  0
ARC
  8
_2-6_鋼板__アングル
  6
CONTINUOUS
 62
    2
 10
898.02777320901305
 20
1109.5705327854494
 40
2.3999999999999999
 50
90
 51
127.56859202882603
  0
LINE
  8
_2-6_鋼板__アングル
  6
CONTINUOUS
 62
    2
 10
884.85849369095922
 20
1111.4728303593001
 11
887.46148053696606
 21
1109.4705327854494
  0
ARC
  8
_2-6_鋼板__アングル
  6
CONTINUOUS
 62
    2
 10
883.39518786491999
 20
1109.5705327854494
 40
2.3999999999999999
 50
52.431407971173961
 51
90
  0
LINE
  8
_2-6_鋼板__アングル
  6
CONTINUOUS
 62
    4
 10
898.02777320901305
 20
1111.9705327854494
 11
883.39518786491999
 21
1111.9705327854494
  0
LINE
  8
_2-6_鋼板__アングル
  6
CONTINUOUS
 62
    2
 10
893.96148053696697
 20
1109.4705327854494
 11
894.69313344998545
 21
1108.5193839985236
  0
LINE
  8
_2-6_鋼板__アングル
  6
CONTINUOUS
 62
    2
 10
887.46148053696606
 20
1109.4705327854494
 11
886.72982762394759
 21
1108.5193839985236
  0
LINE
  8
_2-6_鋼板__アングル
  6
CONTINUOUS
 62
    4
 10
886.72982762394759
 20
1108.5193839985236
 11
894.69313344998545
 21
1108.5193839985236
  0
LINE
  8
_2-6_鋼板__アングル
  6
CONTINUOUS
 62
    2
 10
897.2961202959923
 20
1110.5216815723752
 11
894.69313344998545
 21
1108.5193839985236
  0
ARC
  8
_2-6_鋼板__アングル
  6
CONTINUOUS
 62
    2
 10
898.02777320901305
 20
1109.5705327854494
 40
1.2
 50
90
 51
127.56859202882507
  0
LINE
  8
_2-6_鋼板__アングル
  6
CONTINUOUS
 62
    2
 10
884.12684077794074
 20
1110.5216815723752
 11
886.72982762394759
 21
1108.5193839985236
  0
ARC
  8
_2-6_鋼板__アングル
  6
CONTINUOUS
 62
    2
 10
883.39518786491999
 20
1109.5705327854494
 40
1.2
 50
52.431407971171978
 51
90.000000000000057
  0
LINE
  8
_2-6_鋼板__アングル
  6
CONTINUOUS
 62
    2
 10
866.71148053696561
 20
1111.9705327854494
 11
883.39518786491999
 21
1111.9705327854494
  0
LINE
  8
_2-6_鋼板__アングル
  6
CONTINUOUS
 62
    2
 10
911.65374031917145
 20
1110.4123976311798
 11
913.93332079024594
 21
1108.4705327854494
  0
ARC
  8
_2-6_鋼板__アングル
  6
CONTINUOUS
 62
    2
 10
910.68104063577357
 20
1109.2705327854496
 40
2.7000000000000002
 50
49.573921259901446
 51
90
  0
ARC
  8
_2-6_鋼板__アングル
  6
CONTINUOUS
 62
    2
 10
910.68104063577357
 20
1109.2705327854496
 40
1.5000000000000002
 50
49.573921259901446
 51
90
  0
LINE
  8
_2-6_鋼板__アングル
  6
CONTINUOUS
 62
    2
 10
914.71148053696743
 20
1109.3840246620339
 11
913.93332079024594
 21
1108.4705327854494
  0
LINE
  8
_2-6_鋼板__アングル
  6
CONTINUOUS
 62
    2
 10
898.02777320901305
 20
1111.9705327854494
 11
910.68104063577357
 21
1111.9705327854494
  0
LINE
  8
_2-6_鋼板__アングル
  6
CONTINUOUS
 62
    2
 10
897.70853681183644
 20
1110.7705327854383
 11
910.68104063577357
 21
1110.7705327854383
  0
LINE
  8
_2-2_in_line
  6
CONTINUOUS
 62
    7
 10
892.71148053696584
 20
1103.5193839985236
 11
1366.7114805369656
 21
1103.5193839985236
  0
LINE
  8
_2-d_ハッチ他
  6
CONTINUOUS
 62
    4
 10
892.71148053696584
 20
1065.0411833190678
 11
921.1896812164216
 21
1093.5193839985236
  0
LINE
  8
_2-d_ハッチ他
  6
CONTINUOUS
 62
    4
 10
892.71148053696584
 20
1095.970529292395
 11
900.2603352430956
 21
1103.5193839985259
  0
LINE
  8
_2-d_ハッチ他
  6
CONTINUOUS
 62
    4
 10
892.71148053696584
 20
1071.0743622743853
 11
900.2664588128298
 21
1063.5193839985236
  0
LINE
  8
_2-2_in_line
  6
CONTINUOUS
 62
    7
 10
892.71148053696584
 20
1093.5193839985236
 11
1366.7114805369656
 21
1093.5193839985236
  0
LINE
  8
_2-2_in_line
  6
CONTINUOUS
 62
    7
 10
868.65971798197711
 20
1103.5193839985236
 11
888.71148053696606
 21
1103.5193839985236
  0
LINE
  8
_2-d_ハッチ他
  6
CONTINUOUS
 62
    4
 10
870.26645881282866
 20
1093.5193839985236
 11
888.71148053696606
 21
1075.0743622743862
  0
LINE
  8
_2-d_ハッチ他
  6
CONTINUOUS
 62
    4
 10
866.71148053696675
 20
1067.3254545665263
 11
888.71148053696606
 21
1089.3254545665268
  0
LINE
  8
_2-2_in_line
  6
CONTINUOUS
 62
    7
 10
866.71148053696561
 20
1093.5193839985236
 11
888.71148053696606
 21
1093.5193839985236
  0
LINE
  8
_2-6_鋼板__アングル
  6
CONTINUOUS
 62
    2
 10
912.43190006589293
 20
1111.3258895077633
 11
914.71148053696743
 21
1109.3840246620339
  0
LINE
  8
_2-6_鋼板__アングル
  6
CONTINUOUS
 62
    2
 10
914.71148053696743
 20
1109.3840246620339
 11
915.72649348978416
 21
1108.5193839985236
  0
LINE
  8
_2-4_out_line
  6
CONTINUOUS
 62
    2
 10
917.56742733803037
 20
1113.5193839985236
 11
962.71148053695788
 21
1113.5193839985236
  0
LINE
  8
_2-4_out_line
  6
CONTINUOUS
 62
    2
 10
874.71148053696515
 20
1117.0193839985272
 11
913.45873168585035
 21
1117.0193839985272
  0
LINE
  8
_2-4_out_line
  6
CONTINUOUS
 62
    2
 10
913.45873168585035
 20
1117.0193839985272
 11
917.56742733803037
 21
1113.5193839985236
  0
LINE
  8
_2-4_out_line
  6
CONTINUOUS
 62
    2
 10
868.22227466434674
 20
1108.5193839985236
 11
962.71148053695788
 21
1108.5193839985236
  0
LINE
  8
_2-6_鋼板__アングル
  6
CONTINUOUS
 62
    2
 10
968.21059798495617
 20
470.20935102210672
 11
964.65644681711728
 21
470.77053278544952
  0
ARC
  8
_2-6_鋼板__アングル
  6
CONTINUOUS
 62
    2
 10
968.2417904996496
 20
470.40690361517306
 40
0.1999999999999999
 50
261.02737338510303
 51
334.85854777811267
  0
ARC
  8
_2-6_鋼板__アングル
  6
CONTINUOUS
 62
    2
 10
968.09414437839541
 20
470.4761964143978
 40
0.3630977288186556
 50
334.85854777810812
 51
35.338363310652404
  0
ARC
  8
_2-6_鋼板__アングル
  6
CONTINUOUS
 62
    2
 10
968.22719143113636
 20
470.5705327854497
 40
0.1999999999999999
 50
35.338363310689026
 51
89.999999999982194
  0
LINE
  8
_2-6_鋼板__アングル
  6
CONTINUOUS
 62
    2
 10
968.02344289678877
 20
469.02403546371204
 11
964.56229319244903
 21
469.57053278544947
  0
ARC
  8
_2-6_鋼板__アングル
  6
CONTINUOUS
 62
    2
 10
968.2417904996496
 20
470.40690361517306
 40
1.3999999999999995
 50
261.02737338510588
 51
334.85854777812403
  0
ARC
  8
_2-6_鋼板__アングル
  6
CONTINUOUS
 62
    2
 10
968.09414437839541
 20
470.4761964143978
 40
1.5630977288186554
 50
334.85854777812443
 51
35.338363310900398
  0
ARC
  8
_2-6_鋼板__アングル
  6
CONTINUOUS
 62
    2
 10
968.22719143113636
 20
470.5705327854497
 40
1.3999999999999995
 50
35.338363310902537
 51
90.000000000002316
  0
LINE
  8
_2-6_鋼板__アングル
  6
CONTINUOUS
 62
    2
 10
960.15644681711683
 20
470.77053278544952
 11
960.15644681711683
 21
469.57053278544947
  0
LINE
  8
_2-6_鋼板__アングル
  6
CONTINUOUS
 62
    2
 10
960.15644681711683
 20
469.57053278544947
 11
964.56229319244903
 21
469.57053278544947
  0
LINE
  8
_2-6_鋼板__アングル
  6
CONTINUOUS
 62
    2
 10
942.80424046724966
 20
471.47283035930002
 11
945.4072273132565
 21
469.47053278544956
  0
ARC
  8
_2-6_鋼板__アングル
  6
CONTINUOUS
 62
    2
 10
941.34093464121042
 20
469.57053278544947
 40
2.3999999999999999
 50
52.431407971173961
 51
90
  0
LINE
  8
_2-6_鋼板__アングル
  6
CONTINUOUS
 62
    2
 10
954.51021415926198
 20
471.47283035930002
 11
951.90722731325513
 21
469.47053278544956
  0
ARC
  8
_2-6_鋼板__アングル
  6
CONTINUOUS
 62
    2
 10
955.97351998530121
 20
469.57053278544947
 40
2.3999999999999999
 50
90
 51
127.56859202882603
  0
LINE
  8
_2-6_鋼板__アングル
  6
CONTINUOUS
 62
    4
 10
941.34093464121042
 20
471.97053278544956
 11
955.97351998530121
 21
471.97053278544956
  0
LINE
  8
_2-6_鋼板__アングル
  6
CONTINUOUS
 62
    2
 10
955.97351998530121
 20
471.97053278544956
 11
968.22719143113636
 21
471.97053278544956
  0
LINE
  8
_2-6_鋼板__アングル
  6
CONTINUOUS
 62
    2
 10
945.4072273132565
 20
469.47053278544956
 11
944.67557440023575
 21
468.51938399852372
  0
LINE
  8
_2-6_鋼板__アングル
  6
CONTINUOUS
 62
    2
 10
951.90722731325513
 20
469.47053278544956
 11
952.63888022627589
 21
468.51938399852372
  0
LINE
  8
_2-6_鋼板__アングル
  6
CONTINUOUS
 62
    4
 10
952.63888022627589
 20
468.51938399852372
 11
944.67557440023575
 21
468.51938399852372
  0
LINE
  8
_2-6_鋼板__アングル
  6
CONTINUOUS
 62
    2
 10
942.0725875542289
 20
470.52168157237531
 11
944.67557440023575
 21
468.51938399852372
  0
ARC
  8
_2-6_鋼板__アングル
  6
CONTINUOUS
 62
    2
 10
941.34093464121042
 20
469.57053278544947
 40
1.2
 50
52.431407971174927
 51
90
  0
LINE
  8
_2-6_鋼板__アングル
  6
CONTINUOUS
 62
    2
 10
955.24186707228273
 20
470.52168157237531
 11
952.63888022627589
 21
468.51938399852372
  0
ARC
  8
_2-6_鋼板__アングル
  6
CONTINUOUS
 62
    2
 10
955.97351998530121
 20
469.57053278544947
 40
1.2
 50
89.999999999999943
 51
127.56859202882802
  0
LINE
  8
_2-6_鋼板__アングル
  6
CONTINUOUS
 62
    2
 10
955.97351998530121
 20
470.77053278544952
 11
968.22719143113636
 21
470.77053278544952
  0
LINE
  8
_2-6_鋼板__アングル
  6
CONTINUOUS
 62
    2
 10
868.1087126123939
 20
490.77738511167638
 11
866.91035717068962
 21
490.71458196418519
  0
LINE
  8
_2-6_鋼板__アングル
  6
CONTINUOUS
 62
    2
 10
866.91035717068962
 20
490.71458196418519
 11
866.71148053696561
 21
494.50937419625177
  0
ARC
  8
_2-6_鋼板__アングル
  6
CONTINUOUS
 62
    2
 10
867.90983597867216
 20
494.57217734374296
 40
1.2000000000002089
 50
3.0000000000105129
 51
182.9999999999969
  0
LINE
  8
_2-6_鋼板__アングル
  6
CONTINUOUS
 62
    2
 10
878.64687298040371
 20
470.77053278544952
 11
941.34093464121042
 21
470.77053278544952
  0
LINE
  8
_2-6_鋼板__アングル
  6
CONTINUOUS
 62
    2
 10
868.66057763285971
 20
480.2471732230191
 11
867.90983597867216
 21
494.57217734374296
  0
ARC
  8
_2-6_鋼板__アングル
  6
CONTINUOUS
 62
    2
 10
878.64687298040371
 20
480.77053278544952
 40
10
 50
183.00000000000102
 51
270
  0
LINE
  8
_2-6_鋼板__アングル
  6
CONTINUOUS
 62
    2
 10
878.64687298040599
 20
471.97053278544956
 11
941.34093464121042
 21
471.97053278544956
  0
LINE
  8
_2-6_鋼板__アングル
  6
CONTINUOUS
 62
    2
 10
869.85893307456399
 20
480.30997637051144
 11
869.10819142037644
 21
494.63498049123416
  0
ARC
  8
_2-6_鋼板__アングル
  6
CONTINUOUS
 62
    2
 10
878.64687298040599
 20
480.77053278544952
 40
8.8000000000000007
 50
183.00000000000051
 51
270
  0
LINE
  8
_2-6_鋼板__アングル
  6
CONTINUOUS
 62
    4
 10
868.20101876622039
 20
489.01607877340155
 11
869.39937420792694
 21
489.07888192089274
  0
LINE
  8
_2-6_鋼板__アングル
  6
CONTINUOUS
 62
    4
 10
868.54120248180016
 20
482.52498679749749
 11
869.73955792350444
 21
482.58778994498869
  0
LINE
  8
_2-7_ビス
  6
CONTINUOUS
 62
    7
 10
950.78222813805587
 20
468.51938399852372
 11
946.5322264884569
 21
468.51938399852372
  0
LINE
  8
_2-7_ビス
  6
CONTINUOUS
 62
    7
 10
943.65722318926009
 20
471.39438729772166
 11
946.5322264884569
 21
468.51938399852372
  0
LINE
  8
_2-7_ビス
  6
CONTINUOUS
 62
    7
 10
953.65723143725381
 20
471.39438729772166
 11
943.65722318926009
 21
471.39438729772166
  0
LINE
  8
_2-7_ビス
  6
CONTINUOUS
 62
    7
 10
943.65722318926009
 20
471.89441369130293
 11
943.65722318926009
 21
471.39438729772166
  0
LINE
  8
_2-7_ビス
  6
CONTINUOUS
 62
    7
 10
953.65723143725381
 20
471.39438729772166
 11
953.65723143725381
 21
471.89441369130293
  0
LINE
  8
_2-7_ビス
  6
CONTINUOUS
 62
    7
 10
953.65723143725381
 20
471.89441369130293
 11
943.65722318926009
 21
471.89441369130293
  0
LINE
  8
_2-7_ビス
  6
CONTINUOUS
 62
    7
 10
953.65723143725381
 20
471.39438729772166
 11
950.78222813805587
 21
468.51938399852372
  0
ARC
  8
_2-7_ビス
  6
DASHED3
 62
    7
 10
948.65722731325695
 20
470.62994670967157
 40
1.8403175392666382
 50
217.11750793457031
 51
322.88247680664062
  0
LINE
  8
_2-7_ビス
  6
DASHED3
 62
    7
 10
951.20724314940594
 20
471.39438729772166
 11
950.12471866935903
 21
469.51936255373823
  0
LINE
  8
_2-7_ビス
  6
DASHED3
 62
    7
 10
946.10724859308198
 20
471.39438729772166
 11
947.18977307312775
 21
469.51936255373823
  0
LINE
  8
_2-7_ビス
  6
DASHED3
 62
    7
 10
946.10724859308198
 20
471.39438729772166
 11
946.10724859308198
 21
471.89441369130293
  0
LINE
  8
_2-7_ビス
  6
DASHED3
 62
    7
 10
951.20724314940594
 20
471.39438729772166
 11
951.20724314940594
 21
471.89441369130293
  0
LINE
  8
_2-7_ビス
  6
CONTINUOUS
 62
    7
 10
950.65722731325627
 20
468.51938399852372
 11
950.65722731325627
 21
423.51938399852372
  0
LINE
  8
_2-7_ビス
  6
CONTINUOUS
 62
    7
 10
946.6572273132565
 20
468.51938399852372
 11
946.6572273132565
 21
423.51938399852372
  0
LINE
  8
_2-7_ビス
  6
CONTINUOUS
 62
    7
 10
951.65722731325764
 20
419.42389882561145
 11
951.65722731325764
 21
423.51938399852372
  0
LINE
  8
_2-7_ビス
  6
CONTINUOUS
 62
    7
 10
951.65722731325764
 20
423.51938399852372
 11
948.65722731325695
 21
423.51938399852372
  0
LINE
  8
_2-7_ビス
  6
CONTINUOUS
 62
    7
 10
951.65722731325764
 20
419.42389882561145
 11
952.40722731325695
 21
418.59933790540765
  0
LINE
  8
_2-7_ビス
  6
CONTINUOUS
 62
    7
 10
952.40722731325695
 20
418.59933790540765
 11
952.40722731325695
 21
416.50073217829288
  0
LINE
  8
_2-7_ビス
  6
CONTINUOUS
 62
    7
 10
952.40722731325695
 20
416.50073217829288
 11
951.8590080632564
 21
412.38313886504386
  0
LINE
  8
_2-7_ビス
  6
CONTINUOUS
 62
    7
 10
951.8590080632564
 20
412.38313886504386
 11
951.61708431325656
 21
411.97552435652312
  0
LINE
  8
_2-7_ビス
  6
CONTINUOUS
 62
    7
 10
951.61708431325656
 20
411.97552435652312
 11
951.65722731325764
 21
411.97552435652312
  0
LINE
  8
_2-7_ビス
  6
CONTINUOUS
 62
    7
 10
951.65722731325764
 20
411.97552435652312
 11
951.65722731325764
 21
410.16148926992344
  0
LINE
  8
_2-7_ビス
  6
CONTINUOUS
 62
    7
 10
951.65722731325764
 20
410.16148926992344
 11
951.2242147526897
 21
409.33692786692347
  0
LINE
  8
_2-7_ビス
  6
CONTINUOUS
 62
    7
 10
951.35411856325709
 20
409.08955944602269
 11
952.33222731325645
 21
409.08955944602269
  0
LINE
  8
_2-7_ビス
  6
CONTINUOUS
 62
    7
 10
952.33222731325645
 20
409.08955944602269
 11
952.33222731325645
 21
404.8561688521437
  0
LINE
  8
_2-7_ビス
  6
CONTINUOUS
 62
    7
 10
952.33222731325645
 20
404.8561688521437
 11
951.83075781325647
 21
403.89482260712327
  0
LINE
  8
_2-7_ビス
  6
CONTINUOUS
 62
    7
 10
951.83075781325647
 20
403.89482260712327
 11
951.82597731325677
 21
403.89482260712327
  0
LINE
  8
_2-7_ビス
  6
CONTINUOUS
 62
    7
 10
951.82597313997212
 20
403.89482296090534
 11
951.82597731325677
 21
403.89482260712327
  0
LINE
  8
_2-7_ビス
  6
CONTINUOUS
 62
    7
 10
951.82597313997212
 20
403.89482296090534
 11
951.82597731325677
 21
403.89482260712327
  0
LINE
  8
_2-7_ビス
  6
CONTINUOUS
 62
    7
 10
951.79338606325678
 20
402.82289278322366
 11
952.33222731325645
 21
402.82289278322366
  0
LINE
  8
_2-7_ビス
  6
CONTINUOUS
 62
    7
 10
952.33222731325645
 20
402.82289278322366
 11
952.33222731325645
 21
397.02565964644975
  0
LINE
  8
_2-7_ビス
  6
CONTINUOUS
 62
    7
 10
952.33222731325645
 20
397.02565964644975
 11
951.82598012619655
 21
396.061508276685
  0
LINE
  8
_2-7_ビス
  6
CONTINUOUS
 62
    7
 10
951.82597731325677
 20
396.06148927862307
 11
951.82238568290109
 21
396.5389406758635
  0
LINE
  8
_2-7_ビス
  6
CONTINUOUS
 62
    7
 10
951.82238568290109
 20
396.5389406758635
 11
951.50170567527744
 21
396.5562261204235
  0
LINE
  8
_2-7_ビス
  6
CONTINUOUS
 62
    7
 10
951.34304363510955
 20
396.80359454132315
 11
951.79338606325678
 21
397.62815594432311
  0
LINE
  8
_2-7_ビス
  6
CONTINUOUS
 62
    7
 10
951.79338606325678
 20
397.62815594432311
 11
951.79338621538
 21
398.10560741331813
  0
LINE
  8
_2-7_ビス
  6
CONTINUOUS
 62
    7
 10
951.79338621538
 20
398.10560741331813
 11
951.44535381325773
 21
398.12289278612354
  0
LINE
  8
_2-7_ビス
  6
CONTINUOUS
 62
    7
 10
951.28576406353636
 20
398.37026120702319
 11
951.79338606325678
 21
399.19482261002315
  0
LINE
  8
_2-7_ビス
  6
CONTINUOUS
 62
    7
 10
951.79338606325678
 20
399.19482261002315
 11
951.79338606325678
 21
399.67227417113179
  0
LINE
  8
_2-7_ビス
  6
CONTINUOUS
 62
    7
 10
951.79338606325678
 20
399.67227417113179
 11
951.44535381325773
 21
399.68955945182358
  0
LINE
  8
_2-7_ビス
  6
CONTINUOUS
 62
    7
 10
951.28576406353636
 20
399.93692787272323
 11
951.79338606325678
 21
400.76148927572319
  0
LINE
  8
_2-7_ビス
  6
CONTINUOUS
 62
    7
 10
951.79338606325678
 20
400.76148927572319
 11
951.79338606325678
 21
401.23894083683183
  0
LINE
  8
_2-7_ビス
  6
CONTINUOUS
 62
    7
 10
951.79338606325678
 20
401.23894083683183
 11
951.44535381325773
 21
401.25622611752362
  0
LINE
  8
_2-7_ビス
  6
CONTINUOUS
 62
    7
 10
951.28576406353636
 20
401.50359453842327
 11
951.79338621538
 21
402.32815594142323
  0
LINE
  8
_2-7_ビス
  6
CONTINUOUS
 62
    7
 10
951.79338621538
 20
402.32815594142323
 11
951.79338606325678
 21
402.82289278322366
  0
LINE
  8
_2-7_ビス
  6
CONTINUOUS
 62
    7
 10
951.82597313997212
 20
403.89482296090534
 11
951.82228793872673
 21
404.37227442989922
  0
LINE
  8
_2-7_ビス
  6
CONTINUOUS
 62
    7
 10
951.82228793872673
 20
404.37227442989922
 11
951.50484306325757
 21
404.38955944892371
  0
LINE
  8
_2-7_ビス
  6
CONTINUOUS
 62
    7
 10
951.34275092293683
 20
404.63692786982335
 11
951.79338621538
 21
405.46148927282331
  0
LINE
  8
_2-7_ビス
  6
CONTINUOUS
 62
    7
 10
951.79338621538
 20
405.46148927282331
 11
951.79338621538
 21
405.93894074181719
  0
LINE
  8
_2-7_ビス
  6
CONTINUOUS
 62
    7
 10
951.79338621538
 20
405.93894074181719
 11
951.44535381325773
 21
405.95622611462375
  0
LINE
  8
_2-7_ビス
  6
CONTINUOUS
 62
    7
 10
951.28576406353636
 20
406.20359453552339
 11
951.79338606325678
 21
407.02815593852335
  0
LINE
  8
_2-7_ビス
  6
CONTINUOUS
 62
    7
 10
951.79338606325678
 20
407.02815593852335
 11
951.79338621538
 21
407.50560740751723
  0
LINE
  8
_2-7_ビス
  6
CONTINUOUS
 62
    7
 10
951.79338621538
 20
407.50560740751723
 11
951.44446772076867
 21
407.52312436148316
  0
LINE
  8
_2-7_ビス
  6
CONTINUOUS
 62
    7
 10
951.28576406353636
 20
407.77026120122343
 11
951.79338621538
 21
408.5948226042234
  0
LINE
  8
_2-7_ビス
  6
CONTINUOUS
 62
    7
 10
951.79338621538
 20
408.5948226042234
 11
951.79338605774979
 21
409.08955944602269
  0
LINE
  8
_2-7_ビス
  6
CONTINUOUS
 62
    7
 10
951.79338606325678
 20
394.98955945472346
 11
952.33222731325645
 21
394.98955945472346
  0
LINE
  8
_2-7_ビス
  6
CONTINUOUS
 62
    7
 10
952.33222731325645
 20
394.98955945472346
 11
952.33222731325645
 21
391.74131771988584
  0
LINE
  8
_2-7_ビス
  6
CONTINUOUS
 62
    7
 10
952.33222731325645
 20
391.74131771988584
 11
951.82644156325728
 21
388.22815595012287
  0
LINE
  8
_2-7_ビス
  6
CONTINUOUS
 62
    7
 10
951.82644156325728
 20
388.22815595012287
 11
951.82570704559316
 21
388.70560703426406
  0
LINE
  8
_2-7_ビス
  6
CONTINUOUS
 62
    7
 10
951.82570704559316
 20
388.70560703426406
 11
951.51701856325622
 21
388.7228927919233
  0
LINE
  8
_2-7_ビス
  6
CONTINUOUS
 62
    7
 10
951.82644156325728
 20
388.22815595012287
 11
951.39296475268998
 21
387.40359454712291
  0
LINE
  8
_2-7_ビス
  6
CONTINUOUS
 62
    7
 10
951.37246199846891
 20
388.97026121282295
 11
951.82306433192912
 21
389.79482261582291
  0
LINE
  8
_2-7_ビス
  6
CONTINUOUS
 62
    7
 10
951.82306433192912
 20
389.79482261582291
 11
951.82097942766723
 21
390.27227369996297
  0
LINE
  8
_2-7_ビス
  6
CONTINUOUS
 62
    7
 10
951.82097942766723
 20
390.27227369996297
 11
951.49865256325688
 21
390.28955945762334
  0
LINE
  8
_2-7_ビス
  6
CONTINUOUS
 62
    7
 10
951.35014706743937
 20
390.53692787852299
 11
951.81401492676264
 21
391.36148889666913
  0
LINE
  8
_2-7_ビス
  6
CONTINUOUS
 62
    7
 10
951.81401492676264
 20
391.36148889666913
 11
951.80995208606623
 21
391.83894036566414
  0
LINE
  8
_2-7_ビス
  6
CONTINUOUS
 62
    7
 10
951.80995208606623
 20
391.83894036566414
 11
951.47529873079839
 21
391.85622612332338
  0
LINE
  8
_2-7_ビス
  6
CONTINUOUS
 62
    7
 10
951.31804411462986
 20
392.10359454422303
 11
951.79824673883536
 21
392.92815556236917
  0
LINE
  8
_2-7_ビス
  6
CONTINUOUS
 62
    7
 10
951.79824673883536
 20
392.92815556236917
 11
951.79338606325678
 21
393.40560750833163
  0
LINE
  8
_2-7_ビス
  6
CONTINUOUS
 62
    7
 10
951.79338606325678
 20
393.40560750833163
 11
951.44535381325773
 21
393.42289278902342
  0
LINE
  8
_2-7_ビス
  6
CONTINUOUS
 62
    7
 10
951.28576406353636
 20
393.67026120992307
 11
951.79338621538
 21
394.49482261292303
  0
LINE
  8
_2-7_ビス
  6
CONTINUOUS
 62
    7
 10
951.79338621538
 20
394.49482261292303
 11
951.79338606325678
 21
394.98955945472346
  0
LINE
  8
_2-7_ビス
  6
CONTINUOUS
 62
    7
 10
951.52286856325622
 20
387.15622612622326
 11
951.65722731325764
 21
387.15622612622326
  0
LINE
  8
_2-7_ビス
  6
CONTINUOUS
 62
    7
 10
951.65722731325764
 20
387.15622612622326
 11
951.65722731325764
 21
386.37289279337267
  0
LINE
  8
_2-7_ビス
  6
CONTINUOUS
 62
    7
 10
951.65722731325764
 20
386.37289279337267
 11
951.50722731325664
 21
386.37289279337267
  0
LINE
  8
_2-7_ビス
  6
CONTINUOUS
 62
    7
 10
951.50722731325664
 20
386.37289279337267
 11
951.50722731325664
 21
384.76499805752326
  0
LINE
  8
_2-7_ビス
  6
CONTINUOUS
 62
    7
 10
951.50722731325664
 20
384.76499805752326
 11
951.50076050245593
 21
384.76499805752326
  0
LINE
  8
_2-7_ビス
  6
CONTINUOUS
 62
    7
 10
951.45048531325733
 20
384.43517349632373
 11
951.45048516671841
 21
378.48473190350376
  0
LINE
  8
_2-7_ビス
  6
CONTINUOUS
 62
    7
 10
951.45048516671841
 20
378.48473190350376
 11
951.01004781325719
 21
377.8333110793443
  0
LINE
  8
_2-7_ビス
  6
CONTINUOUS
 62
    7
 10
951.01004781325719
 20
377.8333110793443
 11
950.00722731325686
 21
376.51938402752364
  0
LINE
  8
_2-7_ビス
  6
CONTINUOUS
 62
    7
 10
950.00722731325686
 20
376.51938402752364
 11
949.85784883376232
 21
376.51938402752364
  0
LINE
  8
_2-7_ビス
  6
CONTINUOUS
 62
    7
 10
949.85784883376232
 20
376.51938402752364
 11
950.94294294307679
 21
378.48473190350376
  0
LINE
  8
_2-7_ビス
  6
CONTINUOUS
 62
    7
 10
950.94294294307679
 20
378.48473190350376
 11
950.94294306325742
 21
382.45622612912314
  0
LINE
  8
_2-7_ビス
  6
CONTINUOUS
 62
    7
 10
950.35957956325751
 20
382.45622612912314
 11
950.35957983668914
 21
378.48473205620223
  0
LINE
  8
_2-7_ビス
  6
CONTINUOUS
 62
    7
 10
950.35957983668914
 20
378.48473205620223
 11
949.2744854714565
 21
376.51938402752364
  0
LINE
  8
_2-7_ビス
  6
CONTINUOUS
 62
    7
 10
949.2744854714565
 20
376.51938402752364
 11
948.65722731325695
 21
376.51938402752364
  0
LINE
  8
_2-7_ビス
  6
CONTINUOUS
 62
    7
 10
951.23492741834013
 20
409.35732727958884
 11
951.23492741834013
 21
409.35732727958884
  0
LINE
  8
_2-7_ビス
  6
CONTINUOUS
 62
    7
 10
951.23492741834013
 20
409.35732727958884
 11
951.22172929298529
 21
409.33106792421222
  0
LINE
  8
_2-7_ビス
  6
CONTINUOUS
 62
    7
 10
951.22172929298529
 20
409.33106792421222
 11
951.21287923561385
 21
409.30268783424333
  0
LINE
  8
_2-7_ビス
  6
CONTINUOUS
 62
    7
 10
951.21287923561385
 20
409.30268783424333
 11
951.20864615074072
 21
409.27304932435487
  0
LINE
  8
_2-7_ビス
  6
CONTINUOUS
 62
    7
 10
951.20864615074072
 20
409.27304932435487
 11
951.20915865850793
 21
409.24305294567199
  0
LINE
  8
_2-7_ビス
  6
CONTINUOUS
 62
    7
 10
951.20915865850793
 20
409.24305294567199
 11
951.21440118662611
 21
409.21361012298206
  0
LINE
  8
_2-7_ビス
  6
CONTINUOUS
 62
    7
 10
951.21440118662611
 20
409.21361012298206
 11
951.22421444353131
 21
409.18561546155371
  0
LINE
  8
_2-7_ビス
  6
CONTINUOUS
 62
    7
 10
951.22421444353131
 20
409.18561546155371
 11
951.23830025837822
 21
409.15991956500847
  0
LINE
  8
_2-7_ビス
  6
CONTINUOUS
 62
    7
 10
951.23830025837822
 20
409.15991956500847
 11
951.25623064081049
 21
409.13730319016008
  0
LINE
  8
_2-7_ビス
  6
CONTINUOUS
 62
    7
 10
951.25623064081049
 20
409.13730319016008
 11
951.27746078523103
 21
409.11845352411399
  0
LINE
  8
_2-7_ビス
  6
CONTINUOUS
 62
    7
 10
951.27746078523103
 20
409.11845352411399
 11
951.30134562444471
 21
409.10394330443449
  0
LINE
  8
_2-7_ビス
  6
CONTINUOUS
 62
    7
 10
951.30134562444471
 20
409.10394330443449
 11
951.32715942969833
 21
409.09421341680411
  0
LINE
  8
_2-7_ビス
  6
CONTINUOUS
 62
    7
 10
951.32715942969833
 20
409.09421341680411
 11
951.35411786158159
 21
409.08955949893482
  0
LINE
  8
_2-7_ビス
  6
CONTINUOUS
 62
    7
 10
951.35411786158159
 20
409.08955949893482
 11
951.35411856325709
 21
409.08955944602269
  0
LINE
  8
_2-7_ビス
  6
CONTINUOUS
 62
    7
 10
951.28576406353568
 20
407.77026120122315
 11
951.28576406353568
 21
407.77026120122315
  0
LINE
  8
_2-7_ビス
  6
CONTINUOUS
 62
    7
 10
951.28576406353568
 20
407.77026120122315
 11
951.28509295794856
 21
407.73030304723483
  0
LINE
  8
_2-7_ビス
  6
CONTINUOUS
 62
    7
 10
951.28509295794856
 20
407.73030304723483
 11
951.29074327651267
 21
407.69082382565256
  0
LINE
  8
_2-7_ビス
  6
CONTINUOUS
 62
    7
 10
951.29074327651267
 20
407.69082382565256
 11
951.30254333715743
 21
407.65302309264666
  0
LINE
  8
_2-7_ビス
  6
CONTINUOUS
 62
    7
 10
951.30254333715743
 20
407.65302309264666
 11
951.32013460101132
 21
407.61804940436144
  0
LINE
  8
_2-7_ビス
  6
CONTINUOUS
 62
    7
 10
951.32013460101132
 20
407.61804940436144
 11
951.34298256642387
 21
407.58696541861798
  0
LINE
  8
_2-7_ビス
  6
CONTINUOUS
 62
    7
 10
951.34298256642387
 20
407.58696541861798
 11
951.37039300952767
 21
407.5607156065937
  0
LINE
  8
_2-7_ビス
  6
CONTINUOUS
 62
    7
 10
951.37039300952767
 20
407.5607156065937
 11
951.40153307787909
 21
407.54009755554398
  0
LINE
  8
_2-7_ビス
  6
CONTINUOUS
 62
    7
 10
951.40153307787909
 20
407.54009755554398
 11
951.4354565962592
 21
407.52573773451672
  0
LINE
  8
_2-7_ビス
  6
CONTINUOUS
 62
    7
 10
951.4354565962592
 20
407.52573773451672
 11
951.44535381325636
 21
407.52289278032316
  0
LINE
  8
_2-7_ビス
  6
CONTINUOUS
 62
    7
 10
951.28576406353568
 20
406.20359453552311
 11
951.28576406353568
 21
406.20359453552311
  0
LINE
  8
_2-7_ビス
  6
CONTINUOUS
 62
    7
 10
951.28576406353568
 20
406.20359453552311
 11
951.28509295794856
 21
406.16363638153479
  0
LINE
  8
_2-7_ビス
  6
CONTINUOUS
 62
    7
 10
951.28509295794856
 20
406.16363638153479
 11
951.29074327651267
 21
406.12415715995252
  0
LINE
  8
_2-7_ビス
  6
CONTINUOUS
 62
    7
 10
951.29074327651267
 20
406.12415715995252
 11
951.30254333715743
 21
406.08635642694662
  0
LINE
  8
_2-7_ビス
  6
CONTINUOUS
 62
    7
 10
951.30254333715743
 20
406.08635642694662
 11
951.32013460101132
 21
406.0513827386614
  0
LINE
  8
_2-7_ビス
  6
CONTINUOUS
 62
    7
 10
951.32013460101132
 20
406.0513827386614
 11
951.34298256642387
 21
406.02029875291794
  0
LINE
  8
_2-7_ビス
  6
CONTINUOUS
 62
    7
 10
951.34298256642387
 20
406.02029875291794
 11
951.37039300952767
 21
405.99404894089366
  0
LINE
  8
_2-7_ビス
  6
CONTINUOUS
 62
    7
 10
951.37039300952767
 20
405.99404894089366
 11
951.40153307787909
 21
405.97343088984394
  0
LINE
  8
_2-7_ビス
  6
CONTINUOUS
 62
    7
 10
951.40153307787909
 20
405.97343088984394
 11
951.4354565962592
 21
405.95907106881668
  0
LINE
  8
_2-7_ビス
  6
CONTINUOUS
 62
    7
 10
951.4354565962592
 20
405.95907106881668
 11
951.44535381325636
 21
405.95622611462312
  0
LINE
  8
_2-7_ビス
  6
CONTINUOUS
 62
    7
 10
951.34275092293728
 20
404.63692786982307
 11
951.34275092293728
 21
404.63692786982307
  0
LINE
  8
_2-7_ビス
  6
CONTINUOUS
 62
    7
 10
951.34275092293728
 20
404.63692786982307
 11
951.34207981735017
 21
404.59696971583475
  0
LINE
  8
_2-7_ビス
  6
CONTINUOUS
 62
    7
 10
951.34207981735017
 20
404.59696971583475
 11
951.34773013591428
 21
404.55749049425248
  0
LINE
  8
_2-7_ビス
  6
CONTINUOUS
 62
    7
 10
951.34773013591428
 20
404.55749049425248
 11
951.35953019655904
 21
404.51968976124658
  0
LINE
  8
_2-7_ビス
  6
CONTINUOUS
 62
    7
 10
951.35953019655904
 20
404.51968976124658
 11
951.37712146041292
 21
404.48471607296136
  0
LINE
  8
_2-7_ビス
  6
CONTINUOUS
 62
    7
 10
951.37712146041292
 20
404.48471607296136
 11
951.39996942582547
 21
404.4536320872179
  0
LINE
  8
_2-7_ビス
  6
CONTINUOUS
 62
    7
 10
951.39996942582547
 20
404.4536320872179
 11
951.42737986892928
 21
404.42738227519362
  0
LINE
  8
_2-7_ビス
  6
CONTINUOUS
 62
    7
 10
951.42737986892928
 20
404.42738227519362
 11
951.4585199372807
 21
404.4067642241439
  0
LINE
  8
_2-7_ビス
  6
CONTINUOUS
 62
    7
 10
951.4585199372807
 20
404.4067642241439
 11
951.4924434556608
 21
404.39240440311664
  0
LINE
  8
_2-7_ビス
  6
CONTINUOUS
 62
    7
 10
951.4924434556608
 20
404.39240440311664
 11
951.50234067265797
 21
404.38955944892308
  0
LINE
  8
_2-7_ビス
  6
CONTINUOUS
 62
    7
 10
951.28576406353568
 20
401.50359453842299
 11
951.28576406353568
 21
401.50359453842299
  0
LINE
  8
_2-7_ビス
  6
CONTINUOUS
 62
    7
 10
951.28576406353568
 20
401.50359453842299
 11
951.28509295794856
 21
401.46363638443466
  0
LINE
  8
_2-7_ビス
  6
CONTINUOUS
 62
    7
 10
951.28509295794856
 20
401.46363638443466
 11
951.29074327651267
 21
401.4241571628524
  0
LINE
  8
_2-7_ビス
  6
CONTINUOUS
 62
    7
 10
951.29074327651267
 20
401.4241571628524
 11
951.30254333715743
 21
401.3863564298465
  0
LINE
  8
_2-7_ビス
  6
CONTINUOUS
 62
    7
 10
951.30254333715743
 20
401.3863564298465
 11
951.32013460101132
 21
401.35138274156128
  0
LINE
  8
_2-7_ビス
  6
CONTINUOUS
 62
    7
 10
951.32013460101132
 20
401.35138274156128
 11
951.34298256642387
 21
401.32029875581782
  0
LINE
  8
_2-7_ビス
  6
CONTINUOUS
 62
    7
 10
951.34298256642387
 20
401.32029875581782
 11
951.37039300952767
 21
401.29404894379354
  0
LINE
  8
_2-7_ビス
  6
CONTINUOUS
 62
    7
 10
951.37039300952767
 20
401.29404894379354
 11
951.40153307787909
 21
401.27343089274382
  0
LINE
  8
_2-7_ビス
  6
CONTINUOUS
 62
    7
 10
951.40153307787909
 20
401.27343089274382
 11
951.4354565962592
 21
401.25907107171656
  0
LINE
  8
_2-7_ビス
  6
CONTINUOUS
 62
    7
 10
951.4354565962592
 20
401.25907107171656
 11
951.44535381325636
 21
401.256226117523
  0
LINE
  8
_2-7_ビス
  6
CONTINUOUS
 62
    7
 10
951.28576406353568
 20
399.93692787272295
 11
951.28576406353568
 21
399.93692787272295
  0
LINE
  8
_2-7_ビス
  6
CONTINUOUS
 62
    7
 10
951.28576406353568
 20
399.93692787272295
 11
951.28509295794856
 21
399.89696971873462
  0
LINE
  8
_2-7_ビス
  6
CONTINUOUS
 62
    7
 10
951.28509295794856
 20
399.89696971873462
 11
951.29074327651267
 21
399.85749049715236
  0
LINE
  8
_2-7_ビス
  6
CONTINUOUS
 62
    7
 10
951.29074327651267
 20
399.85749049715236
 11
951.30254333715743
 21
399.81968976414646
  0
LINE
  8
_2-7_ビス
  6
CONTINUOUS
 62
    7
 10
951.30254333715743
 20
399.81968976414646
 11
951.32013460101132
 21
399.78471607586124
  0
LINE
  8
_2-7_ビス
  6
CONTINUOUS
 62
    7
 10
951.32013460101132
 20
399.78471607586124
 11
951.34298256642387
 21
399.75363209011778
  0
LINE
  8
_2-7_ビス
  6
CONTINUOUS
 62
    7
 10
951.34298256642387
 20
399.75363209011778
 11
951.37039300952767
 21
399.7273822780935
  0
LINE
  8
_2-7_ビス
  6
CONTINUOUS
 62
    7
 10
951.37039300952767
 20
399.7273822780935
 11
951.40153307787909
 21
399.70676422704378
  0
LINE
  8
_2-7_ビス
  6
CONTINUOUS
 62
    7
 10
951.40153307787909
 20
399.70676422704378
 11
951.4354565962592
 21
399.69240440601652
  0
LINE
  8
_2-7_ビス
  6
CONTINUOUS
 62
    7
 10
951.4354565962592
 20
399.69240440601652
 11
951.44535381325636
 21
399.68955945182296
  0
LINE
  8
_2-7_ビス
  6
CONTINUOUS
 62
    7
 10
951.28576406353568
 20
398.37026120702291
 11
951.28576406353568
 21
398.37026120702291
  0
LINE
  8
_2-7_ビス
  6
CONTINUOUS
 62
    7
 10
951.28576406353568
 20
398.37026120702291
 11
951.28509295794856
 21
398.33030305303458
  0
LINE
  8
_2-7_ビス
  6
CONTINUOUS
 62
    7
 10
951.28509295794856
 20
398.33030305303458
 11
951.29074327651267
 21
398.29082383145231
  0
LINE
  8
_2-7_ビス
  6
CONTINUOUS
 62
    7
 10
951.29074327651267
 20
398.29082383145231
 11
951.30254333715743
 21
398.25302309844642
  0
LINE
  8
_2-7_ビス
  6
CONTINUOUS
 62
    7
 10
951.30254333715743
 20
398.25302309844642
 11
951.32013460101132
 21
398.2180494101612
  0
LINE
  8
_2-7_ビス
  6
CONTINUOUS
 62
    7
 10
951.32013460101132
 20
398.2180494101612
 11
951.34298256642387
 21
398.18696542441774
  0
LINE
  8
_2-7_ビス
  6
CONTINUOUS
 62
    7
 10
951.34298256642387
 20
398.18696542441774
 11
951.37039300952767
 21
398.16071561239346
  0
LINE
  8
_2-7_ビス
  6
CONTINUOUS
 62
    7
 10
951.37039300952767
 20
398.16071561239346
 11
951.40153307787909
 21
398.14009756134374
  0
LINE
  8
_2-7_ビス
  6
CONTINUOUS
 62
    7
 10
951.40153307787909
 20
398.14009756134374
 11
951.4354565962592
 21
398.12573774031648
  0
LINE
  8
_2-7_ビス
  6
CONTINUOUS
 62
    7
 10
951.4354565962592
 20
398.12573774031648
 11
951.44535381325636
 21
398.12289278612292
  0
LINE
  8
_2-7_ビス
  6
CONTINUOUS
 62
    7
 10
951.34304363511001
 20
396.80359454132287
 11
951.34304363511001
 21
396.80359454132287
  0
LINE
  8
_2-7_ビス
  6
CONTINUOUS
 62
    7
 10
951.34304363511001
 20
396.80359454132287
 11
951.34237252952289
 21
396.76363638733454
  0
LINE
  8
_2-7_ビス
  6
CONTINUOUS
 62
    7
 10
951.34237252952289
 20
396.76363638733454
 11
951.348022848087
 21
396.72415716575227
  0
LINE
  8
_2-7_ビス
  6
CONTINUOUS
 62
    7
 10
951.348022848087
 20
396.72415716575227
 11
951.35982290873176
 21
396.68635643274638
  0
LINE
  8
_2-7_ビス
  6
CONTINUOUS
 62
    7
 10
951.35982290873176
 20
396.68635643274638
 11
951.37741417258565
 21
396.65138274446116
  0
LINE
  8
_2-7_ビス
  6
CONTINUOUS
 62
    7
 10
951.37741417258565
 20
396.65138274446116
 11
951.4002621379982
 21
396.62029875871769
  0
LINE
  8
_2-7_ビス
  6
CONTINUOUS
 62
    7
 10
951.4002621379982
 20
396.62029875871769
 11
951.427672581102
 21
396.59404894669342
  0
LINE
  8
_2-7_ビス
  6
CONTINUOUS
 62
    7
 10
951.427672581102
 20
396.59404894669342
 11
951.45881264945342
 21
396.5734308956437
  0
LINE
  8
_2-7_ビス
  6
CONTINUOUS
 62
    7
 10
951.45881264945342
 20
396.5734308956437
 11
951.49273616783353
 21
396.55907107461644
  0
LINE
  8
_2-7_ビス
  6
CONTINUOUS
 62
    7
 10
951.49273616783353
 20
396.55907107461644
 11
951.50263338483069
 21
396.55622612042288
  0
LINE
  8
_2-7_ビス
  6
CONTINUOUS
 62
    7
 10
951.28576406353568
 20
393.67026120992278
 11
951.28576406353568
 21
393.67026120992278
  0
LINE
  8
_2-7_ビス
  6
CONTINUOUS
 62
    7
 10
951.28576406353568
 20
393.67026120992278
 11
951.28509295794856
 21
393.63030305593446
  0
LINE
  8
_2-7_ビス
  6
CONTINUOUS
 62
    7
 10
951.28509295794856
 20
393.63030305593446
 11
951.29074327651267
 21
393.59082383435219
  0
LINE
  8
_2-7_ビス
  6
CONTINUOUS
 62
    7
 10
951.29074327651267
 20
393.59082383435219
 11
951.30254333715743
 21
393.5530231013463
  0
LINE
  8
_2-7_ビス
  6
CONTINUOUS
 62
    7
 10
951.30254333715743
 20
393.5530231013463
 11
951.32013460101132
 21
393.51804941306108
  0
LINE
  8
_2-7_ビス
  6
CONTINUOUS
 62
    7
 10
951.32013460101132
 20
393.51804941306108
 11
951.34298256642387
 21
393.48696542731761
  0
LINE
  8
_2-7_ビス
  6
CONTINUOUS
 62
    7
 10
951.34298256642387
 20
393.48696542731761
 11
951.37039300952767
 21
393.46071561529334
  0
LINE
  8
_2-7_ビス
  6
CONTINUOUS
 62
    7
 10
951.37039300952767
 20
393.46071561529334
 11
951.40153307787909
 21
393.44009756424362
  0
LINE
  8
_2-7_ビス
  6
CONTINUOUS
 62
    7
 10
951.40153307787909
 20
393.44009756424362
 11
951.4354565962592
 21
393.42573774321636
  0
LINE
  8
_2-7_ビス
  6
CONTINUOUS
 62
    7
 10
951.4354565962592
 20
393.42573774321636
 11
951.44535381325636
 21
393.4228927890228
  0
LINE
  8
_2-7_ビス
  6
CONTINUOUS
 62
    7
 10
951.31804411463031
 20
392.10359454422274
 11
951.31804411463031
 21
392.10359454422274
  0
LINE
  8
_2-7_ビス
  6
CONTINUOUS
 62
    7
 10
951.31804411463031
 20
392.10359454422274
 11
951.31737300904319
 21
392.06363639023442
  0
LINE
  8
_2-7_ビス
  6
CONTINUOUS
 62
    7
 10
951.31737300904319
 20
392.06363639023442
 11
951.3230233276073
 21
392.02415716865215
  0
LINE
  8
_2-7_ビス
  6
CONTINUOUS
 62
    7
 10
951.3230233276073
 20
392.02415716865215
 11
951.33482338825206
 21
391.98635643564626
  0
LINE
  8
_2-7_ビス
  6
CONTINUOUS
 62
    7
 10
951.33482338825206
 20
391.98635643564626
 11
951.35241465210595
 21
391.95138274736104
  0
LINE
  8
_2-7_ビス
  6
CONTINUOUS
 62
    7
 10
951.35241465210595
 20
391.95138274736104
 11
951.3752626175185
 21
391.92029876161757
  0
LINE
  8
_2-7_ビス
  6
CONTINUOUS
 62
    7
 10
951.3752626175185
 20
391.92029876161757
 11
951.40267306062231
 21
391.8940489495933
  0
LINE
  8
_2-7_ビス
  6
CONTINUOUS
 62
    7
 10
951.40267306062231
 20
391.8940489495933
 11
951.43381312897372
 21
391.87343089854357
  0
LINE
  8
_2-7_ビス
  6
CONTINUOUS
 62
    7
 10
951.43381312897372
 20
391.87343089854357
 11
951.46773664735383
 21
391.85907107751632
  0
LINE
  8
_2-7_ビス
  6
CONTINUOUS
 62
    7
 10
951.46773664735383
 20
391.85907107751632
 11
951.47763386435099
 21
391.85622612332276
  0
LINE
  8
_2-7_ビス
  6
CONTINUOUS
 62
    7
 10
951.35014706743868
 20
390.5369278785227
 11
951.35014706743868
 21
390.5369278785227
  0
LINE
  8
_2-7_ビス
  6
CONTINUOUS
 62
    7
 10
951.35014706743868
 20
390.5369278785227
 11
951.34947596185157
 21
390.49696972453438
  0
LINE
  8
_2-7_ビス
  6
CONTINUOUS
 62
    7
 10
951.34947596185157
 20
390.49696972453438
 11
951.35512628041567
 21
390.45749050295211
  0
LINE
  8
_2-7_ビス
  6
CONTINUOUS
 62
    7
 10
951.35512628041567
 20
390.45749050295211
 11
951.36692634106043
 21
390.41968976994622
  0
LINE
  8
_2-7_ビス
  6
CONTINUOUS
 62
    7
 10
951.36692634106043
 20
390.41968976994622
 11
951.38451760491432
 21
390.384716081661
  0
LINE
  8
_2-7_ビス
  6
CONTINUOUS
 62
    7
 10
951.38451760491432
 20
390.384716081661
 11
951.40736557032687
 21
390.35363209591753
  0
LINE
  8
_2-7_ビス
  6
CONTINUOUS
 62
    7
 10
951.40736557032687
 20
390.35363209591753
 11
951.43477601343068
 21
390.32738228389326
  0
LINE
  8
_2-7_ビス
  6
CONTINUOUS
 62
    7
 10
951.43477601343068
 20
390.32738228389326
 11
951.4659160817821
 21
390.30676423284353
  0
LINE
  8
_2-7_ビス
  6
CONTINUOUS
 62
    7
 10
951.4659160817821
 20
390.30676423284353
 11
951.4998396001622
 21
390.29240441181628
  0
LINE
  8
_2-7_ビス
  6
CONTINUOUS
 62
    7
 10
951.4998396001622
 20
390.29240441181628
 11
951.50973681715936
 21
390.28955945762272
  0
LINE
  8
_2-7_ビス
  6
CONTINUOUS
 62
    7
 10
951.37246199846822
 20
388.9702612128238
 11
951.37246199846822
 21
388.9702612128238
  0
LINE
  8
_2-7_ビス
  6
CONTINUOUS
 62
    7
 10
951.37246199846822
 20
388.9702612128238
 11
951.37179089288111
 21
388.93030305883548
  0
LINE
  8
_2-7_ビス
  6
CONTINUOUS
 62
    7
 10
951.37179089288111
 20
388.93030305883548
 11
951.37744121144522
 21
388.89082383725321
  0
LINE
  8
_2-7_ビス
  6
CONTINUOUS
 62
    7
 10
951.37744121144522
 20
388.89082383725321
 11
951.38924127208998
 21
388.85302310424731
  0
LINE
  8
_2-7_ビス
  6
CONTINUOUS
 62
    7
 10
951.38924127208998
 20
388.85302310424731
 11
951.40683253594386
 21
388.81804941596209
  0
LINE
  8
_2-7_ビス
  6
CONTINUOUS
 62
    7
 10
951.40683253594386
 20
388.81804941596209
 11
951.42968050135642
 21
388.78696543021863
  0
LINE
  8
_2-7_ビス
  6
CONTINUOUS
 62
    7
 10
951.42968050135642
 20
388.78696543021863
 11
951.45709094446022
 21
388.76071561819435
  0
LINE
  8
_2-7_ビス
  6
CONTINUOUS
 62
    7
 10
951.45709094446022
 20
388.76071561819435
 11
951.48823101281164
 21
388.74009756714463
  0
LINE
  8
_2-7_ビス
  6
CONTINUOUS
 62
    7
 10
951.48823101281164
 20
388.74009756714463
 11
951.52215453119175
 21
388.72573774611737
  0
LINE
  8
_2-7_ビス
  6
CONTINUOUS
 62
    7
 10
951.52215453119175
 20
388.72573774611737
 11
951.53205174818891
 21
388.72289279192381
  0
LINE
  8
_2-7_ビス
  6
CONTINUOUS
 62
    7
 10
951.40596457740276
 20
387.42832286809306
 11
951.40596457740276
 21
387.42832286809306
  0
LINE
  8
_2-7_ビス
  6
CONTINUOUS
 62
    7
 10
951.40596457740276
 20
387.42832286809306
 11
951.3923024256527
 21
387.40203486611586
  0
LINE
  8
_2-7_ビス
  6
CONTINUOUS
 62
    7
 10
951.3923024256527
 20
387.40203486611586
 11
951.38299991610427
 21
387.37353797680231
  0
LINE
  8
_2-7_ビス
  6
CONTINUOUS
 62
    7
 10
951.38299991610427
 20
387.37353797680231
 11
951.37833970080283
 21
387.34369806371399
  0
LINE
  8
_2-7_ビス
  6
CONTINUOUS
 62
    7
 10
951.37833970080283
 20
387.34369806371399
 11
951.37846337803205
 21
387.31342179751033
  0
LINE
  8
_2-7_ビス
  6
CONTINUOUS
 62
    7
 10
951.37846337803205
 20
387.31342179751033
 11
951.38336718992184
 21
387.2836291072195
  0
LINE
  8
_2-7_ビス
  6
CONTINUOUS
 62
    7
 10
951.38336718992184
 20
387.2836291072195
 11
951.39290213662957
 21
387.25522522866009
  0
LINE
  8
_2-7_ビス
  6
CONTINUOUS
 62
    7
 10
951.39290213662957
 20
387.25522522866009
 11
951.40677850362431
 21
387.22907319930908
  0
LINE
  8
_2-7_ビス
  6
CONTINUOUS
 62
    7
 10
951.40677850362431
 20
387.22907319930908
 11
951.42457466451663
 21
387.20596763534479
  0
LINE
  8
_2-7_ビス
  6
CONTINUOUS
 62
    7
 10
951.42457466451663
 20
387.20596763534479
 11
951.44574989196337
 21
387.18661058763621
  0
LINE
  8
_2-7_ビス
  6
CONTINUOUS
 62
    7
 10
951.44574989196337
 20
387.18661058763621
 11
951.46966078739354
 21
387.17159021028283
  0
LINE
  8
_2-7_ビス
  6
CONTINUOUS
 62
    7
 10
951.46966078739354
 20
387.17159021028283
 11
951.49558083034901
 21
387.16136288984995
  0
LINE
  8
_2-7_ビス
  6
CONTINUOUS
 62
    7
 10
951.49558083034901
 20
387.16136288984995
 11
951.52272245344068
 21
387.15623937829355
  0
LINE
  8
_2-7_ビス
  6
CONTINUOUS
 62
    7
 10
951.52272245344068
 20
387.15623937829355
 11
951.52286856325691
 21
387.1562261262236
  0
LINE
  8
_2-7_ビス
  6
CONTINUOUS
 62
    7
 10
951.82597731325768
 20
396.06148927862324
 11
951.82597731325768
 21
396.06148927862324
  0
LINE
  8
_2-7_ビス
  6
CONTINUOUS
 62
    7
 10
951.82597731325768
 20
396.06148927862324
 11
951.74165148246391
 21
396.04922932197553
  0
LINE
  8
_2-7_ビス
  6
CONTINUOUS
 62
    7
 10
951.74165148246391
 20
396.04922932197553
 11
951.66054316100565
 21
396.02105685526845
  0
LINE
  8
_2-7_ビス
  6
CONTINUOUS
 62
    7
 10
951.66054316100565
 20
396.02105685526845
 11
951.58511678418756
 21
395.9778278846469
  0
LINE
  8
_2-7_ビス
  6
CONTINUOUS
 62
    7
 10
951.58511678418756
 20
395.9778278846469
 11
951.51766414430165
 21
395.9208559005084
  0
LINE
  8
_2-7_ビス
  6
CONTINUOUS
 62
    7
 10
951.51766414430165
 20
395.9208559005084
 11
951.46023475567824
 21
395.85187196776172
  0
LINE
  8
_2-7_ビス
  6
CONTINUOUS
 62
    7
 10
951.46023475567824
 20
395.85187196776172
 11
951.41457358123
 21
395.77297212829581
  0
LINE
  8
_2-7_ビス
  6
CONTINUOUS
 62
    7
 10
951.41457358123
 20
395.77297212829581
 11
951.38206801263675
 21
395.6865537138076
  0
LINE
  8
_2-7_ビス
  6
CONTINUOUS
 62
    7
 10
951.38206801263675
 20
395.6865537138076
 11
951.3637057151517
 21
395.59524250409152
  0
LINE
  8
_2-7_ビス
  6
CONTINUOUS
 62
    7
 10
951.3637057151517
 20
395.59524250409152
 11
951.36004461789207
 21
395.50181294404899
  0
LINE
  8
_2-7_ビス
  6
CONTINUOUS
 62
    7
 10
951.36004461789207
 20
395.50181294404899
 11
951.37119596144555
 21
395.40910384358443
  0
LINE
  8
_2-7_ビス
  6
CONTINUOUS
 62
    7
 10
951.37119596144555
 20
395.40910384358443
 11
951.39682091788109
 21
395.31993212180225
  0
LINE
  8
_2-7_ビス
  6
CONTINUOUS
 62
    7
 10
951.39682091788109
 20
395.31993212180225
 11
951.43614088586423
 21
395.23700721634577
  0
LINE
  8
_2-7_ビス
  6
CONTINUOUS
 62
    7
 10
951.43614088586423
 20
395.23700721634577
 11
951.48796114806476
 21
395.16284875850533
  0
LINE
  8
_2-7_ビス
  6
CONTINUOUS
 62
    7
 10
951.48796114806476
 20
395.16284875850533
 11
951.55070717203796
 21
395.09971001549633
  0
LINE
  8
_2-7_ビス
  6
CONTINUOUS
 62
    7
 10
951.55070717203796
 20
395.09971001549633
 11
951.62247245159654
 21
395.04950942607536
  0
LINE
  8
_2-7_ビス
  6
CONTINUOUS
 62
    7
 10
951.62247245159654
 20
395.04950942607536
 11
951.70107643503582
 21
395.0137723097493
  0
LINE
  8
_2-7_ビス
  6
CONTINUOUS
 62
    7
 10
951.70107643503582
 20
395.0137723097493
 11
951.78413078009487
 21
394.9935845207138
  0
LINE
  8
_2-7_ビス
  6
CONTINUOUS
 62
    7
 10
951.78413078009487
 20
394.9935845207138
 11
951.82597731325768
 21
394.98955945472329
  0
LINE
  8
_2-7_ビス
  6
CONTINUOUS
 62
    7
 10
951.82597731325768
 20
403.89482260712344
 11
951.82597731325768
 21
403.89482260712344
  0
LINE
  8
_2-7_ビス
  6
CONTINUOUS
 62
    7
 10
951.82597731325768
 20
403.89482260712344
 11
951.74165148246391
 21
403.88256265047573
  0
LINE
  8
_2-7_ビス
  6
CONTINUOUS
 62
    7
 10
951.74165148246391
 20
403.88256265047573
 11
951.66054316100565
 21
403.85439018376866
  0
LINE
  8
_2-7_ビス
  6
CONTINUOUS
 62
    7
 10
951.66054316100565
 20
403.85439018376866
 11
951.58511678418756
 21
403.8111612131471
  0
LINE
  8
_2-7_ビス
  6
CONTINUOUS
 62
    7
 10
951.58511678418756
 20
403.8111612131471
 11
951.51766414430165
 21
403.7541892290086
  0
LINE
  8
_2-7_ビス
  6
CONTINUOUS
 62
    7
 10
951.51766414430165
 20
403.7541892290086
 11
951.46023475567824
 21
403.68520529626193
  0
LINE
  8
_2-7_ビス
  6
CONTINUOUS
 62
    7
 10
951.46023475567824
 20
403.68520529626193
 11
951.41457358123
 21
403.60630545679601
  0
LINE
  8
_2-7_ビス
  6
CONTINUOUS
 62
    7
 10
951.41457358123
 20
403.60630545679601
 11
951.38206801263675
 21
403.5198870423078
  0
LINE
  8
_2-7_ビス
  6
CONTINUOUS
 62
    7
 10
951.38206801263675
 20
403.5198870423078
 11
951.3637057151517
 21
403.42857583259172
  0
LINE
  8
_2-7_ビス
  6
CONTINUOUS
 62
    7
 10
951.3637057151517
 20
403.42857583259172
 11
951.36004461789207
 21
403.3351462725492
  0
LINE
  8
_2-7_ビス
  6
CONTINUOUS
 62
    7
 10
951.36004461789207
 20
403.3351462725492
 11
951.37119596144555
 21
403.24243717208464
  0
LINE
  8
_2-7_ビス
  6
CONTINUOUS
 62
    7
 10
951.37119596144555
 20
403.24243717208464
 11
951.39682091788109
 21
403.15326545030246
  0
LINE
  8
_2-7_ビス
  6
CONTINUOUS
 62
    7
 10
951.39682091788109
 20
403.15326545030246
 11
951.43614088586423
 21
403.07034054484598
  0
LINE
  8
_2-7_ビス
  6
CONTINUOUS
 62
    7
 10
951.43614088586423
 20
403.07034054484598
 11
951.48796114806476
 21
402.99618208700554
  0
LINE
  8
_2-7_ビス
  6
CONTINUOUS
 62
    7
 10
951.48796114806476
 20
402.99618208700554
 11
951.55070717203796
 21
402.93304334399653
  0
LINE
  8
_2-7_ビス
  6
CONTINUOUS
 62
    7
 10
951.55070717203796
 20
402.93304334399653
 11
951.62247245159654
 21
402.88284275457556
  0
LINE
  8
_2-7_ビス
  6
CONTINUOUS
 62
    7
 10
951.62247245159654
 20
402.88284275457556
 11
951.70107643503582
 21
402.8471056382495
  0
LINE
  8
_2-7_ビス
  6
CONTINUOUS
 62
    7
 10
951.70107643503582
 20
402.8471056382495
 11
951.78413078009487
 21
402.826917849214
  0
LINE
  8
_2-7_ビス
  6
CONTINUOUS
 62
    7
 10
951.78413078009487
 20
402.826917849214
 11
951.82597731325768
 21
402.82289278322349
  0
LINE
  8
_2-7_ビス
  6
CONTINUOUS
 62
    7
 10
951.50076050245525
 20
384.76499805752292
 11
951.50076050245525
 21
384.76499805752292
  0
LINE
  8
_2-7_ビス
  6
CONTINUOUS
 62
    7
 10
951.50076050245525
 20
384.76499805752292
 11
951.46457528855342
 21
384.63141373075575
  0
LINE
  8
_2-7_ビス
  6
CONTINUOUS
 62
    7
 10
951.46457528855342
 20
384.63141373075575
 11
951.45003891261217
 21
384.4929506785403
  0
LINE
  8
_2-7_ビス
  6
CONTINUOUS
 62
    7
 10
951.45003891261217
 20
384.4929506785403
 11
951.45048516936708
 21
384.43517349632293
  0
LINE
  8
_2-7_ビス
  6
CONTINUOUS
 62
    7
 10
950.94294306325742
 20
382.45622612912331
 11
950.94294306325742
 21
382.45622612912331
  0
LINE
  8
_2-7_ビス
  6
CONTINUOUS
 62
    7
 10
950.94294306325742
 20
382.45622612912331
 11
950.93690228571461
 21
382.51175670430104
  0
LINE
  8
_2-7_ビス
  6
CONTINUOUS
 62
    7
 10
950.93690228571461
 20
382.51175670430104
 11
950.92218245176491
 21
382.56529039168555
  0
LINE
  8
_2-7_ビス
  6
CONTINUOUS
 62
    7
 10
950.92218245176491
 20
382.56529039168555
 11
950.89923081611437
 21
382.61520059727508
  0
LINE
  8
_2-7_ビス
  6
CONTINUOUS
 62
    7
 10
950.89923081611437
 20
382.61520059727508
 11
950.86874475259822
 21
382.65997082472842
  0
LINE
  8
_2-7_ビス
  6
CONTINUOUS
 62
    7
 10
950.86874475259822
 20
382.65997082472842
 11
950.8316505648296
 21
382.69824075333935
  0
LINE
  8
_2-7_ビス
  6
CONTINUOUS
 62
    7
 10
950.8316505648296
 20
382.69824075333935
 11
950.78907534093332
 21
382.72884757069255
  0
LINE
  8
_2-7_ビス
  6
CONTINUOUS
 62
    7
 10
950.78907534093332
 20
382.72884757069255
 11
950.74231270754331
 21
382.75086130413047
  0
LINE
  8
_2-7_ビス
  6
CONTINUOUS
 62
    7
 10
950.74231270754331
 20
382.75086130413047
 11
950.69278352361221
 21
382.7636130775021
  0
LINE
  8
_2-7_ビス
  6
CONTINUOUS
 62
    7
 10
950.69278352361221
 20
382.7636130775021
 11
950.64199270833069
 21
382.76671543462629
  0
LINE
  8
_2-7_ビス
  6
CONTINUOUS
 62
    7
 10
950.64199270833069
 20
382.76671543462629
 11
950.59148351491979
 21
382.76007411195167
  0
LINE
  8
_2-7_ビス
  6
CONTINUOUS
 62
    7
 10
950.59148351491979
 20
382.76007411195167
 11
950.54279063966237
 21
382.74389090270705
  0
LINE
  8
_2-7_ビス
  6
CONTINUOUS
 62
    7
 10
950.54279063966237
 20
382.74389090270705
 11
950.49739359093326
 21
382.71865752551622
  0
LINE
  8
_2-7_ビス
  6
CONTINUOUS
 62
    7
 10
950.49739359093326
 20
382.71865752551622
 11
950.45667173508616
 21
382.68514068377641
  0
LINE
  8
_2-7_ビス
  6
CONTINUOUS
 62
    7
 10
950.45667173508616
 20
382.68514068377641
 11
950.42186238510476
 21
382.64435876976353
  0
LINE
  8
_2-7_ビス
  6
CONTINUOUS
 62
    7
 10
950.42186238510476
 20
382.64435876976353
 11
950.39402320547379
 21
382.59755092129825
  0
LINE
  8
_2-7_ビス
  6
CONTINUOUS
 62
    7
 10
950.39402320547379
 20
382.59755092129825
 11
950.37400007557903
 21
382.54613937117023
  0
LINE
  8
_2-7_ビス
  6
CONTINUOUS
 62
    7
 10
950.37400007557903
 20
382.54613937117023
 11
950.36240138809023
 21
382.49168623331468
  0
LINE
  8
_2-7_ビス
  6
CONTINUOUS
 62
    7
 10
950.36240138809023
 20
382.49168623331468
 11
950.35957956325751
 21
382.43584603877065
  0
LINE
  8
_2-7_ビス
  6
CONTINUOUS
 62
    7
 10
950.35957956325751
 20
382.43584603877065
 11
950.35957956325751
 21
382.43584603877059
  0
LINE
  8
_2-7_ビス
  6
CONTINUOUS
 62
    7
 10
945.65722731325627
 20
419.42389882561145
 11
945.65722731325627
 21
423.51938399852372
  0
LINE
  8
_2-7_ビス
  6
CONTINUOUS
 62
    7
 10
945.65722731325627
 20
423.51938399852372
 11
948.65722731325695
 21
423.51938399852372
  0
LINE
  8
_2-7_ビス
  6
CONTINUOUS
 62
    7
 10
945.65722731325627
 20
419.42389882561145
 11
944.90722731325695
 21
418.59933790540765
  0
LINE
  8
_2-7_ビス
  6
CONTINUOUS
 62
    7
 10
944.90722731325695
 20
418.59933790540765
 11
944.90722731325695
 21
416.50073217829288
  0
LINE
  8
_2-7_ビス
  6
CONTINUOUS
 62
    7
 10
944.90722731325695
 20
416.50073217829288
 11
945.45544656325751
 21
412.38313886504386
  0
LINE
  8
_2-7_ビス
  6
CONTINUOUS
 62
    7
 10
945.45544656325751
 20
412.38313886504386
 11
945.69737031325735
 21
411.97552435652312
  0
LINE
  8
_2-7_ビス
  6
CONTINUOUS
 62
    7
 10
945.69737031325735
 20
411.97552435652312
 11
945.65722731325627
 21
411.97552435652312
  0
LINE
  8
_2-7_ビス
  6
CONTINUOUS
 62
    7
 10
945.65722731325627
 20
411.97552435652312
 11
945.65722731325627
 21
410.16148926992344
  0
LINE
  8
_2-7_ビス
  6
CONTINUOUS
 62
    7
 10
945.65722731325627
 20
410.16148926992344
 11
946.0902398738242
 21
409.33692786692347
  0
LINE
  8
_2-7_ビス
  6
CONTINUOUS
 62
    7
 10
945.96033606325682
 20
409.08955944602269
 11
944.98222731325745
 21
409.08955944602269
  0
LINE
  8
_2-7_ビス
  6
CONTINUOUS
 62
    7
 10
944.98222731325745
 20
409.08955944602269
 11
944.98222731325745
 21
404.8561688521437
  0
LINE
  8
_2-7_ビス
  6
CONTINUOUS
 62
    7
 10
944.98222731325745
 20
404.8561688521437
 11
945.48369681325744
 21
403.89482260712327
  0
LINE
  8
_2-7_ビス
  6
CONTINUOUS
 62
    7
 10
945.48369681325744
 20
403.89482260712327
 11
945.48847731325714
 21
403.89482260712327
  0
LINE
  8
_2-7_ビス
  6
CONTINUOUS
 62
    7
 10
945.48848148654179
 20
403.89482296090534
 11
945.48847731325714
 21
403.89482260712327
  0
LINE
  8
_2-7_ビス
  6
CONTINUOUS
 62
    7
 10
945.48848148654179
 20
403.89482296090534
 11
945.48847731325714
 21
403.89482260712327
  0
LINE
  8
_2-7_ビス
  6
CONTINUOUS
 62
    7
 10
945.52106856325713
 20
402.82289278322366
 11
944.98222731325745
 21
402.82289278322366
  0
LINE
  8
_2-7_ビス
  6
CONTINUOUS
 62
    7
 10
944.98222731325745
 20
402.82289278322366
 11
944.98222731325745
 21
397.02565964644975
  0
LINE
  8
_2-7_ビス
  6
CONTINUOUS
 62
    7
 10
944.98222731325745
 20
397.02565964644975
 11
945.48847450031849
 21
396.061508276685
  0
LINE
  8
_2-7_ビス
  6
CONTINUOUS
 62
    7
 10
945.48847731325714
 20
396.06148927862307
 11
945.49206894361282
 21
396.5389406758635
  0
LINE
  8
_2-7_ビス
  6
CONTINUOUS
 62
    7
 10
945.49206894361282
 20
396.5389406758635
 11
945.81274895123647
 21
396.5562261204235
  0
LINE
  8
_2-7_ビス
  6
CONTINUOUS
 62
    7
 10
945.97141099140435
 20
396.80359454132315
 11
945.52106856325713
 21
397.62815594432311
  0
LINE
  8
_2-7_ビス
  6
CONTINUOUS
 62
    7
 10
945.52106856325713
 20
397.62815594432311
 11
945.52106841113391
 21
398.10560741331813
  0
LINE
  8
_2-7_ビス
  6
CONTINUOUS
 62
    7
 10
945.52106841113391
 20
398.10560741331813
 11
945.86910081325732
 21
398.12289278612354
  0
LINE
  8
_2-7_ビス
  6
CONTINUOUS
 62
    7
 10
946.02869056297754
 20
398.37026120702319
 11
945.52106856325713
 21
399.19482261002315
  0
LINE
  8
_2-7_ビス
  6
CONTINUOUS
 62
    7
 10
945.52106856325713
 20
399.19482261002315
 11
945.52106856325713
 21
399.67227417113179
  0
LINE
  8
_2-7_ビス
  6
CONTINUOUS
 62
    7
 10
945.52106856325713
 20
399.67227417113179
 11
945.86910081325732
 21
399.68955945182358
  0
LINE
  8
_2-7_ビス
  6
CONTINUOUS
 62
    7
 10
946.02869056297754
 20
399.93692787272323
 11
945.52106856325713
 21
400.76148927572319
  0
LINE
  8
_2-7_ビス
  6
CONTINUOUS
 62
    7
 10
945.52106856325713
 20
400.76148927572319
 11
945.52106856325713
 21
401.23894083683183
  0
LINE
  8
_2-7_ビス
  6
CONTINUOUS
 62
    7
 10
945.52106856325713
 20
401.23894083683183
 11
945.86910081325732
 21
401.25622611752362
  0
LINE
  8
_2-7_ビス
  6
CONTINUOUS
 62
    7
 10
946.02869056297754
 20
401.50359453842327
 11
945.52106841113391
 21
402.32815594142323
  0
LINE
  8
_2-7_ビス
  6
CONTINUOUS
 62
    7
 10
945.52106841113391
 20
402.32815594142323
 11
945.52106856325713
 21
402.82289278322366
  0
LINE
  8
_2-7_ビス
  6
CONTINUOUS
 62
    7
 10
945.48848148654179
 20
403.89482296090534
 11
945.49216668778718
 21
404.37227442989922
  0
LINE
  8
_2-7_ビス
  6
CONTINUOUS
 62
    7
 10
945.49216668778718
 20
404.37227442989922
 11
945.80961156325634
 21
404.38955944892371
  0
LINE
  8
_2-7_ビス
  6
CONTINUOUS
 62
    7
 10
945.97170370357821
 20
404.63692786982335
 11
945.52106841113391
 21
405.46148927282331
  0
LINE
  8
_2-7_ビス
  6
CONTINUOUS
 62
    7
 10
945.52106841113391
 20
405.46148927282331
 11
945.52106841113391
 21
405.93894074181719
  0
LINE
  8
_2-7_ビス
  6
CONTINUOUS
 62
    7
 10
945.52106841113391
 20
405.93894074181719
 11
945.86910081325732
 21
405.95622611462375
  0
LINE
  8
_2-7_ビス
  6
CONTINUOUS
 62
    7
 10
946.02869056297754
 20
406.20359453552339
 11
945.52106856325713
 21
407.02815593852335
  0
LINE
  8
_2-7_ビス
  6
CONTINUOUS
 62
    7
 10
945.52106856325713
 20
407.02815593852335
 11
945.52106841113391
 21
407.50560740751723
  0
LINE
  8
_2-7_ビス
  6
CONTINUOUS
 62
    7
 10
945.52106841113391
 20
407.50560740751723
 11
945.86998690574524
 21
407.52312436148316
  0
LINE
  8
_2-7_ビス
  6
CONTINUOUS
 62
    7
 10
946.02869056297754
 20
407.77026120122343
 11
945.52106841113391
 21
408.5948226042234
  0
LINE
  8
_2-7_ビス
  6
CONTINUOUS
 62
    7
 10
945.52106841113391
 20
408.5948226042234
 11
945.52106856876412
 21
409.08955944602269
  0
LINE
  8
_2-7_ビス
  6
CONTINUOUS
 62
    7
 10
945.52106856325713
 20
394.98955945472346
 11
944.98222731325745
 21
394.98955945472346
  0
LINE
  8
_2-7_ビス
  6
CONTINUOUS
 62
    7
 10
944.98222731325745
 20
394.98955945472346
 11
944.98222731325745
 21
391.74131771988584
  0
LINE
  8
_2-7_ビス
  6
CONTINUOUS
 62
    7
 10
944.98222731325745
 20
391.74131771988584
 11
945.48801306325663
 21
388.22815595012287
  0
LINE
  8
_2-7_ビス
  6
CONTINUOUS
 62
    7
 10
945.48801306325663
 20
388.22815595012287
 11
945.48874758092074
 21
388.70560703426406
  0
LINE
  8
_2-7_ビス
  6
CONTINUOUS
 62
    7
 10
945.48874758092074
 20
388.70560703426406
 11
945.79743606325769
 21
388.7228927919233
  0
LINE
  8
_2-7_ビス
  6
CONTINUOUS
 62
    7
 10
945.48801306325663
 20
388.22815595012287
 11
945.92148987382393
 21
387.40359454712291
  0
LINE
  8
_2-7_ビス
  6
CONTINUOUS
 62
    7
 10
945.941992628045
 20
388.97026121282295
 11
945.49139029458479
 21
389.79482261582291
  0
LINE
  8
_2-7_ビス
  6
CONTINUOUS
 62
    7
 10
945.49139029458479
 20
389.79482261582291
 11
945.49347519884668
 21
390.27227369996297
  0
LINE
  8
_2-7_ビス
  6
CONTINUOUS
 62
    7
 10
945.49347519884668
 20
390.27227369996297
 11
945.81580206325702
 21
390.28955945762334
  0
LINE
  8
_2-7_ビス
  6
CONTINUOUS
 62
    7
 10
945.96430755907568
 20
390.53692787852299
 11
945.50043969975127
 21
391.36148889666913
  0
LINE
  8
_2-7_ビス
  6
CONTINUOUS
 62
    7
 10
945.50043969975127
 20
391.36148889666913
 11
945.50450254044767
 21
391.83894036566414
  0
LINE
  8
_2-7_ビス
  6
CONTINUOUS
 62
    7
 10
945.50450254044767
 20
391.83894036566414
 11
945.83915589571666
 21
391.85622612332338
  0
LINE
  8
_2-7_ビス
  6
CONTINUOUS
 62
    7
 10
945.99641051188405
 20
392.10359454422303
 11
945.51620788767855
 21
392.92815556236917
  0
LINE
  8
_2-7_ビス
  6
CONTINUOUS
 62
    7
 10
945.51620788767855
 20
392.92815556236917
 11
945.52106856325713
 21
393.40560750833163
  0
LINE
  8
_2-7_ビス
  6
CONTINUOUS
 62
    7
 10
945.52106856325713
 20
393.40560750833163
 11
945.86910081325732
 21
393.42289278902342
  0
LINE
  8
_2-7_ビス
  6
CONTINUOUS
 62
    7
 10
946.02869056297754
 20
393.67026120992307
 11
945.52106841113391
 21
394.49482261292303
  0
LINE
  8
_2-7_ビス
  6
CONTINUOUS
 62
    7
 10
945.52106841113391
 20
394.49482261292303
 11
945.52106856325713
 21
394.98955945472346
  0
LINE
  8
_2-7_ビス
  6
CONTINUOUS
 62
    7
 10
945.79158606325768
 20
387.15622612622326
 11
945.65722731325627
 21
387.15622612622326
  0
LINE
  8
_2-7_ビス
  6
CONTINUOUS
 62
    7
 10
945.65722731325627
 20
387.15622612622326
 11
945.65722731325627
 21
386.37289279337267
  0
LINE
  8
_2-7_ビス
  6
CONTINUOUS
 62
    7
 10
945.65722731325627
 20
386.37289279337267
 11
945.80722731325727
 21
386.37289279337267
  0
LINE
  8
_2-7_ビス
  6
CONTINUOUS
 62
    7
 10
945.80722731325727
 20
386.37289279337267
 11
945.80722731325727
 21
384.76499805752326
  0
LINE
  8
_2-7_ビス
  6
CONTINUOUS
 62
    7
 10
945.80722731325727
 20
384.76499805752326
 11
945.81369412405797
 21
384.76499805752326
  0
LINE
  8
_2-7_ビス
  6
CONTINUOUS
 62
    7
 10
945.86396931325658
 20
384.43517349632373
 11
945.8639694597955
 21
378.48473190350376
  0
LINE
  8
_2-7_ビス
  6
CONTINUOUS
 62
    7
 10
945.8639694597955
 20
378.48473190350376
 11
946.30440681325672
 21
377.8333110793443
  0
LINE
  8
_2-7_ビス
  6
CONTINUOUS
 62
    7
 10
946.30440681325672
 20
377.8333110793443
 11
947.30722731325704
 21
376.51938402752364
  0
LINE
  8
_2-7_ビス
  6
CONTINUOUS
 62
    7
 10
947.30722731325704
 20
376.51938402752364
 11
947.45660579275159
 21
376.51938402752364
  0
LINE
  8
_2-7_ビス
  6
CONTINUOUS
 62
    7
 10
947.45660579275159
 20
376.51938402752364
 11
946.37151168343712
 21
378.48473190350376
  0
LINE
  8
_2-7_ビス
  6
CONTINUOUS
 62
    7
 10
946.37151168343712
 20
378.48473190350376
 11
946.37151156325649
 21
382.45622612912314
  0
LINE
  8
_2-7_ビス
  6
CONTINUOUS
 62
    7
 10
946.9548750632564
 20
382.45622612912314
 11
946.95487478982477
 21
378.48473205620223
  0
LINE
  8
_2-7_ビス
  6
CONTINUOUS
 62
    7
 10
946.95487478982477
 20
378.48473205620223
 11
948.03996915505854
 21
376.51938402752364
  0
LINE
  8
_2-7_ビス
  6
CONTINUOUS
 62
    7
 10
948.03996915505854
 20
376.51938402752364
 11
948.65722731325695
 21
376.51938402752364
  0
LINE
  8
_2-7_ビス
  6
CONTINUOUS
 62
    7
 10
945.96033606325682
 20
409.08955944602269
 11
945.96033606325682
 21
409.08955944602269
  0
LINE
  8
_2-7_ビス
  6
CONTINUOUS
 62
    7
 10
945.96033606325682
 20
409.08955944602269
 11
945.98729451415738
 21
409.09421323073792
  0
LINE
  8
_2-7_ビス
  6
CONTINUOUS
 62
    7
 10
945.98729451415738
 20
409.09421323073792
 11
946.01310835917047
 21
409.10394299086784
  0
LINE
  8
_2-7_ビス
  6
CONTINUOUS
 62
    7
 10
946.01310835917047
 20
409.10394299086784
 11
946.03699325767786
 21
409.11845309257438
  0
LINE
  8
_2-7_ビス
  6
CONTINUOUS
 62
    7
 10
946.03699325767786
 20
409.11845309257438
 11
946.05822347912465
 21
409.13730265375972
  0
LINE
  8
_2-7_ビス
  6
CONTINUOUS
 62
    7
 10
946.05822347912465
 20
409.13730265375972
 11
946.07615395397522
 21
409.15991894004549
  0
LINE
  8
_2-7_ビス
  6
CONTINUOUS
 62
    7
 10
946.07615395397522
 20
409.15991894004549
 11
946.09023987382454
 21
409.18561476701734
  0
LINE
  8
_2-7_ビス
  6
CONTINUOUS
 62
    7
 10
946.09023987382454
 20
409.18561476701734
 11
946.10005324512576
 21
409.21360937997542
  0
LINE
  8
_2-7_ビス
  6
CONTINUOUS
 62
    7
 10
946.10005324512576
 20
409.21360937997542
 11
946.1052958935577
 21
409.24305217677102
  0
LINE
  8
_2-7_ビス
  6
CONTINUOUS
 62
    7
 10
946.1052958935577
 20
409.24305217677102
 11
946.10580852390069
 21
409.27304855292221
  0
LINE
  8
_2-7_ビス
  6
CONTINUOUS
 62
    7
 10
946.10580852390069
 20
409.27304855292221
 11
946.1015755601411
 21
409.30268708371858
  0
LINE
  8
_2-7_ビス
  6
CONTINUOUS
 62
    7
 10
946.1015755601411
 20
409.30268708371858
 11
946.09272561874093
 21
409.33106721739966
  0
LINE
  8
_2-7_ビス
  6
CONTINUOUS
 62
    7
 10
946.09272561874093
 20
409.33106721739966
 11
946.07952760069111
 21
409.35732663796466
  0
LINE
  8
_2-7_ビス
  6
CONTINUOUS
 62
    7
 10
946.07952760069111
 20
409.35732663796466
 11
946.07952720817377
 21
409.35732727958884
  0
LINE
  8
_2-7_ビス
  6
CONTINUOUS
 62
    7
 10
945.86910081325755
 20
407.52289278032316
 11
945.86910081325755
 21
407.52289278032316
  0
LINE
  8
_2-7_ビス
  6
CONTINUOUS
 62
    7
 10
945.86910081325755
 20
407.52289278032316
 11
945.90362404159259
 21
407.53540633058219
  0
LINE
  8
_2-7_ビス
  6
CONTINUOUS
 62
    7
 10
945.90362404159259
 20
407.53540633058219
 11
945.9356463199457
 21
407.55432065136034
  0
LINE
  8
_2-7_ビス
  6
CONTINUOUS
 62
    7
 10
945.9356463199457
 20
407.55432065136034
 11
945.96419466759323
 21
407.57906104059174
  0
LINE
  8
_2-7_ビス
  6
CONTINUOUS
 62
    7
 10
945.96419466759323
 20
407.57906104059174
 11
945.98840165743809
 21
407.60887577406896
  0
LINE
  8
_2-7_ビス
  6
CONTINUOUS
 62
    7
 10
945.98840165743809
 20
407.60887577406896
 11
946.0075317723431
 21
407.64285894620218
  0
LINE
  8
_2-7_ビス
  6
CONTINUOUS
 62
    7
 10
946.0075317723431
 20
407.64285894620218
 11
946.0210037534473
 21
407.6799779955025
  0
LINE
  8
_2-7_ビス
  6
CONTINUOUS
 62
    7
 10
946.0210037534473
 20
407.6799779955025
 11
946.02840826142199
 21
407.71910507844007
  0
LINE
  8
_2-7_ビス
  6
CONTINUOUS
 62
    7
 10
946.02840826142199
 20
407.71910507844007
 11
946.02952031403902
 21
407.7590513383991
  0
LINE
  8
_2-7_ビス
  6
CONTINUOUS
 62
    7
 10
946.02952031403902
 20
407.7590513383991
 11
946.02869056297823
 21
407.77026120122315
  0
LINE
  8
_2-7_ビス
  6
CONTINUOUS
 62
    7
 10
945.86910081325755
 20
405.95622611462312
 11
945.86910081325755
 21
405.95622611462312
  0
LINE
  8
_2-7_ビス
  6
CONTINUOUS
 62
    7
 10
945.86910081325755
 20
405.95622611462312
 11
945.90362404159259
 21
405.96873966488215
  0
LINE
  8
_2-7_ビス
  6
CONTINUOUS
 62
    7
 10
945.90362404159259
 20
405.96873966488215
 11
945.9356463199457
 21
405.9876539856603
  0
LINE
  8
_2-7_ビス
  6
CONTINUOUS
 62
    7
 10
945.9356463199457
 20
405.9876539856603
 11
945.96419466759323
 21
406.0123943748917
  0
LINE
  8
_2-7_ビス
  6
CONTINUOUS
 62
    7
 10
945.96419466759323
 20
406.0123943748917
 11
945.98840165743809
 21
406.04220910836892
  0
LINE
  8
_2-7_ビス
  6
CONTINUOUS
 62
    7
 10
945.98840165743809
 20
406.04220910836892
 11
946.0075317723431
 21
406.07619228050214
  0
LINE
  8
_2-7_ビス
  6
CONTINUOUS
 62
    7
 10
946.0075317723431
 20
406.07619228050214
 11
946.0210037534473
 21
406.11331132980246
  0
LINE
  8
_2-7_ビス
  6
CONTINUOUS
 62
    7
 10
946.0210037534473
 20
406.11331132980246
 11
946.02840826142199
 21
406.15243841274003
  0
LINE
  8
_2-7_ビス
  6
CONTINUOUS
 62
    7
 10
946.02840826142199
 20
406.15243841274003
 11
946.02952031403902
 21
406.19238467269906
  0
LINE
  8
_2-7_ビス
  6
CONTINUOUS
 62
    7
 10
946.02952031403902
 20
406.19238467269906
 11
946.02869056297823
 21
406.20359453552311
  0
LINE
  8
_2-7_ビス
  6
CONTINUOUS
 62
    7
 10
945.81211395385594
 20
404.38955944892308
 11
945.81211395385594
 21
404.38955944892308
  0
LINE
  8
_2-7_ビス
  6
CONTINUOUS
 62
    7
 10
945.81211395385594
 20
404.38955944892308
 11
945.84663718219099
 21
404.40207299918211
  0
LINE
  8
_2-7_ビス
  6
CONTINUOUS
 62
    7
 10
945.84663718219099
 20
404.40207299918211
 11
945.8786594605441
 21
404.42098731996026
  0
LINE
  8
_2-7_ビス
  6
CONTINUOUS
 62
    7
 10
945.8786594605441
 20
404.42098731996026
 11
945.90720780819163
 21
404.44572770919166
  0
LINE
  8
_2-7_ビス
  6
CONTINUOUS
 62
    7
 10
945.90720780819163
 20
404.44572770919166
 11
945.93141479803649
 21
404.47554244266888
  0
LINE
  8
_2-7_ビス
  6
CONTINUOUS
 62
    7
 10
945.93141479803649
 20
404.47554244266888
 11
945.9505449129415
 21
404.5095256148021
  0
LINE
  8
_2-7_ビス
  6
CONTINUOUS
 62
    7
 10
945.9505449129415
 20
404.5095256148021
 11
945.9640168940457
 21
404.54664466410242
  0
LINE
  8
_2-7_ビス
  6
CONTINUOUS
 62
    7
 10
945.9640168940457
 20
404.54664466410242
 11
945.97142140202038
 21
404.58577174703998
  0
LINE
  8
_2-7_ビス
  6
CONTINUOUS
 62
    7
 10
945.97142140202038
 20
404.58577174703998
 11
945.97253345463741
 21
404.62571800699902
  0
LINE
  8
_2-7_ビス
  6
CONTINUOUS
 62
    7
 10
945.97253345463741
 20
404.62571800699902
 11
945.97170370357662
 21
404.63692786982307
  0
LINE
  8
_2-7_ビス
  6
CONTINUOUS
 62
    7
 10
945.86910081325755
 20
401.256226117523
 11
945.86910081325755
 21
401.256226117523
  0
LINE
  8
_2-7_ビス
  6
CONTINUOUS
 62
    7
 10
945.86910081325755
 20
401.256226117523
 11
945.90362404159259
 21
401.26873966778203
  0
LINE
  8
_2-7_ビス
  6
CONTINUOUS
 62
    7
 10
945.90362404159259
 20
401.26873966778203
 11
945.9356463199457
 21
401.28765398856018
  0
LINE
  8
_2-7_ビス
  6
CONTINUOUS
 62
    7
 10
945.9356463199457
 20
401.28765398856018
 11
945.96419466759323
 21
401.31239437779158
  0
LINE
  8
_2-7_ビス
  6
CONTINUOUS
 62
    7
 10
945.96419466759323
 20
401.31239437779158
 11
945.98840165743809
 21
401.3422091112688
  0
LINE
  8
_2-7_ビス
  6
CONTINUOUS
 62
    7
 10
945.98840165743809
 20
401.3422091112688
 11
946.0075317723431
 21
401.37619228340202
  0
LINE
  8
_2-7_ビス
  6
CONTINUOUS
 62
    7
 10
946.0075317723431
 20
401.37619228340202
 11
946.0210037534473
 21
401.41331133270234
  0
LINE
  8
_2-7_ビス
  6
CONTINUOUS
 62
    7
 10
946.0210037534473
 20
401.41331133270234
 11
946.02840826142199
 21
401.4524384156399
  0
LINE
  8
_2-7_ビス
  6
CONTINUOUS
 62
    7
 10
946.02840826142199
 20
401.4524384156399
 11
946.02952031403902
 21
401.49238467559894
  0
LINE
  8
_2-7_ビス
  6
CONTINUOUS
 62
    7
 10
946.02952031403902
 20
401.49238467559894
 11
946.02869056297823
 21
401.50359453842299
  0
LINE
  8
_2-7_ビス
  6
CONTINUOUS
 62
    7
 10
945.86910081325755
 20
399.68955945182296
 11
945.86910081325755
 21
399.68955945182296
  0
LINE
  8
_2-7_ビス
  6
CONTINUOUS
 62
    7
 10
945.86910081325755
 20
399.68955945182296
 11
945.90362404159259
 21
399.70207300208199
  0
LINE
  8
_2-7_ビス
  6
CONTINUOUS
 62
    7
 10
945.90362404159259
 20
399.70207300208199
 11
945.9356463199457
 21
399.72098732286014
  0
LINE
  8
_2-7_ビス
  6
CONTINUOUS
 62
    7
 10
945.9356463199457
 20
399.72098732286014
 11
945.96419466759323
 21
399.74572771209154
  0
LINE
  8
_2-7_ビス
  6
CONTINUOUS
 62
    7
 10
945.96419466759323
 20
399.74572771209154
 11
945.98840165743809
 21
399.77554244556876
  0
LINE
  8
_2-7_ビス
  6
CONTINUOUS
 62
    7
 10
945.98840165743809
 20
399.77554244556876
 11
946.0075317723431
 21
399.80952561770198
  0
LINE
  8
_2-7_ビス
  6
CONTINUOUS
 62
    7
 10
946.0075317723431
 20
399.80952561770198
 11
946.0210037534473
 21
399.84664466700229
  0
LINE
  8
_2-7_ビス
  6
CONTINUOUS
 62
    7
 10
946.0210037534473
 20
399.84664466700229
 11
946.02840826142199
 21
399.88577174993986
  0
LINE
  8
_2-7_ビス
  6
CONTINUOUS
 62
    7
 10
946.02840826142199
 20
399.88577174993986
 11
946.02952031403902
 21
399.9257180098989
  0
LINE
  8
_2-7_ビス
  6
CONTINUOUS
 62
    7
 10
946.02952031403902
 20
399.9257180098989
 11
946.02869056297823
 21
399.93692787272295
  0
LINE
  8
_2-7_ビス
  6
CONTINUOUS
 62
    7
 10
945.86910081325755
 20
398.12289278612292
 11
945.86910081325755
 21
398.12289278612292
  0
LINE
  8
_2-7_ビス
  6
CONTINUOUS
 62
    7
 10
945.86910081325755
 20
398.12289278612292
 11
945.90362404159259
 21
398.13540633638195
  0
LINE
  8
_2-7_ビス
  6
CONTINUOUS
 62
    7
 10
945.90362404159259
 20
398.13540633638195
 11
945.9356463199457
 21
398.1543206571601
  0
LINE
  8
_2-7_ビス
  6
CONTINUOUS
 62
    7
 10
945.9356463199457
 20
398.1543206571601
 11
945.96419466759323
 21
398.1790610463915
  0
LINE
  8
_2-7_ビス
  6
CONTINUOUS
 62
    7
 10
945.96419466759323
 20
398.1790610463915
 11
945.98840165743809
 21
398.20887577986872
  0
LINE
  8
_2-7_ビス
  6
CONTINUOUS
 62
    7
 10
945.98840165743809
 20
398.20887577986872
 11
946.0075317723431
 21
398.24285895200194
  0
LINE
  8
_2-7_ビス
  6
CONTINUOUS
 62
    7
 10
946.0075317723431
 20
398.24285895200194
 11
946.0210037534473
 21
398.27997800130225
  0
LINE
  8
_2-7_ビス
  6
CONTINUOUS
 62
    7
 10
946.0210037534473
 20
398.27997800130225
 11
946.02840826142199
 21
398.31910508423982
  0
LINE
  8
_2-7_ビス
  6
CONTINUOUS
 62
    7
 10
946.02840826142199
 20
398.31910508423982
 11
946.02952031403902
 21
398.35905134419886
  0
LINE
  8
_2-7_ビス
  6
CONTINUOUS
 62
    7
 10
946.02952031403902
 20
398.35905134419886
 11
946.02869056297823
 21
398.37026120702291
  0
LINE
  8
_2-7_ビス
  6
CONTINUOUS
 62
    7
 10
945.81182124168322
 20
396.55622612042288
 11
945.81182124168322
 21
396.55622612042288
  0
LINE
  8
_2-7_ビス
  6
CONTINUOUS
 62
    7
 10
945.81182124168322
 20
396.55622612042288
 11
945.84634447001827
 21
396.56873967068191
  0
LINE
  8
_2-7_ビス
  6
CONTINUOUS
 62
    7
 10
945.84634447001827
 20
396.56873967068191
 11
945.87836674837138
 21
396.58765399146006
  0
LINE
  8
_2-7_ビス
  6
CONTINUOUS
 62
    7
 10
945.87836674837138
 20
396.58765399146006
 11
945.90691509601891
 21
396.61239438069146
  0
LINE
  8
_2-7_ビス
  6
CONTINUOUS
 62
    7
 10
945.90691509601891
 20
396.61239438069146
 11
945.93112208586376
 21
396.64220911416868
  0
LINE
  8
_2-7_ビス
  6
CONTINUOUS
 62
    7
 10
945.93112208586376
 20
396.64220911416868
 11
945.95025220076877
 21
396.6761922863019
  0
LINE
  8
_2-7_ビス
  6
CONTINUOUS
 62
    7
 10
945.95025220076877
 20
396.6761922863019
 11
945.96372418187298
 21
396.71331133560221
  0
LINE
  8
_2-7_ビス
  6
CONTINUOUS
 62
    7
 10
945.96372418187298
 20
396.71331133560221
 11
945.97112868984766
 21
396.75243841853978
  0
LINE
  8
_2-7_ビス
  6
CONTINUOUS
 62
    7
 10
945.97112868984766
 20
396.75243841853978
 11
945.97224074246469
 21
396.79238467849882
  0
LINE
  8
_2-7_ビス
  6
CONTINUOUS
 62
    7
 10
945.97224074246469
 20
396.79238467849882
 11
945.9714109914039
 21
396.80359454132287
  0
LINE
  8
_2-7_ビス
  6
CONTINUOUS
 62
    7
 10
945.86910081325755
 20
393.4228927890228
 11
945.86910081325755
 21
393.4228927890228
  0
LINE
  8
_2-7_ビス
  6
CONTINUOUS
 62
    7
 10
945.86910081325755
 20
393.4228927890228
 11
945.90362404159259
 21
393.43540633928183
  0
LINE
  8
_2-7_ビス
  6
CONTINUOUS
 62
    7
 10
945.90362404159259
 20
393.43540633928183
 11
945.9356463199457
 21
393.45432066005998
  0
LINE
  8
_2-7_ビス
  6
CONTINUOUS
 62
    7
 10
945.9356463199457
 20
393.45432066005998
 11
945.96419466759323
 21
393.47906104929137
  0
LINE
  8
_2-7_ビス
  6
CONTINUOUS
 62
    7
 10
945.96419466759323
 20
393.47906104929137
 11
945.98840165743809
 21
393.5088757827686
  0
LINE
  8
_2-7_ビス
  6
CONTINUOUS
 62
    7
 10
945.98840165743809
 20
393.5088757827686
 11
946.0075317723431
 21
393.54285895490182
  0
LINE
  8
_2-7_ビス
  6
CONTINUOUS
 62
    7
 10
946.0075317723431
 20
393.54285895490182
 11
946.0210037534473
 21
393.57997800420213
  0
LINE
  8
_2-7_ビス
  6
CONTINUOUS
 62
    7
 10
946.0210037534473
 20
393.57997800420213
 11
946.02840826142199
 21
393.6191050871397
  0
LINE
  8
_2-7_ビス
  6
CONTINUOUS
 62
    7
 10
946.02840826142199
 20
393.6191050871397
 11
946.02952031403902
 21
393.65905134709874
  0
LINE
  8
_2-7_ビス
  6
CONTINUOUS
 62
    7
 10
946.02952031403902
 20
393.65905134709874
 11
946.02869056297823
 21
393.67026120992278
  0
LINE
  8
_2-7_ビス
  6
CONTINUOUS
 62
    7
 10
945.83682076216292
 20
391.85622612332276
 11
945.83682076216292
 21
391.85622612332276
  0
LINE
  8
_2-7_ビス
  6
CONTINUOUS
 62
    7
 10
945.83682076216292
 20
391.85622612332276
 11
945.87134399049796
 21
391.86873967358179
  0
LINE
  8
_2-7_ビス
  6
CONTINUOUS
 62
    7
 10
945.87134399049796
 20
391.86873967358179
 11
945.90336626885107
 21
391.88765399435994
  0
LINE
  8
_2-7_ビス
  6
CONTINUOUS
 62
    7
 10
945.90336626885107
 20
391.88765399435994
 11
945.9319146164986
 21
391.91239438359133
  0
LINE
  8
_2-7_ビス
  6
CONTINUOUS
 62
    7
 10
945.9319146164986
 20
391.91239438359133
 11
945.95612160634346
 21
391.94220911706856
  0
LINE
  8
_2-7_ビス
  6
CONTINUOUS
 62
    7
 10
945.95612160634346
 20
391.94220911706856
 11
945.97525172124847
 21
391.97619228920178
  0
LINE
  8
_2-7_ビス
  6
CONTINUOUS
 62
    7
 10
945.97525172124847
 20
391.97619228920178
 11
945.98872370235267
 21
392.01331133850209
  0
LINE
  8
_2-7_ビス
  6
CONTINUOUS
 62
    7
 10
945.98872370235267
 20
392.01331133850209
 11
945.99612821032736
 21
392.05243842143966
  0
LINE
  8
_2-7_ビス
  6
CONTINUOUS
 62
    7
 10
945.99612821032736
 20
392.05243842143966
 11
945.99724026294439
 21
392.0923846813987
  0
LINE
  8
_2-7_ビス
  6
CONTINUOUS
 62
    7
 10
945.99724026294439
 20
392.0923846813987
 11
945.9964105118836
 21
392.10359454422274
  0
LINE
  8
_2-7_ビス
  6
CONTINUOUS
 62
    7
 10
945.80471780935454
 20
390.28955945762272
 11
945.80471780935454
 21
390.28955945762272
  0
LINE
  8
_2-7_ビス
  6
CONTINUOUS
 62
    7
 10
945.80471780935454
 20
390.28955945762272
 11
945.83924103768959
 21
390.30207300788175
  0
LINE
  8
_2-7_ビス
  6
CONTINUOUS
 62
    7
 10
945.83924103768959
 20
390.30207300788175
 11
945.8712633160427
 21
390.3209873286599
  0
LINE
  8
_2-7_ビス
  6
CONTINUOUS
 62
    7
 10
945.8712633160427
 20
390.3209873286599
 11
945.89981166369023
 21
390.34572771789129
  0
LINE
  8
_2-7_ビス
  6
CONTINUOUS
 62
    7
 10
945.89981166369023
 20
390.34572771789129
 11
945.92401865353509
 21
390.37554245136852
  0
LINE
  8
_2-7_ビス
  6
CONTINUOUS
 62
    7
 10
945.92401865353509
 20
390.37554245136852
 11
945.9431487684401
 21
390.40952562350174
  0
LINE
  8
_2-7_ビス
  6
CONTINUOUS
 62
    7
 10
945.9431487684401
 20
390.40952562350174
 11
945.9566207495443
 21
390.44664467280205
  0
LINE
  8
_2-7_ビス
  6
CONTINUOUS
 62
    7
 10
945.9566207495443
 20
390.44664467280205
 11
945.96402525751898
 21
390.48577175573962
  0
LINE
  8
_2-7_ビス
  6
CONTINUOUS
 62
    7
 10
945.96402525751898
 20
390.48577175573962
 11
945.96513731013602
 21
390.52571801569866
  0
LINE
  8
_2-7_ビス
  6
CONTINUOUS
 62
    7
 10
945.96513731013602
 20
390.52571801569866
 11
945.96430755907522
 21
390.5369278785227
  0
LINE
  8
_2-7_ビス
  6
CONTINUOUS
 62
    7
 10
945.782402878325
 20
388.72289279192381
 11
945.782402878325
 21
388.72289279192381
  0
LINE
  8
_2-7_ビス
  6
CONTINUOUS
 62
    7
 10
945.782402878325
 20
388.72289279192381
 11
945.81692610666005
 21
388.73540634218284
  0
LINE
  8
_2-7_ビス
  6
CONTINUOUS
 62
    7
 10
945.81692610666005
 20
388.73540634218284
 11
945.84894838501316
 21
388.75432066296099
  0
LINE
  8
_2-7_ビス
  6
CONTINUOUS
 62
    7
 10
945.84894838501316
 20
388.75432066296099
 11
945.87749673266069
 21
388.77906105219239
  0
LINE
  8
_2-7_ビス
  6
CONTINUOUS
 62
    7
 10
945.87749673266069
 20
388.77906105219239
 11
945.90170372250554
 21
388.80887578566961
  0
LINE
  8
_2-7_ビス
  6
CONTINUOUS
 62
    7
 10
945.90170372250554
 20
388.80887578566961
 11
945.92083383741056
 21
388.84285895780283
  0
LINE
  8
_2-7_ビス
  6
CONTINUOUS
 62
    7
 10
945.92083383741056
 20
388.84285895780283
 11
945.93430581851476
 21
388.87997800710315
  0
LINE
  8
_2-7_ビス
  6
CONTINUOUS
 62
    7
 10
945.93430581851476
 20
388.87997800710315
 11
945.94171032648944
 21
388.91910509004072
  0
LINE
  8
_2-7_ビス
  6
CONTINUOUS
 62
    7
 10
945.94171032648944
 20
388.91910509004072
 11
945.94282237910647
 21
388.95905134999975
  0
LINE
  8
_2-7_ビス
  6
CONTINUOUS
 62
    7
 10
945.94282237910647
 20
388.95905134999975
 11
945.94199262804568
 21
388.9702612128238
  0
LINE
  8
_2-7_ビス
  6
CONTINUOUS
 62
    7
 10
945.791586063257
 20
387.1562261262236
 11
945.791586063257
 21
387.1562261262236
  0
LINE
  8
_2-7_ビス
  6
CONTINUOUS
 62
    7
 10
945.791586063257
 20
387.1562261262236
 11
945.81873199919596
 21
387.1613219450723
  0
LINE
  8
_2-7_ビス
  6
CONTINUOUS
 62
    7
 10
945.81873199919596
 20
387.1613219450723
 11
945.8446606634277
 21
387.17152281688391
  0
LINE
  8
_2-7_ビス
  6
CONTINUOUS
 62
    7
 10
945.8446606634277
 20
387.17152281688391
 11
945.86858422661021
 21
387.18651879333026
  0
LINE
  8
_2-7_ビス
  6
CONTINUOUS
 62
    7
 10
945.86858422661021
 20
387.18651879333026
 11
945.88977578338211
 21
387.20585422925535
  0
LINE
  8
_2-7_ビス
  6
CONTINUOUS
 62
    7
 10
945.88977578338211
 20
387.20585422925535
 11
945.90759143901414
 21
387.22894162722287
  0
LINE
  8
_2-7_ビス
  6
CONTINUOUS
 62
    7
 10
945.90759143901414
 20
387.22894162722287
 11
945.92148987382518
 21
387.25507948832831
  0
LINE
  8
_2-7_ビス
  6
CONTINUOUS
 62
    7
 10
945.92148987382518
 20
387.25507948832831
 11
945.93104879090652
 21
387.28347362688839
  0
LINE
  8
_2-7_ビス
  6
CONTINUOUS
 62
    7
 10
945.93104879090652
 20
387.28347362688839
 11
945.93597774739965
 21
387.31326130137114
  0
LINE
  8
_2-7_ビス
  6
CONTINUOUS
 62
    7
 10
945.93597774739965
 20
387.31326130137114
 11
945.93612697945559
 21
387.34353742836061
  0
LINE
  8
_2-7_ビス
  6
CONTINUOUS
 62
    7
 10
945.93612697945559
 20
387.34353742836061
 11
945.93149195273395
 21
387.37338208305869
  0
LINE
  8
_2-7_ビス
  6
CONTINUOUS
 62
    7
 10
945.93149195273395
 20
387.37338208305869
 11
945.92221350017621
 21
387.40188845073453
  0
LINE
  8
_2-7_ビス
  6
CONTINUOUS
 62
    7
 10
945.92221350017621
 20
387.40188845073453
 11
945.90857354286823
 21
387.42819037983122
  0
LINE
  8
_2-7_ビス
  6
CONTINUOUS
 62
    7
 10
945.90857354286823
 20
387.42819037983122
 11
945.90849004911115
 21
387.42832286809306
  0
LINE
  8
_2-7_ビス
  6
CONTINUOUS
 62
    7
 10
945.48847731325736
 20
394.98955945472329
 11
945.48847731325736
 21
394.98955945472329
  0
LINE
  8
_2-7_ビス
  6
CONTINUOUS
 62
    7
 10
945.48847731325736
 20
394.98955945472329
 11
945.57280314405102
 21
395.001819411371
  0
LINE
  8
_2-7_ビス
  6
CONTINUOUS
 62
    7
 10
945.57280314405102
 20
395.001819411371
 11
945.6539114655094
 21
395.02999187807808
  0
LINE
  8
_2-7_ビス
  6
CONTINUOUS
 62
    7
 10
945.6539114655094
 20
395.02999187807808
 11
945.72933784232748
 21
395.07322084869963
  0
LINE
  8
_2-7_ビス
  6
CONTINUOUS
 62
    7
 10
945.72933784232748
 20
395.07322084869963
 11
945.7967904822134
 21
395.13019283283813
  0
LINE
  8
_2-7_ビス
  6
CONTINUOUS
 62
    7
 10
945.7967904822134
 20
395.13019283283813
 11
945.8542198708368
 21
395.19917676558481
  0
LINE
  8
_2-7_ビス
  6
CONTINUOUS
 62
    7
 10
945.8542198708368
 20
395.19917676558481
 11
945.89988104528504
 21
395.27807660505073
  0
LINE
  8
_2-7_ビス
  6
CONTINUOUS
 62
    7
 10
945.89988104528504
 20
395.27807660505073
 11
945.93238661387829
 21
395.36449501953894
  0
LINE
  8
_2-7_ビス
  6
CONTINUOUS
 62
    7
 10
945.93238661387829
 20
395.36449501953894
 11
945.95074891136335
 21
395.45580622925502
  0
LINE
  8
_2-7_ビス
  6
CONTINUOUS
 62
    7
 10
945.95074891136335
 20
395.45580622925502
 11
945.95441000862297
 21
395.54923578929754
  0
LINE
  8
_2-7_ビス
  6
CONTINUOUS
 62
    7
 10
945.95441000862297
 20
395.54923578929754
 11
945.94325866506949
 21
395.6419448897621
  0
LINE
  8
_2-7_ビス
  6
CONTINUOUS
 62
    7
 10
945.94325866506949
 20
395.6419448897621
 11
945.91763370863396
 21
395.73111661154428
  0
LINE
  8
_2-7_ビス
  6
CONTINUOUS
 62
    7
 10
945.91763370863396
 20
395.73111661154428
 11
945.87831374065081
 21
395.8140415170007
  0
LINE
  8
_2-7_ビス
  6
CONTINUOUS
 62
    7
 10
945.87831374065081
 20
395.8140415170007
 11
945.82649347845029
 21
395.8881999748412
  0
LINE
  8
_2-7_ビス
  6
CONTINUOUS
 62
    7
 10
945.82649347845029
 20
395.8881999748412
 11
945.76374745447708
 21
395.95133871785021
  0
LINE
  8
_2-7_ビス
  6
CONTINUOUS
 62
    7
 10
945.76374745447708
 20
395.95133871785021
 11
945.69198217491851
 21
396.00153930727117
  0
LINE
  8
_2-7_ビス
  6
CONTINUOUS
 62
    7
 10
945.69198217491851
 20
396.00153930727117
 11
945.61337819147923
 21
396.03727642359723
  0
LINE
  8
_2-7_ビス
  6
CONTINUOUS
 62
    7
 10
945.61337819147923
 20
396.03727642359723
 11
945.53032384642017
 21
396.05746421263274
  0
LINE
  8
_2-7_ビス
  6
CONTINUOUS
 62
    7
 10
945.53032384642017
 20
396.05746421263274
 11
945.48847731325736
 21
396.06148927862324
  0
LINE
  8
_2-7_ビス
  6
CONTINUOUS
 62
    7
 10
945.48847731325736
 20
402.82289278322349
 11
945.48847731325736
 21
402.82289278322349
  0
LINE
  8
_2-7_ビス
  6
CONTINUOUS
 62
    7
 10
945.48847731325736
 20
402.82289278322349
 11
945.57280314405102
 21
402.83515273987121
  0
LINE
  8
_2-7_ビス
  6
CONTINUOUS
 62
    7
 10
945.57280314405102
 20
402.83515273987121
 11
945.6539114655094
 21
402.86332520657828
  0
LINE
  8
_2-7_ビス
  6
CONTINUOUS
 62
    7
 10
945.6539114655094
 20
402.86332520657828
 11
945.72933784232748
 21
402.90655417719984
  0
LINE
  8
_2-7_ビス
  6
CONTINUOUS
 62
    7
 10
945.72933784232748
 20
402.90655417719984
 11
945.7967904822134
 21
402.96352616133834
  0
LINE
  8
_2-7_ビス
  6
CONTINUOUS
 62
    7
 10
945.7967904822134
 20
402.96352616133834
 11
945.8542198708368
 21
403.03251009408501
  0
LINE
  8
_2-7_ビス
  6
CONTINUOUS
 62
    7
 10
945.8542198708368
 20
403.03251009408501
 11
945.89988104528504
 21
403.11140993355093
  0
LINE
  8
_2-7_ビス
  6
CONTINUOUS
 62
    7
 10
945.89988104528504
 20
403.11140993355093
 11
945.93238661387829
 21
403.19782834803914
  0
LINE
  8
_2-7_ビス
  6
CONTINUOUS
 62
    7
 10
945.93238661387829
 20
403.19782834803914
 11
945.95074891136335
 21
403.28913955775522
  0
LINE
  8
_2-7_ビス
  6
CONTINUOUS
 62
    7
 10
945.95074891136335
 20
403.28913955775522
 11
945.95441000862297
 21
403.38256911779774
  0
LINE
  8
_2-7_ビス
  6
CONTINUOUS
 62
    7
 10
945.95441000862297
 20
403.38256911779774
 11
945.94325866506949
 21
403.4752782182623
  0
LINE
  8
_2-7_ビス
  6
CONTINUOUS
 62
    7
 10
945.94325866506949
 20
403.4752782182623
 11
945.91763370863396
 21
403.56444994004448
  0
LINE
  8
_2-7_ビス
  6
CONTINUOUS
 62
    7
 10
945.91763370863396
 20
403.56444994004448
 11
945.87831374065081
 21
403.64737484550091
  0
LINE
  8
_2-7_ビス
  6
CONTINUOUS
 62
    7
 10
945.87831374065081
 20
403.64737484550091
 11
945.82649347845029
 21
403.7215333033414
  0
LINE
  8
_2-7_ビス
  6
CONTINUOUS
 62
    7
 10
945.82649347845029
 20
403.7215333033414
 11
945.76374745447708
 21
403.78467204635041
  0
LINE
  8
_2-7_ビス
  6
CONTINUOUS
 62
    7
 10
945.76374745447708
 20
403.78467204635041
 11
945.69198217491851
 21
403.83487263577138
  0
LINE
  8
_2-7_ビス
  6
CONTINUOUS
 62
    7
 10
945.69198217491851
 20
403.83487263577138
 11
945.61337819147923
 21
403.87060975209744
  0
LINE
  8
_2-7_ビス
  6
CONTINUOUS
 62
    7
 10
945.61337819147923
 20
403.87060975209744
 11
945.53032384642017
 21
403.89079754113294
  0
LINE
  8
_2-7_ビス
  6
CONTINUOUS
 62
    7
 10
945.53032384642017
 20
403.89079754113294
 11
945.48847731325736
 21
403.89482260712344
  0
LINE
  8
_2-7_ビス
  6
CONTINUOUS
 62
    7
 10
945.86396945714682
 20
384.43517349632293
 11
945.86396945714682
 21
384.43517349632293
  0
LINE
  8
_2-7_ビス
  6
CONTINUOUS
 62
    7
 10
945.86396945714682
 20
384.43517349632293
 11
945.8585655327206
 21
384.57442911823819
  0
LINE
  8
_2-7_ビス
  6
CONTINUOUS
 62
    7
 10
945.8585655327206
 20
384.57442911823819
 11
945.83124884470124
 21
384.71053746332097
  0
LINE
  8
_2-7_ビス
  6
CONTINUOUS
 62
    7
 10
945.83124884470124
 20
384.71053746332097
 11
945.81369412405866
 21
384.76499805752292
  0
LINE
  8
_2-7_ビス
  6
CONTINUOUS
 62
    7
 10
946.9548750632564
 20
382.43584603877059
 11
946.9548750632564
 21
382.43584603877059
  0
LINE
  8
_2-7_ビス
  6
CONTINUOUS
 62
    7
 10
946.9548750632564
 20
382.43584603877059
 11
946.95205323842367
 21
382.49168623331457
  0
LINE
  8
_2-7_ビス
  6
CONTINUOUS
 62
    7
 10
946.95205323842367
 20
382.49168623331457
 11
946.94045455093487
 21
382.54613937117017
  0
LINE
  8
_2-7_ビス
  6
CONTINUOUS
 62
    7
 10
946.94045455093487
 20
382.54613937117017
 11
946.92043142104012
 21
382.59755092129814
  0
LINE
  8
_2-7_ビス
  6
CONTINUOUS
 62
    7
 10
946.92043142104012
 20
382.59755092129814
 11
946.89259224140915
 21
382.64435876976347
  0
LINE
  8
_2-7_ビス
  6
CONTINUOUS
 62
    7
 10
946.89259224140915
 20
382.64435876976347
 11
946.85778289142775
 21
382.68514068377635
  0
LINE
  8
_2-7_ビス
  6
CONTINUOUS
 62
    7
 10
946.85778289142775
 20
382.68514068377635
 11
946.81706103558065
 21
382.71865752551616
  0
LINE
  8
_2-7_ビス
  6
CONTINUOUS
 62
    7
 10
946.81706103558065
 20
382.71865752551616
 11
946.77166398685165
 21
382.74389090270705
  0
LINE
  8
_2-7_ビス
  6
CONTINUOUS
 62
    7
 10
946.77166398685165
 20
382.74389090270705
 11
946.72297111159412
 21
382.76007411195167
  0
LINE
  8
_2-7_ビス
  6
CONTINUOUS
 62
    7
 10
946.72297111159412
 20
382.76007411195167
 11
946.67246191818322
 21
382.76671543462629
  0
LINE
  8
_2-7_ビス
  6
CONTINUOUS
 62
    7
 10
946.67246191818322
 20
382.76671543462629
 11
946.62167110290181
 21
382.7636130775021
  0
LINE
  8
_2-7_ビス
  6
CONTINUOUS
 62
    7
 10
946.62167110290181
 20
382.7636130775021
 11
946.57214191897071
 21
382.75086130413047
  0
LINE
  8
_2-7_ビス
  6
CONTINUOUS
 62
    7
 10
946.57214191897071
 20
382.75086130413047
 11
946.5253792855807
 21
382.72884757069255
  0
LINE
  8
_2-7_ビス
  6
CONTINUOUS
 62
    7
 10
946.5253792855807
 20
382.72884757069255
 11
946.48280406168442
 21
382.69824075333941
  0
LINE
  8
_2-7_ビス
  6
CONTINUOUS
 62
    7
 10
946.48280406168442
 20
382.69824075333941
 11
946.4457098739158
 21
382.65997082472848
  0
LINE
  8
_2-7_ビス
  6
CONTINUOUS
 62
    7
 10
946.4457098739158
 20
382.65997082472848
 11
946.41522381039954
 21
382.61520059727513
  0
LINE
  8
_2-7_ビス
  6
CONTINUOUS
 62
    7
 10
946.41522381039954
 20
382.61520059727513
 11
946.392272174749
 21
382.56529039168566
  0
LINE
  8
_2-7_ビス
  6
CONTINUOUS
 62
    7
 10
946.392272174749
 20
382.56529039168566
 11
946.3775523407993
 21
382.51175670430115
  0
LINE
  8
_2-7_ビス
  6
CONTINUOUS
 62
    7
 10
946.3775523407993
 20
382.51175670430115
 11
946.37151156325649
 21
382.45622612912337
  0
LINE
  8
_2-7_ビス
  6
CONTINUOUS
 62
    7
 10
946.37151156325649
 20
382.45622612912337
 11
946.37151156325649
 21
382.45622612912331
  0
LINE
  8
_2-2_in_line
  6
CONTINUOUS
 62
    7
 10
968.67830198663694
 20
472.01938399852509
 11
974.74047981313231
 21
468.51938399852372
  0
LINE
  8
_2-4_out_line
  6
CONTINUOUS
 62
    2
 10
976.08022577528925
 20
473.51938399852372
 11
1016.0749850316197
 21
473.51938399852372
  0
LINE
  8
_2-4_out_line
  6
CONTINUOUS
 62
    2
 10
970.01804794879843
 20
477.01938399852281
 11
976.08022577528925
 21
473.51938399852372
  0
LINE
  8
_2-4_out_line
  6
CONTINUOUS
 62
    2
 10
880.19227853696498
 20
477.01938399852281
 11
970.01804794879843
 21
477.01938399852281
  0
LINE
  8
_2-2_in_line
  6
CONTINUOUS
 62
    7
 10
950.65722731325627
 20
463.51938399852372
 11
1366.7114805369656
 21
463.51938399852372
  0
LINE
  8
_2-d_ハッチ他
  6
CONTINUOUS
 62
    4
 10
950.65722731325627
 20
457.34773357376127
 11
956.82887773801986
 21
463.51938399852372
  0
LINE
  8
_2-2_in_line
  6
CONTINUOUS
 62
    7
 10
950.65722731325627
 20
453.51938399852372
 11
1366.7114805369656
 21
453.51938399852372
  0
LINE
  8
_2-d_ハッチ他
  6
CONTINUOUS
 62
    4
 10
950.65722731325627
 20
429.69715799301923
 11
956.83500130775178
 21
423.51938399852372
  0
LINE
  8
_2-d_ハッチ他
  6
CONTINUOUS
 62
    4
 10
950.65722731325627
 20
426.41838760042504
 11
977.75822371135496
 21
453.51938399852372
  0
LINE
  8
_2-d_ハッチ他
  6
CONTINUOUS
 62
    4
 10
926.83500130775292
 20
453.51938399852372
 11
946.6572273132565
 21
433.69715799301787
  0
LINE
  8
_2-d_ハッチ他
  6
CONTINUOUS
 62
    4
 10
919.47395246388828
 20
423.51938399852372
 11
946.6572273132565
 21
450.7026588478908
  0
LINE
  8
_2-2_in_line
  6
CONTINUOUS
 62
    7
 10
866.71148053696561
 20
463.51938399852372
 11
946.6572273132565
 21
463.51938399852372
  0
LINE
  8
_2-2_in_line
  6
CONTINUOUS
 62
    7
 10
866.71148053696561
 20
453.51938399852372
 11
946.6572273132565
 21
453.51938399852372
  0
LINE
  8
_2-2_in_line
  6
CONTINUOUS
 62
    7
 10
869.06771867017369
 20
495.00534863484802
 11
866.71148053696561
 21
503.79894906271545
  0
LINE
  8
_2-4_out_line
  6
CONTINUOUS
 62
    2
 10
874.28102342714146
 20
494.86754693228875
 11
875.22304074322938
 21
482.31197162321962
  0
LINE
  8
_2-4_out_line
  6
CONTINUOUS
 62
    2
 10
874.28102342714146
 20
494.86754693228875
 11
871.71148053696561
 21
504.457211550652
  0
LINE
  8
_2-4_out_line
  6
CONTINUOUS
 62
    2
 10
871.71148053696561
 20
504.457211550652
 11
871.71148053696561
 21
673.51938399852372
  0
LINE
  8
_2-d_ハッチ他
  6
CONTINUOUS
 62
    4
 10
866.71148053696447
 20
278.01056049467263
 11
871.20265703311452
 21
273.51938399852372
  0
LINE
  8
_2-d_ハッチ他
  6
CONTINUOUS
 62
    4
 10
866.71148053696561
 20
292.15269611840597
 11
885.34479265684672
 21
273.51938399852372
  0
LINE
  8
_2-d_ハッチ他
  6
CONTINUOUS
 62
    4
 10
866.71148053696447
 20
412.65786107331053
 11
877.57300346218108
 21
423.519383998526
  0
LINE
  8
_2-3_
  6
CONTINUOUS
 62
    3
 10
866.71148053696561
 20
273.51938399852372
 11
866.71148053696561
 21
223.51938399852372
  0
LINE
  8
_2-5_金属
  6
CONTINUOUS
 62
    3
 10
976.71148053696561
 20
273.51938399852372
 11
976.71148053696561
 21
266.51938399852327
  0
LINE
  8
_2-5_金属
  6
CONTINUOUS
 62
    3
 10
876.71148053696561
 20
273.51938399852372
 11
876.71148053696561
 21
266.51938399852327
  0
LINE
  8
_2-5_金属
  6
CONTINUOUS
 62
    3
 10
939.98648053696547
 20
266.4443839985239
 11
976.71148053696561
 21
266.51938399852327
  0
ARC
  8
_2-5_金属
  6
CONTINUOUS
 62
    3
 10
939.98648053696547
 20
255.44438399852481
 40
11
 50
90
 51
180
  0
ARC
  8
_2-5_金属
  6
CONTINUOUS
 62
    3
 10
913.43648053696575
 20
255.51938399852418
 40
11
 50
0
 51
90
  0
LINE
  8
_2-5_金属
  6
CONTINUOUS
 62
    3
 10
913.43648053696575
 20
266.51938399852327
 11
876.71148053696561
 21
266.51938399852327
  0
LINE
  8
_2-5_金属
  6
CONTINUOUS
 62
    3
 10
876.71148053696561
 20
273.51938399852372
 11
976.71148053696561
 21
273.51938399852372
  0
LINE
  8
_2-d_ハッチ他
  6
CONTINUOUS
 62
    4
 10
968.24362220117087
 20
266.50209089096336
 11
975.2609153087335
 21
273.51938399852372
  0
LINE
  8
_2-d_ハッチ他
  6
CONTINUOUS
 62
    4
 10
924.43648053696711
 20
229.766017038624
 11
928.98648053696638
 21
234.31601703862327
  0
LINE
  8
_2-d_ハッチ他
  6
CONTINUOUS
 62
    4
 10
961.15808426417834
 20
266.48762076583637
 11
968.18984749686456
 21
273.51938399852372
  0
LINE
  8
_2-d_ハッチ他
  6
CONTINUOUS
 62
    4
 10
924.43648053696711
 20
250.97922047421491
 11
928.98681023632639
 21
255.52955017357419
  0
LINE
  8
_2-d_ハッチ他
  6
CONTINUOUS
 62
    4
 10
939.90131436190245
 20
266.44405429915025
 11
946.97664406127592
 21
273.51938399852372
  0
LINE
  8
_2-d_ハッチ他
  6
CONTINUOUS
 62
    4
 10
924.19549039808066
 20
257.80929814719514
 11
939.90557624940925
 21
273.519383998526
  0
LINE
  8
_2-d_ハッチ他
  6
CONTINUOUS
 62
    4
 10
911.69237281380879
 20
266.51938399852327
 11
918.69237281381038
 21
273.519383998526
  0
LINE
  8
_2-d_ハッチ他
  6
CONTINUOUS
 62
    4
 10
904.62130500195349
 20
266.51938399852554
 11
911.62130500194939
 21
273.51938399852372
  0
LINE
  8
_2-d_ハッチ他
  6
CONTINUOUS
 62
    4
 10
883.40810156635234
 20
266.51938399852554
 11
890.40810156635166
 21
273.51938399852372
  0
LINE
  8
_2-d_ハッチ他
  6
CONTINUOUS
 62
    4
 10
876.71148053696447
 20
266.8938307810032
 11
883.33703375448499
 21
273.519383998526
  0
LINE
  8
_2-5_金属
  6
CONTINUOUS
 62
    3
 10
928.98648053696638
 20
223.51938399852372
 11
928.98648053696638
 21
255.44438399852481
  0
LINE
  8
_2-5_金属
  6
CONTINUOUS
 62
    3
 10
924.43648053696484
 20
255.51938399852418
 11
924.43648053696484
 21
223.51938399852372
  0
LINE
  8
_2-d_ハッチ他
  6
CONTINUOUS
 62
    4
 10
925.26091530873236
 20
223.51938399852372
 11
928.98648053696638
 21
227.24494922675888
  0
LINE
  8
_2-2_in_line
  6
CONTINUOUS
 62
    7
 10
906.71148053696561
 20
423.51938399852372
 11
906.71148053696561
 21
273.51938399852372
  0
LINE
  8
_2-d_ハッチ他
  6
CONTINUOUS
 62
    4
 10
876.76614889415282
 20
423.51938399852372
 11
906.71148053696561
 21
393.57405235571434
  0
LINE
  8
_2-d_ハッチ他
  6
CONTINUOUS
 62
    4
 10
883.13649532321938
 20
273.519383998526
 11
906.71148053696561
 21
297.09436921226427
  0
LINE
  8
_2-d_ハッチ他
  6
CONTINUOUS
 62
    4
 10
866.71148053696447
 20
306.29483174214158
 11
906.71148053696561
 21
266.2948317421359
  0
LINE
  8
_2-d_ハッチ他
  6
CONTINUOUS
 62
    4
 10
866.71148053696675
 20
320.43696736586355
 11
906.71148053696561
 21
280.43696736586242
  0
LINE
  8
_2-d_ハッチ他
  6
CONTINUOUS
 62
    4
 10
866.71148053696561
 20
334.57910298959689
 11
906.71148053696561
 21
294.57910298959689
  0
LINE
  8
_2-d_ハッチ他
  6
CONTINUOUS
 62
    4
 10
866.71148053696447
 20
348.72123861333023
 11
906.71148053696561
 21
308.72123861332909
  0
LINE
  8
_2-d_ハッチ他
  6
CONTINUOUS
 62
    4
 10
866.71148053696447
 20
362.86337423706357
 11
906.71148053696561
 21
322.86337423706698
  0
LINE
  8
_2-d_ハッチ他
  6
CONTINUOUS
 62
    4
 10
866.71148053696561
 20
377.00550986078781
 11
906.71148053696561
 21
337.00550986078781
  0
LINE
  8
_2-d_ハッチ他
  6
CONTINUOUS
 62
    4
 10
866.71148053696561
 20
391.14764548452115
 11
906.71148053696561
 21
351.14764548451888
  0
LINE
  8
_2-d_ハッチ他
  6
CONTINUOUS
 62
    4
 10
866.71148053696447
 20
405.28978110825449
 11
906.71148053696561
 21
365.28978110825562
  0
LINE
  8
_2-d_ハッチ他
  6
CONTINUOUS
 62
    4
 10
866.71148053696334
 20
419.4319167319901
 11
906.71148053696561
 21
379.43191673198783
  0
LINE
  8
_2-d_ハッチ他
  6
CONTINUOUS
 62
    4
 10
868.99435969949741
 20
273.519383998526
 11
906.71148053696561
 21
311.23650483599647
  0
LINE
  8
_2-d_ハッチ他
  6
CONTINUOUS
 62
    4
 10
866.71148053696788
 20
285.37864045973095
 11
906.71148053696561
 21
325.37864045973095
  0
LINE
  8
_2-d_ハッチ他
  6
CONTINUOUS
 62
    4
 10
866.71148053696561
 20
299.52077608346201
 11
906.71148053696561
 21
339.52077608346201
  0
LINE
  8
_2-d_ハッチ他
  6
CONTINUOUS
 62
    4
 10
866.71148053696447
 20
313.66291170718625
 11
906.71148053696561
 21
353.66291170718739
  0
LINE
  8
_2-d_ハッチ他
  6
CONTINUOUS
 62
    4
 10
866.71148053696334
 20
327.80504733091732
 11
906.71148053696561
 21
367.80504733091959
  0
LINE
  8
_2-d_ハッチ他
  6
CONTINUOUS
 62
    4
 10
866.71148053696675
 20
341.94718295465293
 11
906.71148053696561
 21
381.94718295465179
  0
LINE
  8
_2-d_ハッチ他
  6
CONTINUOUS
 62
    4
 10
866.71148053696561
 20
356.08931857838627
 11
906.71148053696561
 21
396.08931857838627
  0
LINE
  8
_2-d_ハッチ他
  6
CONTINUOUS
 62
    4
 10
866.71148053696561
 20
370.23145420211051
 11
906.71148053696561
 21
410.23145420211279
  0
LINE
  8
_2-d_ハッチ他
  6
CONTINUOUS
 62
    4
 10
866.71148053696447
 20
384.37358982584158
 11
905.85727470964434
 21
423.51938399852372
  0
LINE
  8
_2-d_ハッチ他
  6
CONTINUOUS
 62
    4
 10
866.71148053696561
 20
398.51572544957719
 11
891.71513908591214
 21
423.51938399852372
  0
LINE
  8
_2-d_ハッチ他
  6
CONTINUOUS
 62
    4
 10
897.27863094694817
 20
273.519383998526
 11
906.71148053696561
 21
282.95223358854003
  0
LINE
  8
_2-d_ハッチ他
  6
CONTINUOUS
 62
    4
 10
890.90828451788161
 20
423.51938399852372
 11
906.71148053696561
 21
407.716187979442
  0
LINE
  8
_2-e_con他
  6
CONTINUOUS
 62
    4
 10
906.71148053696561
 20
285.6859101278684
 11
1044.5449544076198
 21
423.51938399852372
  0
LINE
  8
_2-e_con他
  6
CONTINUOUS
 62
    4
 10
906.71148053696561
 20
278.614842316004
 11
1051.6160222194853
 21
423.51938399852372
  0
TEXT
  8
_2-a_moji
 62
    7
 10
1109.7957406036082
 20
1178.8082626187615
 40
15
 41
1
 50
0
  1
ＱＮパネル
  0
TEXT
  8
_2-a_moji
 62
    7
 10
1165.1695927997057
 20
538.80826261876166
 40
15
 41
1
 50
0
  1
ＱＮパネル
  0
ENDSEC
  0
EOF
